  0
SECTION
  2
HEADER
  9
$ACADVER
  1
AC1027
  9
$ACADMAINTVER
 70
   125
  9
$DWGCODEPAGE
  3
ANSI_1252
  9
$REQUIREDVERSIONS
160
                 0
  9
$INSBASE
 10
0.0
 20
0.0
 30
0.0
  9
$EXTMIN
 10
1.000000000000000E+20
 20
1.000000000000000E+20
 30
1.000000000000000E+20
  9
$EXTMAX
 10
-1.000000000000000E+20
 20
-1.000000000000000E+20
 30
-1.000000000000000E+20
  9
$LIMMIN
 10
0.0
 20
0.0
  9
$LIMMAX
 10
12.0
 20
9.0
  9
$ORTHOMODE
 70
     0
  9
$REGENMODE
 70
     1
  9
$FILLMODE
 70
     1
  9
$QTEXTMODE
 70
     0
  9
$MIRRTEXT
 70
     0
  9
$LTSCALE
 40
1.0
  9
$ATTMODE
 70
     1
  9
$TEXTSIZE
 40
0.2
  9
$TRACEWID
 40
0.05
  9
$TEXTSTYLE
  7
Standard
  9
$CLAYER
  8
0
  9
$CELTYPE
  6
ByLayer
  9
$CECOLOR
 62
   256
  9
$CELTSCALE
 40
1.0
  9
$DISPSILH
 70
     0
  9
$DIMSCALE
 40
1.0
  9
$DIMASZ
 40
0.18
  9
$DIMEXO
 40
0.0625
  9
$DIMDLI
 40
0.38
  9
$DIMRND
 40
0.0
  9
$DIMDLE
 40
0.0
  9
$DIMEXE
 40
0.18
  9
$DIMTP
 40
0.0
  9
$DIMTM
 40
0.0
  9
$DIMTXT
 40
0.18
  9
$DIMCEN
 40
0.09
  9
$DIMTSZ
 40
0.0
  9
$DIMTOL
 70
     0
  9
$DIMLIM
 70
     0
  9
$DIMTIH
 70
     1
  9
$DIMTOH
 70
     1
  9
$DIMSE1
 70
     0
  9
$DIMSE2
 70
     0
  9
$DIMTAD
 70
     0
  9
$DIMZIN
 70
     0
  9
$DIMBLK
  1

  9
$DIMASO
 70
     1
  9
$DIMSHO
 70
     1
  9
$DIMPOST
  1

  9
$DIMAPOST
  1

  9
$DIMALT
 70
     0
  9
$DIMALTD
 70
     2
  9
$DIMALTF
 40
25.4
  9
$DIMLFAC
 40
1.0
  9
$DIMTOFL
 70
     0
  9
$DIMTVP
 40
0.0
  9
$DIMTIX
 70
     0
  9
$DIMSOXD
 70
     0
  9
$DIMSAH
 70
     0
  9
$DIMBLK1
  1

  9
$DIMBLK2
  1

  9
$DIMSTYLE
  2
Standard
  9
$DIMCLRD
 70
     0
  9
$DIMCLRE
 70
     0
  9
$DIMCLRT
 70
     0
  9
$DIMTFAC
 40
1.0
  9
$DIMGAP
 40
0.09
  9
$DIMJUST
 70
     0
  9
$DIMSD1
 70
     0
  9
$DIMSD2
 70
     0
  9
$DIMTOLJ
 70
     1
  9
$DIMTZIN
 70
     0
  9
$DIMALTZ
 70
     0
  9
$DIMALTTZ
 70
     0
  9
$DIMUPT
 70
     0
  9
$DIMDEC
 70
     4
  9
$DIMTDEC
 70
     4
  9
$DIMALTU
 70
     2
  9
$DIMALTTD
 70
     2
  9
$DIMTXSTY
  7
Standard
  9
$DIMAUNIT
 70
     0
  9
$DIMADEC
 70
     0
  9
$DIMALTRND
 40
0.0
  9
$DIMAZIN
 70
     0
  9
$DIMDSEP
 70
    46
  9
$DIMATFIT
 70
     3
  9
$DIMFRAC
 70
     0
  9
$DIMLDRBLK
  1

  9
$DIMLUNIT
 70
     2
  9
$DIMLWD
 70
    -2
  9
$DIMLWE
 70
    -2
  9
$DIMTMOVE
 70
     0
  9
$DIMFXL
 40
1.0
  9
$DIMFXLON
 70
     0
  9
$DIMJOGANG
 40
0.7853981633974483
  9
$DIMTFILL
 70
     0
  9
$DIMTFILLCLR
 70
     0
  9
$DIMARCSYM
 70
     0
  9
$DIMLTYPE
  6

  9
$DIMLTEX1
  6

  9
$DIMLTEX2
  6

  9
$DIMTXTDIRECTION
 70
     0
  9
$LUNITS
 70
     2
  9
$LUPREC
 70
     4
  9
$SKETCHINC
 40
0.1
  9
$FILLETRAD
 40
0.0
  9
$AUNITS
 70
     0
  9
$AUPREC
 70
     0
  9
$MENU
  1
.
  9
$ELEVATION
 40
0.0
  9
$PELEVATION
 40
0.0
  9
$THICKNESS
 40
0.0
  9
$LIMCHECK
 70
     0
  9
$CHAMFERA
 40
0.0
  9
$CHAMFERB
 40
0.0
  9
$CHAMFERC
 40
0.0
  9
$CHAMFERD
 40
0.0
  9
$SKPOLY
 70
     0
  9
$TDCREATE
 40
2459976.701689815
  9
$TDUCREATE
 40
2459976.660023148
  9
$TDUPDATE
 40
2459976.701689815
  9
$TDUUPDATE
 40
2459976.660023148
  9
$TDINDWG
 40
0.0000347222
  9
$TDUSRTIMER
 40
0.0000347222
  9
$USRTIMER
 70
     1
  9
$ANGBASE
 50
0.0
  9
$ANGDIR
 70
     0
  9
$PDMODE
 70
     0
  9
$PDSIZE
 40
0.0
  9
$PLINEWID
 40
0.0
  9
$SPLFRAME
 70
     0
  9
$SPLINETYPE
 70
     6
  9
$SPLINESEGS
 70
     8
  9
$HANDSEED
  5
3BD
  9
$SURFTAB1
 70
     6
  9
$SURFTAB2
 70
     6
  9
$SURFTYPE
 70
     6
  9
$SURFU
 70
     6
  9
$SURFV
 70
     6
  9
$UCSBASE
  2

  9
$UCSNAME
  2

  9
$UCSORG
 10
0.0
 20
0.0
 30
0.0
  9
$UCSXDIR
 10
1.0
 20
0.0
 30
0.0
  9
$UCSYDIR
 10
0.0
 20
1.0
 30
0.0
  9
$UCSORTHOREF
  2

  9
$UCSORTHOVIEW
 70
     0
  9
$UCSORGTOP
 10
0.0
 20
0.0
 30
0.0
  9
$UCSORGBOTTOM
 10
0.0
 20
0.0
 30
0.0
  9
$UCSORGLEFT
 10
0.0
 20
0.0
 30
0.0
  9
$UCSORGRIGHT
 10
0.0
 20
0.0
 30
0.0
  9
$UCSORGFRONT
 10
0.0
 20
0.0
 30
0.0
  9
$UCSORGBACK
 10
0.0
 20
0.0
 30
0.0
  9
$PUCSBASE
  2

  9
$PUCSNAME
  2

  9
$PUCSORG
 10
0.0
 20
0.0
 30
0.0
  9
$PUCSXDIR
 10
1.0
 20
0.0
 30
0.0
  9
$PUCSYDIR
 10
0.0
 20
1.0
 30
0.0
  9
$PUCSORTHOREF
  2

  9
$PUCSORTHOVIEW
 70
     0
  9
$PUCSORGTOP
 10
0.0
 20
0.0
 30
0.0
  9
$PUCSORGBOTTOM
 10
0.0
 20
0.0
 30
0.0
  9
$PUCSORGLEFT
 10
0.0
 20
0.0
 30
0.0
  9
$PUCSORGRIGHT
 10
0.0
 20
0.0
 30
0.0
  9
$PUCSORGFRONT
 10
0.0
 20
0.0
 30
0.0
  9
$PUCSORGBACK
 10
0.0
 20
0.0
 30
0.0
  9
$USERI1
 70
     0
  9
$USERI2
 70
     0
  9
$USERI3
 70
     0
  9
$USERI4
 70
     0
  9
$USERI5
 70
     0
  9
$USERR1
 40
0.0
  9
$USERR2
 40
0.0
  9
$USERR3
 40
0.0
  9
$USERR4
 40
0.0
  9
$USERR5
 40
0.0
  9
$WORLDVIEW
 70
     1
  9
$SHADEDGE
 70
     3
  9
$SHADEDIF
 70
    70
  9
$TILEMODE
 70
     1
  9
$MAXACTVP
 70
    64
  9
$PINSBASE
 10
0.0
 20
0.0
 30
0.0
  9
$PLIMCHECK
 70
     0
  9
$PEXTMIN
 10
1.000000000000000E+20
 20
1.000000000000000E+20
 30
1.000000000000000E+20
  9
$PEXTMAX
 10
-1.000000000000000E+20
 20
-1.000000000000000E+20
 30
-1.000000000000000E+20
  9
$PLIMMIN
 10
0.0
 20
0.0
  9
$PLIMMAX
 10
12.0
 20
9.0
  9
$UNITMODE
 70
     0
  9
$VISRETAIN
 70
     1
  9
$PLINEGEN
 70
     0
  9
$PSLTSCALE
 70
     1
  9
$TREEDEPTH
 70
  3020
  9
$CMLSTYLE
  2
Standard
  9
$CMLJUST
 70
     0
  9
$CMLSCALE
 40
1.0
  9
$PROXYGRAPHICS
 70
     1
  9
$MEASUREMENT
 70
     0
  9
$CELWEIGHT
370
    -1
  9
$ENDCAPS
280
     0
  9
$JOINSTYLE
280
     0
  9
$LWDISPLAY
290
     1
  9
$INSUNITS
 70
     4
  9
$HYPERLINKBASE
  1

  9
$STYLESHEET
  1

  9
$XEDIT
290
     1
  9
$CEPSNTYPE
380
     0
  9
$PSTYLEMODE
290
     1
  9
$FINGERPRINTGUID
  2
{BDC2146B-7F9E-A448-B168-5BE4F8F6E6AC}
  9
$VERSIONGUID
  2
{74CC3273-8396-B54F-A1C8-1FE7C9AC77D0}
  9
$EXTNAMES
290
     1
  9
$PSVPSCALE
 40
0.0
  9
$OLESTARTUP
290
     0
  9
$SORTENTS
280
   127
  9
$INDEXCTL
280
     0
  9
$HIDETEXT
280
     1
  9
$XCLIPFRAME
280
     2
  9
$HALOGAP
280
     0
  9
$OBSCOLOR
 70
   257
  9
$OBSLTYPE
280
     0
  9
$INTERSECTIONDISPLAY
280
     0
  9
$INTERSECTIONCOLOR
 70
   257
  9
$DIMASSOC
280
     2
  9
$PROJECTNAME
  1

  9
$CAMERADISPLAY
290
     0
  9
$LENSLENGTH
 40
50.0
  9
$CAMERAHEIGHT
 40
0.0
  9
$STEPSPERSEC
 40
2.0
  9
$STEPSIZE
 40
6.0
  9
$3DDWFPREC
 40
2.0
  9
$PSOLWIDTH
 40
0.25
  9
$PSOLHEIGHT
 40
4.0
  9
$LOFTANG1
 40
1.570796326794896
  9
$LOFTANG2
 40
1.570796326794896
  9
$LOFTMAG1
 40
0.0
  9
$LOFTMAG2
 40
0.0
  9
$LOFTPARAM
 70
     7
  9
$LOFTNORMALS
280
     1
  9
$LATITUDE
 40
37.795
  9
$LONGITUDE
 40
-122.394
  9
$NORTHDIRECTION
 40
0.0
  9
$TIMEZONE
 70
 -8000
  9
$LIGHTGLYPHDISPLAY
280
     1
  9
$TILEMODELIGHTSYNCH
280
     1
  9
$CMATERIAL
347
11
  9
$SOLIDHIST
280
     0
  9
$SHOWHIST
280
     1
  9
$DWFFRAME
280
     2
  9
$DGNFRAME
280
     0
  9
$REALWORLDSCALE
290
     1
  9
$INTERFERECOLOR
 62
     1
  9
$INTERFEREOBJVS
345
33
  9
$INTERFEREVPVS
346
30
  9
$CSHADOW
280
     0
  9
$SHADOWPLANELOCATION
 40
0.0
  0
ENDSEC
  0
SECTION
  2
CLASSES
  0
CLASS
  1
ACDBDICTIONARYWDFLT
  2
AcDbDictionaryWithDefault
  3
ObjectDBX Classes
 90
        0
 91
        1
280
     0
281
     0
  0
CLASS
  1
MATERIAL
  2
AcDbMaterial
  3
ObjectDBX Classes
 90
     1153
 91
        3
280
     0
281
     0
  0
CLASS
  1
VISUALSTYLE
  2
AcDbVisualStyle
  3
ObjectDBX Classes
 90
     4095
 91
       24
280
     0
281
     0
  0
CLASS
  1
SCALE
  2
AcDbScale
  3
ObjectDBX Classes
 90
     1153
 91
       17
280
     0
281
     0
  0
CLASS
  1
TABLESTYLE
  2
AcDbTableStyle
  3
ObjectDBX Classes
 90
     4095
 91
        1
280
     0
281
     0
  0
CLASS
  1
MLEADERSTYLE
  2
AcDbMLeaderStyle
  3
ACDB_MLEADERSTYLE_CLASS
 90
     4095
 91
        1
280
     0
281
     0
  0
CLASS
  1
ACDBSECTIONVIEWSTYLE
  2
AcDbSectionViewStyle
  3
ObjectDBX Classes
 90
     1025
 91
        1
280
     0
281
     0
  0
CLASS
  1
ACDBDETAILVIEWSTYLE
  2
AcDbDetailViewStyle
  3
ObjectDBX Classes
 90
     1025
 91
        1
280
     0
281
     0
  0
CLASS
  1
DICTIONARYVAR
  2
AcDbDictionaryVar
  3
ObjectDBX Classes
 90
        0
 91
        5
280
     0
281
     0
  0
CLASS
  1
CELLSTYLEMAP
  2
AcDbCellStyleMap
  3
ObjectDBX Classes
 90
     1152
 91
        1
280
     0
281
     0
  0
ENDSEC
  0
SECTION
  2
TABLES
  0
TABLE
  2
VPORT
  5
8
330
0
100
AcDbSymbolTable
 70
     1
1001
ACAD
1000
DbSaveVer
1071
      278
  0
VPORT
  5
57
330
8
100
AcDbSymbolTableRecord
100
AcDbViewportTableRecord
  2
*Active
 70
     0
 10
0.0
 20
0.0
 11
1.0
 21
1.0
 12
0.0
 22
0.0
 13
0.0
 23
0.0
 14
1.0
 24
1.0
 15
0.0
 25
0.0
 16
0.0
 26
0.0
 36
1.0
 17
113.594444416046
 27
173.9726306754563
 37
0.0
 40
164.9121666254288
 41
1.079347625790089
 42
50.0
 43
0.0
 44
0.0
 50
0.0
 51
0.0
 71
     0
 72
   100
 73
     1
 74
     1
 75
     0
 76
     0
 77
     0
 78
     0
281
     0
 65
     1
110
0.0
120
0.0
130
0.0
111
1.0
121
0.0
131
0.0
112
0.0
122
1.0
132
0.0
 79
     0
146
0.0
 60
     3
 61
     5
292
     1
282
     1
141
0.0
142
0.0
 63
   250
421
  3355443
  0
ENDTAB
  0
TABLE
  2
LTYPE
  5
5
330
0
100
AcDbSymbolTable
 70
     1
  0
LTYPE
  5
5B
330
5
100
AcDbSymbolTableRecord
100
AcDbLinetypeTableRecord
  2
ByBlock
 70
     0
  3

 72
    65
 73
     0
 40
0.0
  0
LTYPE
  5
5C
330
5
100
AcDbSymbolTableRecord
100
AcDbLinetypeTableRecord
  2
ByLayer
 70
     0
  3

 72
    65
 73
     0
 40
0.0
  0
LTYPE
  5
5D
330
5
100
AcDbSymbolTableRecord
100
AcDbLinetypeTableRecord
  2
Continuous
 70
     0
  3
Solid line
 72
    65
 73
     0
 40
0.0
  0
ENDTAB
  0
TABLE
  2
LAYER
  5
2
330
0
100
AcDbSymbolTable
 70
     5
  0
LAYER
  5
54
330
2
100
AcDbSymbolTableRecord
100
AcDbLayerTableRecord
  2
0
 70
     0
 62
     7
  6
Continuous
370
     0
390
F
347
21
348
0
  0
LAYER
  5
326
330
2
100
AcDbSymbolTableRecord
100
AcDbLayerTableRecord
  2
REDONDEOS
 70
     0
 62
     7
  6
Continuous
370
     0
390
F
347
21
348
0
  0
LAYER
  5
33F
330
2
100
AcDbSymbolTableRecord
100
AcDbLayerTableRecord
  2
DESMOLDEO
 70
     0
 62
     7
  6
Continuous
370
     0
390
F
347
21
348
0
  0
LAYER
  5
39F
330
2
100
AcDbSymbolTableRecord
100
AcDbLayerTableRecord
  2
02___PRT_ALL_AXES
 70
     0
 62
     7
  6
Continuous
370
     0
390
F
347
21
348
0
  0
LAYER
  5
3A2
330
2
100
AcDbSymbolTableRecord
100
AcDbLayerTableRecord
  2
03__EJES
 70
     0
 62
     7
  6
Continuous
370
     0
390
F
347
21
348
0
  0
ENDTAB
  0
TABLE
  2
STYLE
  5
3
330
0
100
AcDbSymbolTable
 70
     2
  0
STYLE
  5
55
330
3
100
AcDbSymbolTableRecord
100
AcDbTextStyleTableRecord
  2
Standard
 70
     0
 40
0.0
 41
1.0
 50
0.0
 71
     0
 42
0.2
  3
txt
  4

  0
STYLE
  5
5A
330
3
100
AcDbSymbolTableRecord
100
AcDbTextStyleTableRecord
  2
Annotative
 70
     0
 40
0.0
 41
1.0
 50
0.0
 71
     0
 42
0.2
  3
txt
  4

1001
AcadAnnotative
1000
AnnotativeData
1002
{
1070
     1
1070
     1
1002
}
  0
ENDTAB
  0
TABLE
  2
VIEW
  5
6
330
0
100
AcDbSymbolTable
 70
     0
  0
ENDTAB
  0
TABLE
  2
UCS
  5
7
330
0
100
AcDbSymbolTable
 70
     0
  0
ENDTAB
  0
TABLE
  2
APPID
  5
9
330
0
100
AcDbSymbolTable
 70
     2
  0
APPID
  5
56
330
9
100
AcDbSymbolTableRecord
100
AcDbRegAppTableRecord
  2
ACAD
 70
     0
  0
APPID
  5
5E
330
9
100
AcDbSymbolTableRecord
100
AcDbRegAppTableRecord
  2
AcadAnnotative
 70
     0
  0
ENDTAB
  0
TABLE
  2
DIMSTYLE
  5
A
330
0
100
AcDbSymbolTable
 70
     2
100
AcDbDimStyleTable
 71
     0
  0
DIMSTYLE
105
58
330
A
100
AcDbSymbolTableRecord
100
AcDbDimStyleTableRecord
  2
Standard
 70
     0
340
55
  0
DIMSTYLE
105
59
330
A
100
AcDbSymbolTableRecord
100
AcDbDimStyleTableRecord
  2
Annotative
 70
     0
340
55
1001
AcadAnnotative
1000
AnnotativeData
1002
{
1070
     1
1070
     1
1002
}
  0
ENDTAB
  0
TABLE
  2
BLOCK_RECORD
  5
1
330
0
100
AcDbSymbolTable
 70
     1
  0
BLOCK_RECORD
  5
70
330
1
100
AcDbSymbolTableRecord
100
AcDbBlockTableRecord
  2
*Model_Space
340
73
 70
     0
280
     1
281
     0
  0
BLOCK_RECORD
  5
6C
330
1
100
AcDbSymbolTableRecord
100
AcDbBlockTableRecord
  2
*Paper_Space
340
6F
 70
     0
280
     1
281
     0
  0
BLOCK_RECORD
  5
74
330
1
100
AcDbSymbolTableRecord
100
AcDbBlockTableRecord
  2
*Paper_Space0
340
77
 70
     0
280
     1
281
     0
  0
ENDTAB
  0
ENDSEC
  0
SECTION
  2
BLOCKS
  0
BLOCK
  5
71
330
70
100
AcDbEntity
  8
0
100
AcDbBlockBegin
  2
*Model_Space
 70
     0
 10
0.0
 20
0.0
 30
0.0
  3
*Model_Space
  1

  0
ENDBLK
  5
72
330
70
100
AcDbEntity
  8
0
100
AcDbBlockEnd
  0
BLOCK
  5
6D
330
6C
100
AcDbEntity
 67
     1
  8
0
100
AcDbBlockBegin
  2
*Paper_Space
 70
     0
 10
0.0
 20
0.0
 30
0.0
  3
*Paper_Space
  1

  0
ENDBLK
  5
6E
330
6C
100
AcDbEntity
 67
     1
  8
0
100
AcDbBlockEnd
  0
BLOCK
  5
75
330
74
100
AcDbEntity
 67
     1
  8
0
100
AcDbBlockBegin
  2
*Paper_Space0
 70
     0
 10
0.0
 20
0.0
 30
0.0
  3
*Paper_Space0
  1

  0
ENDBLK
  5
76
330
74
100
AcDbEntity
 67
     1
  8
0
100
AcDbBlockEnd
  0
ENDSEC
  0
SECTION
  2
ENTITIES
  0
MTEXT
  5
78
330
70
100
AcDbEntity
  8
0
100
AcDbMText
 10
35.89421301050344
 20
158.364493775513
 30
0.0
 40
0.2
 41
0.0
 46
0.0
 71
     7
 72
     1
  1
\C18;\c0;\FMyriad Pro|b0|i0|c1;\H3.496733;\W0.800000;45
 11
0.0000000000000001
 21
1.0
 31
0.0
 73
     1
 44
1.0
  0
LINE
  5
79
330
70
100
AcDbEntity
  8
0
 62
    18
420
        0
370
    35
100
AcDbLine
 10
47.87391774491069
 20
137.406052340865
 30
0.0
 11
35.39463350385564
 21
137.406052340865
 31
0.0
  0
LINE
  5
7A
330
70
100
AcDbEntity
  8
0
 62
    18
420
        0
370
    35
100
AcDbLine
 10
47.87391774491069
 20
182.3679259679686
 30
0.0
 11
35.39463350385564
 21
182.3679259679686
 31
0.0
  0
LINE
  5
7B
330
70
100
AcDbEntity
  8
0
 62
    18
420
        0
370
    35
100
AcDbLine
 10
36.39378625112441
 20
137.406052340865
 30
0.0
 11
36.39378625112441
 21
159.8869891544167
 31
0.0
  0
LINE
  5
7C
330
70
100
AcDbEntity
  8
0
 62
    18
420
        0
370
    35
100
AcDbLine
 10
36.39378625112441
 20
182.3679259679686
 30
0.0
 11
36.39378625112441
 21
159.8869891544167
 31
0.0
  0
LWPOLYLINE
  5
7D
330
70
100
AcDbEntity
  8
0
100
AcDbPolyline
 90
        3
 70
     1
 43
0.0
 10
36.39378625112441
 20
137.406052340865
 10
35.89420987749002
 20
139.4043578354026
 10
36.89336262475912
 20
139.4043578354026
  0
HATCH
  5
7E
330
70
100
AcDbEntity
  8
0
 62
    18
420
        0
440
 33554687
100
AcDbHatch
 10
0.0
 20
0.0
 30
0.0
210
0.0
220
0.0
230
1.0
  2
SOLID
 70
     1
 71
     1
 91
        1
 92
        1
 93
        3
 72
     1
 10
36.39378625112441
 20
137.406052340865
 11
35.89420987749002
 21
139.4043578354026
 72
     1
 10
35.89420987749002
 20
139.4043578354026
 11
36.89336262475912
 21
139.4043578354026
 72
     1
 10
36.89336262475912
 20
139.4043578354026
 11
36.39378625112441
 21
137.406052340865
 97
        1
330
7D
 75
     2
 76
     1
 98
        1
 10
0.0
 20
0.0
450
        0
451
        0
460
0.0
461
0.0
452
        0
462
0.0
453
        0
470

  0
LWPOLYLINE
  5
7F
330
70
100
AcDbEntity
  8
0
100
AcDbPolyline
 90
        3
 70
     1
 43
0.0
 10
36.39378625112441
 20
182.3679259679686
 10
36.89336262475912
 20
180.3696204734304
 10
35.89420987749002
 20
180.3696204734304
  0
HATCH
  5
80
330
70
100
AcDbEntity
  8
0
 62
    18
420
        0
440
 33554687
100
AcDbHatch
 10
0.0
 20
0.0
 30
0.0
210
0.0
220
0.0
230
1.0
  2
SOLID
 70
     1
 71
     1
 91
        1
 92
        1
 93
        3
 72
     1
 10
36.39378625112441
 20
182.3679259679686
 11
36.89336262475912
 21
180.3696204734304
 72
     1
 10
36.89336262475912
 20
180.3696204734304
 11
35.89420987749002
 21
180.3696204734304
 72
     1
 10
35.89420987749002
 20
180.3696204734304
 11
36.39378625112441
 21
182.3679259679686
 97
        1
330
7F
 75
     2
 76
     1
 98
        1
 10
0.0
 20
0.0
450
        0
451
        0
460
0.0
461
0.0
452
        0
462
0.0
453
        0
470

  0
MTEXT
  5
81
330
70
100
AcDbEntity
  8
0
100
AcDbMText
 10
190.8430722501272
 20
157.6768527166572
 30
0.0
 40
0.2
 41
0.0
 46
0.0
 71
     7
 72
     1
  1
\C18;\c0;\FMyriad Pro|b0|i0|c1;\H3.496733;\W0.800000;109
 11
0.0000000000000001
 21
1.0
 31
0.0
 73
     1
 44
1.0
  0
LINE
  5
82
330
70
100
AcDbEntity
  8
0
 62
    18
420
        0
370
    35
100
AcDbLine
 10
171.900295694531
 20
105.5330797029846
 30
0.0
 11
192.3418036926359
 21
105.5330797029846
 31
0.0
  0
LINE
  5
83
330
70
100
AcDbEntity
  8
0
 62
    18
420
        0
370
    35
100
AcDbLine
 10
165.9053792109171
 20
214.5406444300294
 30
0.0
 11
192.3418036926359
 21
214.5406444300294
 31
0.0
  0
LINE
  5
84
330
70
100
AcDbEntity
  8
0
 62
    18
420
        0
370
    35
100
AcDbLine
 10
191.3426509453671
 20
105.5330797029846
 30
0.0
 11
191.3426509453671
 21
160.036862066507
 31
0.0
  0
LINE
  5
85
330
70
100
AcDbEntity
  8
0
 62
    18
420
        0
370
    35
100
AcDbLine
 10
191.3426509453671
 20
214.5406444300294
 30
0.0
 11
191.3426509453671
 21
160.036862066507
 31
0.0
  0
LWPOLYLINE
  5
86
330
70
100
AcDbEntity
  8
0
100
AcDbPolyline
 90
        3
 70
     1
 43
0.0
 10
191.3426509453671
 20
105.5330797029846
 10
190.8430745717327
 20
107.5313851975222
 10
191.8422273190015
 20
107.5313851975222
  0
HATCH
  5
87
330
70
100
AcDbEntity
  8
0
 62
    18
420
        0
440
 33554687
100
AcDbHatch
 10
0.0
 20
0.0
 30
0.0
210
0.0
220
0.0
230
1.0
  2
SOLID
 70
     1
 71
     1
 91
        1
 92
        1
 93
        3
 72
     1
 10
191.3426509453671
 20
105.5330797029846
 11
190.8430745717327
 21
107.5313851975222
 72
     1
 10
190.8430745717327
 20
107.5313851975222
 11
191.8422273190015
 21
107.5313851975222
 72
     1
 10
191.8422273190015
 20
107.5313851975222
 11
191.3426509453671
 21
105.5330797029846
 97
        1
330
86
 75
     2
 76
     1
 98
        1
 10
0.0
 20
0.0
450
        0
451
        0
460
0.0
461
0.0
452
        0
462
0.0
453
        0
470

  0
LWPOLYLINE
  5
88
330
70
100
AcDbEntity
  8
0
100
AcDbPolyline
 90
        3
 70
     1
 43
0.0
 10
191.3426509453671
 20
214.5406444300294
 10
191.8422273190015
 20
212.5423389354915
 10
190.8430745717327
 20
212.5423389354915
  0
HATCH
  5
89
330
70
100
AcDbEntity
  8
0
 62
    18
420
        0
440
 33554687
100
AcDbHatch
 10
0.0
 20
0.0
 30
0.0
210
0.0
220
0.0
230
1.0
  2
SOLID
 70
     1
 71
     1
 91
        1
 92
        1
 93
        3
 72
     1
 10
191.3426509453671
 20
214.5406444300294
 11
191.8422273190015
 21
212.5423389354915
 72
     1
 10
191.8422273190015
 20
212.5423389354915
 11
190.8430745717327
 21
212.5423389354915
 72
     1
 10
190.8430745717327
 20
212.5423389354915
 11
191.3426509453671
 21
214.5406444300294
 97
        1
330
88
 75
     2
 76
     1
 98
        1
 10
0.0
 20
0.0
450
        0
451
        0
460
0.0
461
0.0
452
        0
462
0.0
453
        0
470

  0
MTEXT
  5
8A
330
70
100
AcDbEntity
  8
0
100
AcDbMText
 10
124.9959879244801
 20
156.5540960980142
 30
0.0
 40
0.2
 41
0.0
 46
0.0
 71
     7
 72
     1
  1
\C18;\c0;\FMyriad Pro|b0|i0|c1;\H3.496733;\W0.800000;35.5
 11
0.0000000000000001
 21
1.0
 31
0.0
 73
     1
 44
1.0
  0
LINE
  5
8B
330
70
100
AcDbEntity
  8
0
 62
    18
420
        0
370
    35
100
AcDbLine
 10
116.1160503833816
 20
142.1520278903923
 30
0.0
 11
126.4947190255177
 21
142.1520278903923
 31
0.0
  0
LINE
  5
8C
330
70
100
AcDbEntity
  8
0
 62
    18
420
        0
370
    35
100
AcDbLine
 10
119.8074565410571
 20
177.621950418441
 30
0.0
 11
126.4947190255177
 21
177.621950418441
 31
0.0
  0
LINE
  5
8D
330
70
100
AcDbEntity
  8
0
 62
    18
420
        0
370
    35
100
AcDbLine
 10
125.4955662782489
 20
142.1520278903923
 30
0.0
 11
125.4955662782489
 21
159.8869891544167
 31
0.0
  0
LINE
  5
8E
330
70
100
AcDbEntity
  8
0
 62
    18
420
        0
370
    35
100
AcDbLine
 10
125.4955662782489
 20
177.621950418441
 30
0.0
 11
125.4955662782489
 21
159.8869891544167
 31
0.0
  0
LWPOLYLINE
  5
8F
330
70
100
AcDbEntity
  8
0
100
AcDbPolyline
 90
        3
 70
     1
 43
0.0
 10
125.4955662782489
 20
142.1520278903923
 10
124.9959899046145
 20
144.1503333849305
 10
125.9951426518833
 20
144.1503333849305
  0
HATCH
  5
90
330
70
100
AcDbEntity
  8
0
 62
    18
420
        0
440
 33554687
100
AcDbHatch
 10
0.0
 20
0.0
 30
0.0
210
0.0
220
0.0
230
1.0
  2
SOLID
 70
     1
 71
     1
 91
        1
 92
        1
 93
        3
 72
     1
 10
125.4955662782489
 20
142.1520278903923
 11
124.9959899046145
 21
144.1503333849305
 72
     1
 10
124.9959899046145
 20
144.1503333849305
 11
125.9951426518833
 21
144.1503333849305
 72
     1
 10
125.9951426518833
 20
144.1503333849305
 11
125.4955662782489
 21
142.1520278903923
 97
        1
330
8F
 75
     2
 76
     1
 98
        1
 10
0.0
 20
0.0
450
        0
451
        0
460
0.0
461
0.0
452
        0
462
0.0
453
        0
470

  0
LWPOLYLINE
  5
91
330
70
100
AcDbEntity
  8
0
100
AcDbPolyline
 90
        3
 70
     1
 43
0.0
 10
125.4955662782489
 20
177.621950418441
 10
125.9951426518833
 20
175.6236449239028
 10
124.9959899046145
 20
175.6236449239028
  0
HATCH
  5
92
330
70
100
AcDbEntity
  8
0
 62
    18
420
        0
440
 33554687
100
AcDbHatch
 10
0.0
 20
0.0
 30
0.0
210
0.0
220
0.0
230
1.0
  2
SOLID
 70
     1
 71
     1
 91
        1
 92
        1
 93
        3
 72
     1
 10
125.4955662782489
 20
177.621950418441
 11
125.9951426518833
 21
175.6236449239028
 72
     1
 10
125.9951426518833
 20
175.6236449239028
 11
124.9959899046145
 21
175.6236449239028
 72
     1
 10
124.9959899046145
 20
175.6236449239028
 11
125.4955662782489
 21
177.621950418441
 97
        1
330
91
 75
     2
 76
     1
 98
        1
 10
0.0
 20
0.0
450
        0
451
        0
460
0.0
461
0.0
452
        0
462
0.0
453
        0
470

  0
MTEXT
  5
93
330
70
100
AcDbEntity
  8
0
100
AcDbMText
 10
182.0326119709578
 20
158.364493775513
 30
0.0
 40
0.2
 41
0.0
 46
0.0
 71
     7
 72
     1
  1
\C18;\c0;\FMyriad Pro|b0|i0|c1;\H3.496733;\W0.800000;90
 11
0.0000000000000001
 21
1.0
 31
0.0
 73
     1
 44
1.0
  0
LINE
  5
94
330
70
100
AcDbEntity
  8
0
 62
    18
420
        0
370
    35
100
AcDbLine
 10
174.0484741011595
 20
204.8488627815203
 30
0.0
 11
183.5313430590086
 21
204.8488627815203
 31
0.0
  0
LINE
  5
95
330
70
100
AcDbEntity
  8
0
 62
    18
420
        0
370
    35
100
AcDbLine
 10
174.0484741011595
 20
114.925115527313
 30
0.0
 11
183.5313430590086
 21
114.925115527313
 31
0.0
  0
LINE
  5
96
330
70
100
AcDbEntity
  8
0
 62
    18
420
        0
370
    35
100
AcDbLine
 10
182.5321903117398
 20
204.8488627815203
 30
0.0
 11
182.5321903117398
 21
159.8869891544167
 31
0.0
  0
LINE
  5
97
330
70
100
AcDbEntity
  8
0
 62
    18
420
        0
370
    35
100
AcDbLine
 10
182.5321903117398
 20
114.925115527313
 30
0.0
 11
182.5321903117398
 21
159.8869891544167
 31
0.0
  0
LWPOLYLINE
  5
98
330
70
100
AcDbEntity
  8
0
100
AcDbPolyline
 90
        3
 70
     1
 43
0.0
 10
182.5321903117398
 20
204.8488627815203
 10
183.0317666853742
 20
202.8505572869824
 10
182.0326139381054
 20
202.8505572869824
  0
HATCH
  5
99
330
70
100
AcDbEntity
  8
0
 62
    18
420
        0
440
 33554687
100
AcDbHatch
 10
0.0
 20
0.0
 30
0.0
210
0.0
220
0.0
230
1.0
  2
SOLID
 70
     1
 71
     1
 91
        1
 92
        1
 93
        3
 72
     1
 10
182.5321903117398
 20
204.8488627815203
 11
183.0317666853742
 21
202.8505572869824
 72
     1
 10
183.0317666853742
 20
202.8505572869824
 11
182.0326139381054
 21
202.8505572869824
 72
     1
 10
182.0326139381054
 20
202.8505572869824
 11
182.5321903117398
 21
204.8488627815203
 97
        1
330
98
 75
     2
 76
     1
 98
        1
 10
0.0
 20
0.0
450
        0
451
        0
460
0.0
461
0.0
452
        0
462
0.0
453
        0
470

  0
LWPOLYLINE
  5
9A
330
70
100
AcDbEntity
  8
0
100
AcDbPolyline
 90
        3
 70
     1
 43
0.0
 10
182.5321903117398
 20
114.925115527313
 10
182.0326139381054
 20
116.9234210218506
 10
183.0317666853742
 20
116.9234210218506
  0
HATCH
  5
9B
330
70
100
AcDbEntity
  8
0
 62
    18
420
        0
440
 33554687
100
AcDbHatch
 10
0.0
 20
0.0
 30
0.0
210
0.0
220
0.0
230
1.0
  2
SOLID
 70
     1
 71
     1
 91
        1
 92
        1
 93
        3
 72
     1
 10
182.5321903117398
 20
114.925115527313
 11
182.0326139381054
 21
116.9234210218506
 72
     1
 10
182.0326139381054
 20
116.9234210218506
 11
183.0317666853742
 21
116.9234210218506
 72
     1
 10
183.0317666853742
 20
116.9234210218506
 11
182.5321903117398
 21
114.925115527313
 97
        1
330
9A
 75
     2
 76
     1
 98
        1
 10
0.0
 20
0.0
450
        0
451
        0
460
0.0
461
0.0
452
        0
462
0.0
453
        0
470

  0
MTEXT
  5
9C
330
70
100
AcDbEntity
  8
0
100
AcDbMText
 10
161.5281357255414
 20
222.1110980008416
 30
0.0
 40
0.2
 41
0.0
 46
0.0
 71
     7
 72
     1
  1
\C18;\c0;\FMyriad Pro|b0|i0|c1;\H3.496733;\W0.800000;17.5
 73
     1
 44
1.0
  0
LINE
  5
9D
330
70
100
AcDbEntity
  8
0
 62
    18
420
        0
370
    35
100
AcDbLine
 10
155.5641482766833
 20
205.5428106973895
 30
0.0
 11
155.5641482766833
 21
222.6106699212159
 31
0.0
  0
LINE
  5
9E
330
70
100
AcDbEntity
  8
0
 62
    18
420
        0
370
    35
100
AcDbLine
 10
173.0493213538901
 20
205.8480155287894
 30
0.0
 11
173.0493213538901
 21
222.6106699212159
 31
0.0
  0
LINE
  5
9F
330
70
100
AcDbEntity
  8
0
 62
    18
420
        0
370
    35
100
AcDbLine
 10
155.5641482766833
 20
221.6115171739468
 30
0.0
 11
164.306734815287
 21
221.6115171739468
 31
0.0
  0
LINE
  5
A0
330
70
100
AcDbEntity
  8
0
 62
    18
420
        0
370
    35
100
AcDbLine
 10
173.0493213538901
 20
221.6115171739468
 30
0.0
 11
164.306734815287
 21
221.6115171739468
 31
0.0
  0
LWPOLYLINE
  5
A1
330
70
100
AcDbEntity
  8
0
100
AcDbPolyline
 90
        3
 70
     1
 43
0.0
 10
155.5641482766833
 20
221.6115171739468
 10
157.5624537712215
 20
222.1110935475815
 10
157.5624537712215
 20
221.1119408003124
  0
HATCH
  5
A2
330
70
100
AcDbEntity
  8
0
 62
    18
420
        0
440
 33554687
100
AcDbHatch
 10
0.0
 20
0.0
 30
0.0
210
0.0
220
0.0
230
1.0
  2
SOLID
 70
     1
 71
     1
 91
        1
 92
        1
 93
        3
 72
     1
 10
155.5641482766833
 20
221.6115171739468
 11
157.5624537712215
 21
222.1110935475815
 72
     1
 10
157.5624537712215
 20
222.1110935475815
 11
157.5624537712215
 21
221.1119408003124
 72
     1
 10
157.5624537712215
 20
221.1119408003124
 11
155.5641482766833
 21
221.6115171739468
 97
        1
330
A1
 75
     2
 76
     1
 98
        1
 10
0.0
 20
0.0
450
        0
451
        0
460
0.0
461
0.0
452
        0
462
0.0
453
        0
470

  0
LWPOLYLINE
  5
A3
330
70
100
AcDbEntity
  8
0
100
AcDbPolyline
 90
        3
 70
     1
 43
0.0
 10
173.0493213538901
 20
221.6115171739468
 10
171.0510158593526
 20
221.1119408003124
 10
171.0510158593526
 20
222.1110935475815
  0
HATCH
  5
A4
330
70
100
AcDbEntity
  8
0
 62
    18
420
        0
440
 33554687
100
AcDbHatch
 10
0.0
 20
0.0
 30
0.0
210
0.0
220
0.0
230
1.0
  2
SOLID
 70
     1
 71
     1
 91
        1
 92
        1
 93
        3
 72
     1
 10
173.0493213538901
 20
221.6115171739468
 11
171.0510158593526
 21
221.1119408003124
 72
     1
 10
171.0510158593526
 20
221.1119408003124
 11
171.0510158593526
 21
222.1110935475815
 72
     1
 10
171.0510158593526
 20
222.1110935475815
 11
173.0493213538901
 21
221.6115171739468
 97
        1
330
A3
 75
     2
 76
     1
 98
        1
 10
0.0
 20
0.0
450
        0
451
        0
460
0.0
461
0.0
452
        0
462
0.0
453
        0
470

  0
MTEXT
  5
A5
330
70
100
AcDbEntity
  8
0
100
AcDbMText
 10
80.49340716574905
 20
237.5431017811633
 30
0.0
 40
0.2
 41
0.0
 46
0.0
 71
     7
 72
     1
  1
\C18;\c0;\FMyriad Pro|b0|i0|c1;\H3.496733;\W0.800000;70.5
 73
     1
 44
1.0
  0
LINE
  5
A6
330
70
100
AcDbEntity
  8
0
 62
    18
420
        0
370
    35
100
AcDbLine
 10
48.67323994272538
 20
183.1637296707659
 30
0.0
 11
48.67323994272538
 21
238.0426740465153
 31
0.0
  0
LINE
  5
A7
330
70
100
AcDbEntity
  8
0
 62
     8
420
  8421504
370
    35
100
AcDbLine
 10
119.1135086251886
 20
205.8480155287894
 30
0.0
 11
119.1135086251886
 21
238.0426740465153
 31
0.0
  0
LINE
  5
A8
330
70
100
AcDbEntity
  8
0
 62
    18
420
        0
370
    35
100
AcDbLine
 10
48.67323994272538
 20
237.0435212992465
 30
0.0
 11
83.89337428395714
 21
237.0435212992465
 31
0.0
  0
LINE
  5
A9
330
70
100
AcDbEntity
  8
0
 62
    18
420
        0
370
    35
100
AcDbLine
 10
119.1135086251886
 20
237.0435212992465
 30
0.0
 11
83.89337428395714
 21
237.0435212992465
 31
0.0
  0
LWPOLYLINE
  5
AA
330
70
100
AcDbEntity
  8
0
100
AcDbPolyline
 90
        3
 70
     1
 43
0.0
 10
48.67323994272538
 20
237.0435212992465
 10
50.67154543726326
 20
237.5430976728809
 10
50.67154543726326
 20
236.5439449256121
  0
HATCH
  5
AB
330
70
100
AcDbEntity
  8
0
 62
    18
420
        0
440
 33554687
100
AcDbHatch
 10
0.0
 20
0.0
 30
0.0
210
0.0
220
0.0
230
1.0
  2
SOLID
 70
     1
 71
     1
 91
        1
 92
        1
 93
        3
 72
     1
 10
48.67323994272538
 20
237.0435212992465
 11
50.67154543726326
 21
237.5430976728809
 72
     1
 10
50.67154543726326
 20
237.5430976728809
 11
50.67154543726326
 21
236.5439449256121
 72
     1
 10
50.67154543726326
 20
236.5439449256121
 11
48.67323994272538
 21
237.0435212992465
 97
        1
330
AA
 75
     2
 76
     1
 98
        1
 10
0.0
 20
0.0
450
        0
451
        0
460
0.0
461
0.0
452
        0
462
0.0
453
        0
470

  0
LWPOLYLINE
  5
AC
330
70
100
AcDbEntity
  8
0
100
AcDbPolyline
 90
        3
 70
     1
 43
0.0
 10
119.1135086251886
 20
237.0435212992465
 10
117.1152031306504
 20
236.5439449256121
 10
117.1152031306504
 20
237.5430976728809
  0
HATCH
  5
AD
330
70
100
AcDbEntity
  8
0
 62
    18
420
        0
440
 33554687
100
AcDbHatch
 10
0.0
 20
0.0
 30
0.0
210
0.0
220
0.0
230
1.0
  2
SOLID
 70
     1
 71
     1
 91
        1
 92
        1
 93
        3
 72
     1
 10
119.1135086251886
 20
237.0435212992465
 11
117.1152031306504
 21
236.5439449256121
 72
     1
 10
117.1152031306504
 20
236.5439449256121
 11
117.1152031306504
 21
237.5430976728809
 72
     1
 10
117.1152031306504
 20
237.5430976728809
 11
119.1135086251886
 21
237.0435212992465
 97
        1
330
AC
 75
     2
 76
     1
 98
        1
 10
0.0
 20
0.0
450
        0
451
        0
460
0.0
461
0.0
452
        0
462
0.0
453
        0
470

  0
MTEXT
  5
AE
330
70
100
AcDbEntity
  8
0
100
AcDbMText
 10
84.72077079350352
 20
230.5459836595402
 30
0.0
 40
0.2
 41
0.0
 46
0.0
 71
     7
 72
     1
  1
\C18;\c0;\FMyriad Pro|b0|i0|c1;\H3.496733;\W0.800000;65
 73
     1
 44
1.0
  0
LINE
  5
AF
330
70
100
AcDbEntity
  8
0
 62
    18
420
        0
370
    35
100
AcDbLine
 10
48.67323994272538
 20
183.1637296707659
 30
0.0
 11
48.67323994272538
 21
231.0455655218661
 31
0.0
  0
LINE
  5
B0
330
70
100
AcDbEntity
  8
0
 62
     8
420
  8421504
370
    35
100
AcDbLine
 10
113.618168515209
 20
178.6211031657101
 30
0.0
 11
113.618168515209
 21
231.0455655218661
 31
0.0
  0
LINE
  5
B1
330
70
100
AcDbEntity
  8
0
 62
    18
420
        0
370
    35
100
AcDbLine
 10
48.67323994272538
 20
230.046412774597
 30
0.0
 11
81.14570422896738
 21
230.046412774597
 31
0.0
  0
LINE
  5
B2
330
70
100
AcDbEntity
  8
0
 62
    18
420
        0
370
    35
100
AcDbLine
 10
113.618168515209
 20
230.046412774597
 30
0.0
 11
81.14570422896738
 21
230.046412774597
 31
0.0
  0
LWPOLYLINE
  5
B3
330
70
100
AcDbEntity
  8
0
100
AcDbPolyline
 90
        3
 70
     1
 43
0.0
 10
48.67323994272538
 20
230.0464127745974
 10
50.67154543726326
 20
230.5459891482317
 10
50.67154543726326
 20
229.5468364009626
  0
HATCH
  5
B4
330
70
100
AcDbEntity
  8
0
 62
    18
420
        0
440
 33554687
100
AcDbHatch
 10
0.0
 20
0.0
 30
0.0
210
0.0
220
0.0
230
1.0
  2
SOLID
 70
     1
 71
     1
 91
        1
 92
        1
 93
        3
 72
     1
 10
48.67323994272538
 20
230.0464127745974
 11
50.67154543726326
 21
230.5459891482317
 72
     1
 10
50.67154543726326
 20
230.5459891482317
 11
50.67154543726326
 21
229.5468364009626
 72
     1
 10
50.67154543726326
 20
229.5468364009626
 11
48.67323994272538
 21
230.0464127745974
 97
        1
330
B3
 75
     2
 76
     1
 98
        1
 10
0.0
 20
0.0
450
        0
451
        0
460
0.0
461
0.0
452
        0
462
0.0
453
        0
470

  0
LWPOLYLINE
  5
B5
330
70
100
AcDbEntity
  8
0
100
AcDbPolyline
 90
        3
 70
     1
 43
0.0
 10
113.618168515209
 20
230.0464127745974
 10
111.6198630206708
 20
229.5468364009626
 10
111.6198630206708
 20
230.5459891482317
  0
HATCH
  5
B6
330
70
100
AcDbEntity
  8
0
 62
     8
420
  8421504
440
 33554687
100
AcDbHatch
 10
0.0
 20
0.0
 30
0.0
210
0.0
220
0.0
230
1.0
  2
SOLID
 70
     1
 71
     1
 91
        1
 92
        1
 93
        3
 72
     1
 10
113.618168515209
 20
230.0464127745974
 11
111.6198630206708
 21
229.5468364009626
 72
     1
 10
111.6198630206708
 20
229.5468364009626
 11
111.6198630206708
 21
230.5459891482317
 72
     1
 10
111.6198630206708
 20
230.5459891482317
 11
113.618168515209
 21
230.0464127745974
 97
        1
330
B5
 75
     2
 76
     1
 98
        1
 10
0.0
 20
0.0
450
        0
451
        0
460
0.0
461
0.0
452
        0
462
0.0
453
        0
470

  0
MTEXT
  5
B7
330
70
100
AcDbEntity
  8
0
100
AcDbMText
 10
120.6337326595931
 20
230.5025969882728
 30
0.0
 40
0.2
 41
0.0
 46
0.0
 71
     7
 72
     1
  1
\C18;\c0;\FMyriad Pro|b0|i0|c1;\H3.496733;\W0.800000;5.5
 73
     1
 44
1.0
  0
LINE
  5
B8
330
70
100
AcDbEntity
  8
0
 62
    18
420
        0
370
    35
100
AcDbLine
 10
113.618168515209
 20
178.6211031657101
 30
0.0
 11
113.618168515209
 21
231.0021676294281
 31
0.0
  0
LINE
  5
B9
330
70
100
AcDbEntity
  8
0
 62
     8
420
  8421504
370
    35
100
AcDbLine
 10
119.1135086251886
 20
205.8480155287894
 30
0.0
 11
119.1135086251886
 21
231.0021676294281
 31
0.0
  0
LINE
  5
BA
330
70
100
AcDbEntity
  8
0
 62
     8
420
  8421504
370
    35
100
AcDbLine
 10
113.618168515209
 20
230.0030148821593
 30
0.0
 11
108.6224047788638
 21
230.0030148821593
 31
0.0
  0
LINE
  5
BB
330
70
100
AcDbEntity
  8
0
 62
    18
420
        0
370
    35
100
AcDbLine
 10
108.6224047788638
 20
230.0030148821593
 30
0.0
 11
116.3658385701988
 21
230.0030148821593
 31
0.0
  0
LINE
  5
BC
330
70
100
AcDbEntity
  8
0
 62
     8
420
  8421504
370
    35
100
AcDbLine
 10
119.1135086251886
 20
230.0030148821593
 30
0.0
 11
125.6580488255323
 21
230.0030148821593
 31
0.0
  0
LINE
  5
BD
330
70
100
AcDbEntity
  8
0
 62
    18
420
        0
370
    35
100
AcDbLine
 10
125.6580488255323
 20
230.0030148821593
 30
0.0
 11
116.3658385701988
 21
230.0030148821593
 31
0.0
  0
LWPOLYLINE
  5
BE
330
70
100
AcDbEntity
  8
0
100
AcDbPolyline
 90
        3
 70
     1
 43
0.0
 10
113.618168515209
 20
230.0030148821593
 10
111.6198630206708
 20
229.5034385085243
 10
111.6198630206708
 20
230.5025912557937
  0
HATCH
  5
BF
330
70
100
AcDbEntity
  8
0
 62
    18
420
        0
440
 33554687
100
AcDbHatch
 10
0.0
 20
0.0
 30
0.0
210
0.0
220
0.0
230
1.0
  2
SOLID
 70
     1
 71
     1
 91
        1
 92
        1
 93
        3
 72
     1
 10
113.618168515209
 20
230.0030148821593
 11
111.6198630206708
 21
229.5034385085243
 72
     1
 10
111.6198630206708
 20
229.5034385085243
 11
111.6198630206708
 21
230.5025912557937
 72
     1
 10
111.6198630206708
 20
230.5025912557937
 11
113.618168515209
 21
230.0030148821593
 97
        1
330
BE
 75
     2
 76
     1
 98
        1
 10
0.0
 20
0.0
450
        0
451
        0
460
0.0
461
0.0
452
        0
462
0.0
453
        0
470

  0
LWPOLYLINE
  5
C0
330
70
100
AcDbEntity
  8
0
100
AcDbPolyline
 90
        3
 70
     1
 43
0.0
 10
119.1135086251886
 20
230.0030148821593
 10
121.1118141197261
 20
230.5025912557937
 10
121.1118141197261
 20
229.5034385085243
  0
HATCH
  5
C1
330
70
100
AcDbEntity
  8
0
 62
    18
420
        0
440
 33554687
100
AcDbHatch
 10
0.0
 20
0.0
 30
0.0
210
0.0
220
0.0
230
1.0
  2
SOLID
 70
     1
 71
     1
 91
        1
 92
        1
 93
        3
 72
     1
 10
119.1135086251886
 20
230.0030148821593
 11
121.1118141197261
 21
230.5025912557937
 72
     1
 10
121.1118141197261
 20
230.5025912557937
 11
121.1118141197261
 21
229.5034385085243
 72
     1
 10
121.1118141197261
 20
229.5034385085243
 11
119.1135086251886
 21
230.0030148821593
 97
        1
330
C0
 75
     2
 76
     1
 98
        1
 10
0.0
 20
0.0
450
        0
451
        0
460
0.0
461
0.0
452
        0
462
0.0
453
        0
470

  0
MTEXT
  5
C2
330
70
100
AcDbEntity
  8
0
100
AcDbMText
 10
87.30727850532705
 20
223.0934454466138
 30
0.0
 40
0.2
 41
0.0
 46
0.0
 71
     7
 72
     1
  1
\C18;\c0;\FMyriad Pro|b0|i0|c1;\H3.496733;\W0.800000;44
 73
     1
 44
1.0
  0
LINE
  5
C3
330
70
100
AcDbEntity
  8
0
 62
    18
420
        0
370
    35
100
AcDbLine
 10
113.618168515209
 20
178.6211031657101
 30
0.0
 11
113.618168515209
 21
223.5930210673584
 31
0.0
  0
LINE
  5
C4
330
70
100
AcDbEntity
  8
0
 62
    18
420
        0
370
    35
100
AcDbLine
 10
69.65544763537419
 20
205.8480155287894
 30
0.0
 11
69.65544763537419
 21
223.5930210673584
 31
0.0
  0
LINE
  5
C5
330
70
100
AcDbEntity
  8
0
 62
    18
420
        0
370
    35
100
AcDbLine
 10
113.618168515209
 20
222.5938683200893
 30
0.0
 11
91.63680807529145
 21
222.5938683200893
 31
0.0
  0
LINE
  5
C6
330
70
100
AcDbEntity
  8
0
 62
    18
420
        0
370
    35
100
AcDbLine
 10
69.65544763537419
 20
222.5938683200893
 30
0.0
 11
91.63680807529145
 21
222.5938683200893
 31
0.0
  0
LWPOLYLINE
  5
C7
330
70
100
AcDbEntity
  8
0
100
AcDbPolyline
 90
        3
 70
     1
 43
0.0
 10
113.618168515209
 20
222.5938683200893
 10
111.6198630206708
 20
222.0942919464549
 10
111.6198630206708
 20
223.0934446937237
  0
HATCH
  5
C8
330
70
100
AcDbEntity
  8
0
 62
    18
420
        0
440
 33554687
100
AcDbHatch
 10
0.0
 20
0.0
 30
0.0
210
0.0
220
0.0
230
1.0
  2
SOLID
 70
     1
 71
     1
 91
        1
 92
        1
 93
        3
 72
     1
 10
113.618168515209
 20
222.5938683200893
 11
111.6198630206708
 21
222.0942919464549
 72
     1
 10
111.6198630206708
 20
222.0942919464549
 11
111.6198630206708
 21
223.0934446937237
 72
     1
 10
111.6198630206708
 20
223.0934446937237
 11
113.618168515209
 21
222.5938683200893
 97
        1
330
C7
 75
     2
 76
     1
 98
        1
 10
0.0
 20
0.0
450
        0
451
        0
460
0.0
461
0.0
452
        0
462
0.0
453
        0
470

  0
LWPOLYLINE
  5
C9
330
70
100
AcDbEntity
  8
0
100
AcDbPolyline
 90
        3
 70
     1
 43
0.0
 10
69.65544763537419
 20
222.5938683200893
 10
71.65375312991206
 20
223.0934446937237
 10
71.65375312991206
 20
222.0942919464549
  0
HATCH
  5
CA
330
70
100
AcDbEntity
  8
0
 62
    18
420
        0
440
 33554687
100
AcDbHatch
 10
0.0
 20
0.0
 30
0.0
210
0.0
220
0.0
230
1.0
  2
SOLID
 70
     1
 71
     1
 91
        1
 92
        1
 93
        3
 72
     1
 10
69.65544763537419
 20
222.5938683200893
 11
71.65375312991206
 21
223.0934446937237
 72
     1
 10
71.65375312991206
 20
223.0934446937237
 11
71.65375312991206
 21
222.0942919464549
 72
     1
 10
71.65375312991206
 20
222.0942919464549
 11
69.65544763537419
 21
222.5938683200893
 97
        1
330
C9
 75
     2
 76
     1
 98
        1
 10
0.0
 20
0.0
450
        0
451
        0
460
0.0
461
0.0
452
        0
462
0.0
453
        0
470

  0
MTEXT
  5
CB
330
70
100
AcDbEntity
  8
0
100
AcDbMText
 10
82.35932471017731
 20
245.0309306909667
 30
0.0
 40
0.2
 41
0.0
 46
0.0
 71
     7
 72
     1
  1
\C18;\c0;\FMyriad Pro|b0|i0|c1;\H3.496733;\W0.800000;78
 73
     1
 44
1.0
  0
LINE
  5
CC
330
70
100
AcDbEntity
  8
0
 62
    18
420
        0
370
    35
100
AcDbLine
 10
119.1135086251886
 20
205.8480155287894
 30
0.0
 11
119.1135086251886
 21
245.5305162681343
 31
0.0
  0
LINE
  5
CD
330
70
100
AcDbEntity
  8
0
 62
    18
420
        0
370
    35
100
AcDbLine
 10
41.45935710744373
 20
147.5724315443264
 30
0.0
 11
41.45935710744373
 21
245.5305162681343
 31
0.0
  0
LINE
  5
CE
330
70
100
AcDbEntity
  8
0
 62
    18
420
        0
370
    35
100
AcDbLine
 10
119.1135086251886
 20
244.5313635208651
 30
0.0
 11
80.28643286631616
 21
244.5313635208651
 31
0.0
  0
LINE
  5
CF
330
70
100
AcDbEntity
  8
0
 62
    18
420
        0
370
    35
100
AcDbLine
 10
41.45935710744373
 20
244.5313635208651
 30
0.0
 11
80.28643286631616
 21
244.5313635208651
 31
0.0
  0
LWPOLYLINE
  5
D0
330
70
100
AcDbEntity
  8
0
100
AcDbPolyline
 90
        3
 70
     1
 43
0.0
 10
119.1135086251886
 20
244.5313635208651
 10
117.1152031306504
 20
244.0317871472307
 10
117.1152031306504
 20
245.0309398944999
  0
HATCH
  5
D1
330
70
100
AcDbEntity
  8
0
 62
    18
420
        0
440
 33554687
100
AcDbHatch
 10
0.0
 20
0.0
 30
0.0
210
0.0
220
0.0
230
1.0
  2
SOLID
 70
     1
 71
     1
 91
        1
 92
        1
 93
        3
 72
     1
 10
119.1135086251886
 20
244.5313635208651
 11
117.1152031306504
 21
244.0317871472307
 72
     1
 10
117.1152031306504
 20
244.0317871472307
 11
117.1152031306504
 21
245.0309398944999
 72
     1
 10
117.1152031306504
 20
245.0309398944999
 11
119.1135086251886
 21
244.5313635208651
 97
        1
330
D0
 75
     2
 76
     1
 98
        1
 10
0.0
 20
0.0
450
        0
451
        0
460
0.0
461
0.0
452
        0
462
0.0
453
        0
470

  0
LWPOLYLINE
  5
D2
330
70
100
AcDbEntity
  8
0
100
AcDbPolyline
 90
        3
 70
     1
 43
0.0
 10
41.45935710744373
 20
244.5313635208651
 10
43.4576626019816
 20
245.0309398944999
 10
43.4576626019816
 20
244.0317871472307
  0
HATCH
  5
D3
330
70
100
AcDbEntity
  8
0
 62
    18
420
        0
440
 33554687
100
AcDbHatch
 10
0.0
 20
0.0
 30
0.0
210
0.0
220
0.0
230
1.0
  2
SOLID
 70
     1
 71
     1
 91
        1
 92
        1
 93
        3
 72
     1
 10
41.45935710744373
 20
244.5313635208651
 11
43.4576626019816
 21
245.0309398944999
 72
     1
 10
43.4576626019816
 20
245.0309398944999
 11
43.4576626019816
 21
244.0317871472307
 72
     1
 10
43.4576626019816
 20
244.0317871472307
 11
41.45935710744373
 21
244.5313635208651
 97
        1
330
D2
 75
     2
 76
     1
 98
        1
 10
0.0
 20
0.0
450
        0
451
        0
460
0.0
461
0.0
452
        0
462
0.0
453
        0
470

  0
LINE
  5
D4
330
70
100
AcDbEntity
  8
0
 62
    18
420
        0
370
    35
100
AcDbLine
 10
104.6257937897881
 20
105.5330797029846
 30
0.0
 11
77.97839002012458
 21
105.5330797029846
 31
0.0
  0
LINE
  5
D5
330
70
100
AcDbEntity
  8
0
 62
    18
420
        0
370
    35
100
AcDbLine
 10
104.6257937897881
 20
107.5313851975222
 30
0.0
 11
77.97839002012458
 21
107.5313851975222
 31
0.0
  0
LINE
  5
D6
330
70
100
AcDbEntity
  8
0
 62
    18
420
        0
370
    35
100
AcDbLine
 10
104.6257937897881
 20
113.3264711316824
 30
0.0
 11
77.97839002012458
 21
113.3264711316824
 31
0.0
  0
LINE
  5
D7
330
70
100
AcDbEntity
  8
0
 62
    18
420
        0
370
    35
100
AcDbLine
 10
77.97839002012458
 20
113.5263016811361
 30
0.0
 11
104.6257937897881
 21
113.5263016811361
 31
0.0
  0
LINE
  5
D8
330
70
100
AcDbEntity
  8
0
 62
    18
420
        0
370
    35
100
AcDbLine
 10
115.7163892844741
 20
114.022684175888
 30
0.0
 11
118.9136780757342
 21
114.022684175888
 31
0.0
  0
LINE
  5
D9
330
70
100
AcDbEntity
  8
0
 62
    18
420
        0
370
    35
100
AcDbLine
 10
104.6257937897881
 20
114.4255391536787
 30
0.0
 11
101.2436617402826
 21
114.4255391536787
 31
0.0
  0
LINE
  5
DA
330
70
100
AcDbEntity
  8
0
 62
    18
420
        0
370
    35
100
AcDbLine
 10
100.3943819051041
 20
114.4255391536787
 30
0.0
 11
97.43688977318786
 21
114.4255391536787
 31
0.0
  0
LINE
  5
DB
330
70
100
AcDbEntity
  8
0
 62
    18
420
        0
370
    35
100
AcDbLine
 10
96.58760993800939
 20
114.4255391536787
 30
0.0
 11
93.6301178060931
 21
114.4255391536787
 31
0.0
  0
LINE
  5
DC
330
70
100
AcDbEntity
  8
0
 62
    18
420
        0
370
    35
100
AcDbLine
 10
92.78083797091465
 20
114.4255391536787
 30
0.0
 11
89.82334583899836
 21
114.4255391536787
 31
0.0
  0
LINE
  5
DD
330
70
100
AcDbEntity
  8
0
 62
    18
420
        0
370
    35
100
AcDbLine
 10
88.97406600381959
 20
114.4255391536787
 30
0.0
 11
86.01657387190362
 21
114.4255391536787
 31
0.0
  0
LINE
  5
DE
330
70
100
AcDbEntity
  8
0
 62
    18
420
        0
370
    35
100
AcDbLine
 10
85.16729403672483
 20
114.4255391536787
 30
0.0
 11
82.20980190480887
 21
114.4255391536787
 31
0.0
  0
LINE
  5
DF
330
70
100
AcDbEntity
  8
0
 62
    18
420
        0
370
    35
100
AcDbLine
 10
81.36052206963009
 20
114.4255391536787
 30
0.0
 11
77.97839002012458
 21
114.4255391536787
 31
0.0
  0
LINE
  5
E0
330
70
100
AcDbEntity
  8
0
 62
    18
420
        0
370
    35
100
AcDbLine
 10
115.7163892844741
 20
114.5222605495224
 30
0.0
 11
118.9136780757342
 21
114.5222605495224
 31
0.0
  0
LINE
  5
E1
330
70
100
AcDbEntity
  8
0
 62
    18
420
        0
370
    35
100
AcDbLine
 10
76.83935604850225
 20
114.6752082208059
 30
0.0
 11
105.7672478292627
 21
114.6752085657133
 31
0.0
  0
LINE
  5
E2
330
70
100
AcDbEntity
  8
0
 62
    18
420
        0
370
    35
100
AcDbLine
 10
76.83935588823792
 20
114.7252849778593
 30
0.0
 11
105.7648279216748
 21
114.7252849778593
 31
0.0
  0
LINE
  5
E3
330
70
100
AcDbEntity
  8
0
 62
    18
420
        0
370
    35
100
AcDbLine
 10
69.65544763537419
 20
114.925115527313
 30
0.0
 11
76.43969478933041
 21
114.925115527313
 31
0.0
  0
LINE
  5
E4
330
70
100
AcDbEntity
  8
0
 62
    18
420
        0
370
    35
100
AcDbLine
 10
106.2644042953091
 20
114.925115527313
 30
0.0
 11
119.1135086251886
 21
114.925115527313
 31
0.0
  0
LINE
  5
E5
330
70
100
AcDbEntity
  8
0
 62
    18
420
        0
370
    35
100
AcDbLine
 10
76.43969478933041
 20
115.132654812581
 30
0.0
 11
76.58956770142072
 21
115.132654812581
 31
0.0
  0
LINE
  5
E6
330
70
100
AcDbEntity
  8
0
 62
    18
420
        0
370
    35
100
AcDbLine
 10
106.1145313832188
 20
115.132654812581
 30
0.0
 11
106.2644042953091
 21
115.132654812581
 31
0.0
  0
LINE
  5
E7
330
70
100
AcDbEntity
  8
0
 62
    18
420
        0
370
    35
100
AcDbLine
 10
71.65375312991206
 20
116.9234210218506
 30
0.0
 11
76.43969478933041
 21
116.9234210218506
 31
0.0
  0
LINE
  5
E8
330
70
100
AcDbEntity
  8
0
 62
    18
420
        0
370
    35
100
AcDbLine
 10
106.2644042953091
 20
116.9234210218506
 30
0.0
 11
111.6198630206708
 21
116.9234210218506
 31
0.0
  0
LINE
  5
E9
330
70
100
AcDbEntity
  8
0
 62
    18
420
        0
370
    35
100
AcDbLine
 10
111.5230694883964
 20
117.0202145540256
 30
0.0
 11
109.9515303536862
 21
117.0202145540256
 31
0.0
  0
LINE
  5
EA
330
70
100
AcDbEntity
  8
0
 62
    18
420
        0
370
    35
100
AcDbLine
 10
41.45935710744373
 20
141.2278154386129
 30
0.0
 11
41.45935710744373
 21
146.5732787970576
 31
0.0
  0
LINE
  5
EB
330
70
100
AcDbEntity
  8
0
 62
    18
420
        0
370
    35
100
AcDbLine
 10
42.21871319536806
 20
140.738230401713
 30
0.0
 11
42.21871319536806
 21
147.0628636432196
 31
0.0
  0
LINE
  5
EC
330
70
100
AcDbEntity
  8
0
 62
    18
420
        0
370
    35
100
AcDbLine
 10
111.6101333290687
 20
123.4179138790989
 30
0.0
 11
111.5719750201151
 21
123.4179138790989
 31
0.0
  0
LINE
  5
ED
330
70
100
AcDbEntity
  8
0
 62
    18
420
        0
370
    35
100
AcDbLine
 10
71.70164113036801
 20
123.4179138790989
 30
0.0
 11
71.66348282141406
 21
123.4179138790989
 31
0.0
  0
LINE
  5
EE
330
70
100
AcDbEntity
  8
0
 62
    18
420
        0
370
    35
100
AcDbLine
 10
46.45512084378857
 20
147.0628636432196
 30
0.0
 11
46.45512084378857
 21
140.738230401713
 31
0.0
  0
LINE
  5
EF
330
70
100
AcDbEntity
  8
0
 62
    18
420
        0
370
    35
100
AcDbLine
 10
47.07459554709534
 20
154.9411830554353
 30
0.0
 11
47.07459554709534
 21
156.4399121763387
 31
0.0
  0
LINE
  5
F0
330
70
100
AcDbEntity
  8
0
 62
    18
420
        0
370
    35
100
AcDbLine
 10
47.57417192072973
 20
154.4416066818009
 30
0.0
 11
47.57417192072973
 21
156.9394885499731
 31
0.0
  0
LINE
  5
F1
330
70
100
AcDbEntity
  8
0
 62
    18
420
        0
370
    35
100
AcDbLine
 10
48.67323994272538
 20
182.1645769234972
 30
0.0
 11
48.67323994272538
 21
137.6094013853365
 31
0.0
  0
LINE
  5
F2
330
70
100
AcDbEntity
  8
0
 62
    18
420
        0
370
    35
100
AcDbLine
 10
48.87307049217946
 20
182.3679259679686
 30
0.0
 11
48.87307049217946
 21
137.406052340865
 31
0.0
  0
LINE
  5
F3
330
70
100
AcDbEntity
  8
0
 62
    18
420
        0
370
    35
100
AcDbLine
 10
50.67154543726326
 20
180.3696204734304
 30
0.0
 11
50.67154543726326
 21
139.4043578354026
 31
0.0
  0
LINE
  5
F4
330
70
100
AcDbEntity
  8
0
 62
    18
420
        0
370
    35
100
AcDbLine
 10
50.75002667953244
 20
139.4828390777712
 30
0.0
 11
50.75002667953244
 21
139.7342578300158
 31
0.0
  0
LINE
  5
F5
330
70
100
AcDbEntity
  8
0
 62
    18
420
        0
370
    35
100
AcDbLine
 10
50.75002667953244
 20
148.0668325662103
 30
0.0
 11
50.75002667953244
 21
148.9264631048908
 31
0.0
  0
LINE
  5
F6
330
70
100
AcDbEntity
  8
0
 62
    18
420
        0
370
    35
100
AcDbLine
 10
50.77146071199046
 20
149.2959700333654
 30
0.0
 11
50.77146071199046
 21
152.2934282751724
 31
0.0
  0
LINE
  5
F7
330
70
100
AcDbEntity
  8
0
 62
    18
420
        0
370
    35
100
AcDbLine
 10
50.77146071199046
 20
176.972501132716
 30
0.0
 11
50.77146071199046
 21
179.9699593745229
 31
0.0
  0
LINE
  5
F8
330
70
100
AcDbEntity
  8
0
 62
    18
420
        0
370
    35
100
AcDbLine
 10
50.81978778392653
 20
158.6880058576938
 30
0.0
 11
50.81978778392653
 21
159.6871586049629
 31
0.0
  0
LINE
  5
F9
330
70
100
AcDbEntity
  8
0
 62
    18
420
        0
370
    35
100
AcDbLine
 10
50.81978778392653
 20
164.6829223413077
 30
0.0
 11
50.81978778392653
 21
165.6820750885765
 31
0.0
  0
LINE
  5
FA
330
70
100
AcDbEntity
  8
0
 62
    18
420
        0
370
    35
100
AcDbLine
 10
50.81978778392653
 20
170.6778388249217
 30
0.0
 11
50.81978778392653
 21
171.6769915721905
 31
0.0
  0
LINE
  5
FB
330
70
100
AcDbEntity
  8
0
 62
    18
420
        0
370
    35
100
AcDbLine
 10
59.19922434114753
 20
180.3696204734304
 30
0.0
 11
59.16434378904979
 21
180.3347399212335
 31
0.0
  0
LINE
  5
FC
330
70
100
AcDbEntity
  8
0
 62
    18
420
        0
370
    35
100
AcDbLine
 10
50.81978778392653
 20
171.6769915721905
 30
0.0
 11
50.8214183493539
 21
171.6786221376185
 31
0.0
  0
LINE
  5
FD
330
70
100
AcDbEntity
  8
0
 62
    18
420
        0
370
    35
100
AcDbLine
 10
59.19922434114753
 20
139.4043578354026
 30
0.0
 11
59.16434378904979
 21
139.4392383874997
 31
0.0
  0
LINE
  5
FE
330
70
100
AcDbEntity
  8
0
 62
    18
420
        0
370
    35
100
AcDbLine
 10
50.8214183493539
 20
147.9954408964886
 30
0.0
 11
50.75002667953244
 21
148.0668325662103
 31
0.0
  0
LINE
  5
FF
330
70
100
AcDbEntity
  8
0
 62
    18
420
        0
370
    35
100
AcDbLine
 10
54.66815642633965
 20
139.4828390777712
 30
0.0
 11
54.66815642633965
 21
139.5542307474929
 31
0.0
  0
LINE
  5
100
330
70
100
AcDbEntity
  8
0
 62
    18
420
        0
370
    35
100
AcDbLine
 10
55.83225917086529
 20
182.3679259679686
 30
0.0
 11
55.83225917086529
 21
180.3696204734304
 31
0.0
  0
LINE
  5
101
330
70
100
AcDbEntity
  8
0
 62
    18
420
        0
370
    35
100
AcDbLine
 10
55.83225917086529
 20
139.4043578354026
 30
0.0
 11
55.83225917086529
 21
137.406052340865
 31
0.0
  0
LINE
  5
102
330
70
100
AcDbEntity
  8
0
 62
    18
420
        0
370
    35
100
AcDbLine
 10
55.86713972306219
 20
182.3330454157714
 30
0.0
 11
55.86713972306219
 21
180.3347399212335
 31
0.0
  0
LINE
  5
103
330
70
100
AcDbEntity
  8
0
 62
    18
420
        0
370
    35
100
AcDbLine
 10
55.86713972306219
 20
139.4392383874997
 30
0.0
 11
55.86713972306219
 21
137.4409328929621
 31
0.0
  0
LINE
  5
104
330
70
100
AcDbEntity
  8
0
 62
    18
420
        0
370
    35
100
AcDbLine
 10
50.81978778392653
 20
165.6820750885765
 30
0.0
 11
50.8214183493539
 21
165.6837056540042
 31
0.0
  0
LINE
  5
105
330
70
100
AcDbEntity
  8
0
 62
    18
420
        0
370
    35
100
AcDbLine
 10
111.6101333290687
 20
133.4094413517886
 30
0.0
 11
111.5719750201151
 21
133.4094413517886
 31
0.0
  0
LINE
  5
106
330
70
100
AcDbEntity
  8
0
 62
    18
420
        0
370
    35
100
AcDbLine
 10
71.70164113036801
 20
133.4094413517886
 30
0.0
 11
71.66348282141406
 21
133.4094413517886
 31
0.0
  0
LINE
  5
107
330
70
100
AcDbEntity
  8
0
 62
    18
420
        0
370
    35
100
AcDbLine
 10
48.87307049217946
 20
137.406052340865
 30
0.0
 11
55.83225917086529
 21
137.406052340865
 31
0.0
  0
LINE
  5
108
330
70
100
AcDbEntity
  8
0
 62
    18
420
        0
370
    35
100
AcDbLine
 10
59.19922434114753
 20
137.406052340865
 30
0.0
 11
69.65544763537419
 21
137.406052340865
 31
0.0
  0
LINE
  5
109
330
70
100
AcDbEntity
  8
0
 62
    18
420
        0
370
    35
100
AcDbLine
 10
59.16434378904979
 20
137.4409328929621
 30
0.0
 11
59.01447087695947
 21
137.4409328929621
 31
0.0
  0
LINE
  5
10A
330
70
100
AcDbEntity
  8
0
 62
    18
420
        0
370
    35
100
AcDbLine
 10
56.01701263515282
 20
137.4409328929621
 30
0.0
 11
55.86713972306219
 21
137.4409328929621
 31
0.0
  0
LINE
  5
10B
330
70
100
AcDbEntity
  8
0
 62
    18
420
        0
370
    35
100
AcDbLine
 10
59.16434378904979
 20
137.4409328929621
 30
0.0
 11
59.16434378904979
 21
139.4392383874997
 31
0.0
  0
LINE
  5
10C
330
70
100
AcDbEntity
  8
0
 62
    18
420
        0
370
    35
100
AcDbLine
 10
59.16434378904979
 20
180.3347399212335
 30
0.0
 11
59.16434378904979
 21
182.3330454157714
 31
0.0
  0
LINE
  5
10D
330
70
100
AcDbEntity
  8
0
 62
    18
420
        0
370
    35
100
AcDbLine
 10
59.19922434114753
 20
137.406052340865
 30
0.0
 11
59.19922434114753
 21
139.4043578354026
 31
0.0
  0
LINE
  5
10E
330
70
100
AcDbEntity
  8
0
 62
    18
420
        0
370
    35
100
AcDbLine
 10
59.19922434114753
 20
180.3696204734304
 30
0.0
 11
59.19922434114753
 21
182.3679259679686
 31
0.0
  0
LINE
  5
10F
330
70
100
AcDbEntity
  8
0
 62
    18
420
        0
370
    35
100
AcDbLine
 10
50.81978778392653
 20
159.6871586049629
 30
0.0
 11
50.8214183493539
 21
159.6887891703903
 31
0.0
  0
LINE
  5
110
330
70
100
AcDbEntity
  8
0
 62
    18
420
        0
370
    35
100
AcDbLine
 10
71.67213965007302
 20
138.5550780002241
 30
0.0
 11
71.68598100760078
 21
138.5550780002241
 31
0.0
  0
LINE
  5
111
330
70
100
AcDbEntity
  8
0
 62
    18
420
        0
370
    35
100
AcDbLine
 10
50.67154543726326
 20
139.4043578354026
 30
0.0
 11
55.83225917086529
 21
139.4043578354026
 31
0.0
  0
LINE
  5
112
330
70
100
AcDbEntity
  8
0
 62
    18
420
        0
370
    35
100
AcDbLine
 10
59.19922434114753
 20
139.4043578354026
 30
0.0
 11
71.65375312991206
 21
139.4043578354026
 31
0.0
  0
LINE
  5
113
330
70
100
AcDbEntity
  8
0
 62
    18
420
        0
370
    35
100
AcDbLine
 10
61.66222565722237
 20
139.4140875269046
 30
0.0
 11
71.66348282141406
 21
139.4140875269046
 31
0.0
  0
LINE
  5
114
330
70
100
AcDbEntity
  8
0
 62
    18
420
        0
370
    35
100
AcDbLine
 10
59.16434378904979
 20
139.4392383874997
 30
0.0
 11
59.01447087695947
 21
139.4392383874997
 31
0.0
  0
LINE
  5
115
330
70
100
AcDbEntity
  8
0
 62
    18
420
        0
370
    35
100
AcDbLine
 10
56.01701263515282
 20
139.4392383874997
 30
0.0
 11
55.86713972306219
 21
139.4392383874997
 31
0.0
  0
LINE
  5
116
330
70
100
AcDbEntity
  8
0
 62
    18
420
        0
370
    35
100
AcDbLine
 10
61.66222565722237
 20
139.4522458358588
 30
0.0
 11
62.31167494294708
 21
139.4522458358588
 31
0.0
  0
LINE
  5
117
330
70
100
AcDbEntity
  8
0
 62
    18
420
        0
370
    35
100
AcDbLine
 10
50.75002667953244
 20
139.4828390777712
 30
0.0
 11
54.66815642633965
 21
139.4828390777712
 31
0.0
  0
LINE
  5
118
330
70
100
AcDbEntity
  8
0
 62
    18
420
        0
370
    35
100
AcDbLine
 10
119.1135086251886
 20
139.6541460222197
 30
0.0
 11
115.1168976361122
 21
139.6541460222197
 31
0.0
  0
LINE
  5
119
330
70
100
AcDbEntity
  8
0
 62
    18
420
        0
370
    35
100
AcDbLine
 10
50.8214183493539
 20
139.7342578300158
 30
0.0
 11
50.75002667953244
 21
139.7342578300158
 31
0.0
  0
LINE
  5
11A
330
70
100
AcDbEntity
  8
0
 62
    18
420
        0
370
    35
100
AcDbLine
 10
50.8214183493539
 20
140.728235225534
 30
0.0
 11
49.17281631636042
 21
140.728235225534
 31
0.0
  0
LINE
  5
11B
330
70
100
AcDbEntity
  8
0
 62
    18
420
        0
370
    35
100
AcDbLine
 10
46.45512084378857
 20
140.7382267530071
 30
0.0
 11
42.21871319536806
 21
140.7382267530071
 31
0.0
  0
LINE
  5
11C
330
70
100
AcDbEntity
  8
0
 62
    18
420
        0
370
    35
100
AcDbLine
 10
48.67323994272538
 20
141.2278115991684
 30
0.0
 11
46.45512084378857
 21
141.2278115991684
 31
0.0
  0
LINE
  5
11D
330
70
100
AcDbEntity
  8
0
 62
    18
420
        0
370
    35
100
AcDbLine
 10
42.21871319536806
 20
141.2278115991684
 30
0.0
 11
41.45935710744373
 21
141.2278115991684
 31
0.0
  0
LINE
  5
11E
330
70
100
AcDbEntity
  8
0
 62
    18
420
        0
370
    35
100
AcDbLine
 10
113.618168515209
 20
142.1520278903923
 30
0.0
 11
115.1168976361122
 21
142.1520278903923
 31
0.0
  0
LINE
  5
11F
330
70
100
AcDbEntity
  8
0
 62
    18
420
        0
370
    35
100
AcDbLine
 10
50.8214183493539
 20
158.6863752922664
 30
0.0
 11
50.81978778392653
 21
158.6880058576938
 31
0.0
  0
LINE
  5
120
330
70
100
AcDbEntity
  8
0
 62
    18
420
        0
370
    35
100
AcDbLine
 10
61.66222565722237
 20
139.4522458358588
 30
0.0
 11
61.66222565722237
 21
139.4140875269046
 31
0.0
  0
LINE
  5
121
330
70
100
AcDbEntity
  8
0
 62
    18
420
        0
370
    35
100
AcDbLine
 10
61.66222565722237
 20
180.3217324728747
 30
0.0
 11
61.66222565722237
 21
180.3598907818287
 31
0.0
  0
LINE
  5
122
330
70
100
AcDbEntity
  8
0
 62
    18
420
        0
370
    35
100
AcDbLine
 10
78.96948535015138
 20
214.230907078376
 30
0.0
 11
79.05247922343884
 21
214.5406444300294
 31
0.0
  0
LINE
  5
123
330
70
100
AcDbEntity
  8
0
 62
    18
420
        0
370
    35
100
AcDbLine
 10
41.45935710744373
 20
146.5732787970576
 30
0.0
 11
42.21871319536806
 21
146.5732787970576
 31
0.0
  0
LINE
  5
124
330
70
100
AcDbEntity
  8
0
 62
    18
420
        0
370
    35
100
AcDbLine
 10
46.45512084378857
 20
146.5732787970576
 30
0.0
 11
48.67323994272538
 21
146.5732787970576
 31
0.0
  0
LINE
  5
125
330
70
100
AcDbEntity
  8
0
 62
    18
420
        0
370
    35
100
AcDbLine
 10
50.8214183493539
 20
164.6812917758801
 30
0.0
 11
50.81978778392653
 21
164.6829223413077
 31
0.0
  0
LINE
  5
126
330
70
100
AcDbEntity
  8
0
 62
    18
420
        0
370
    35
100
AcDbLine
 10
69.65544763537419
 20
204.8488627815203
 30
0.0
 11
69.65544763537419
 21
182.3679259679686
 31
0.0
  0
LINE
  5
127
330
70
100
AcDbEntity
  8
0
 62
    18
420
        0
370
    35
100
AcDbLine
 10
69.65544763537419
 20
137.406052340865
 30
0.0
 11
69.65544763537419
 21
114.925115527313
 31
0.0
  0
LINE
  5
128
330
70
100
AcDbEntity
  8
0
 62
    18
420
        0
370
    35
100
AcDbLine
 10
82.77625731724613
 20
214.230907078376
 30
0.0
 11
82.85925119053358
 21
214.5406444300294
 31
0.0
  0
LINE
  5
129
330
70
100
AcDbEntity
  8
0
 62
    18
420
        0
370
    35
100
AcDbLine
 10
50.75002667953244
 20
148.9264631048908
 30
0.0
 11
50.82961192393887
 21
149.0060483491974
 31
0.0
  0
LINE
  5
12A
330
70
100
AcDbEntity
  8
0
 62
    18
420
        0
370
    35
100
AcDbLine
 10
42.21871319536806
 20
147.0628636432196
 30
0.0
 11
46.45512084378857
 21
147.0628636432196
 31
0.0
  0
LINE
  5
12B
330
70
100
AcDbEntity
  8
0
 62
    18
420
        0
370
    35
100
AcDbLine
 10
49.17281631636042
 20
147.072855170692
 30
0.0
 11
50.8214183493539
 21
147.072855170692
 31
0.0
  0
LINE
  5
12C
330
70
100
AcDbEntity
  8
0
 62
    18
420
        0
370
    35
100
AcDbLine
 10
50.75002667953244
 20
148.0668325662103
 30
0.0
 11
50.8214183493539
 21
148.0668325662103
 31
0.0
  0
LINE
  5
12D
330
70
100
AcDbEntity
  8
0
 62
    18
420
        0
370
    35
100
AcDbLine
 10
50.8214183493539
 20
148.9264631048908
 30
0.0
 11
50.75002667953244
 21
148.9264631048908
 31
0.0
  0
LINE
  5
12E
330
70
100
AcDbEntity
  8
0
 62
    18
420
        0
370
    35
100
AcDbLine
 10
50.77146071199046
 20
149.2959700333654
 30
0.0
 11
50.82961192393887
 21
149.2959700333654
 31
0.0
  0
LINE
  5
12F
330
70
100
AcDbEntity
  8
0
 62
    18
420
        0
370
    35
100
AcDbLine
 10
50.8214183493539
 20
170.676208259494
 30
0.0
 11
50.81978778392653
 21
170.6778388249217
 31
0.0
  0
LINE
  5
130
330
70
100
AcDbEntity
  8
0
 62
    18
420
        0
370
    35
100
AcDbLine
 10
71.68598100760078
 20
181.2189003086092
 30
0.0
 11
71.68776033708076
 21
181.116962590456
 31
0.0
  0
LINE
  5
131
330
70
100
AcDbEntity
  8
0
 62
    18
420
        0
370
    35
100
AcDbLine
 10
71.66348282141406
 20
139.4140875269046
 30
0.0
 11
71.67213965007302
 21
138.5550780002241
 31
0.0
  0
LINE
  5
132
330
70
100
AcDbEntity
  8
0
 62
    18
420
        0
370
    35
100
AcDbLine
 10
71.65375312991206
 20
202.8505572869824
 30
0.0
 11
71.65375312991206
 21
180.3696204734304
 31
0.0
  0
LINE
  5
133
330
70
100
AcDbEntity
  8
0
 62
    18
420
        0
370
    35
100
AcDbLine
 10
71.65375312991206
 20
139.4043578354026
 30
0.0
 11
71.65375312991206
 21
116.9234210218506
 31
0.0
  0
LINE
  5
134
330
70
100
AcDbEntity
  8
0
 62
    18
420
        0
370
    35
100
AcDbLine
 10
71.70164113036801
 20
196.3560644297341
 30
0.0
 11
71.70164113036801
 21
195.8564880560997
 31
0.0
  0
LINE
  5
135
330
70
100
AcDbEntity
  8
0
 62
    18
420
        0
370
    35
100
AcDbLine
 10
71.70164113036801
 20
186.8641133306791
 30
0.0
 11
71.70164113036801
 21
186.3645369570444
 31
0.0
  0
LINE
  5
136
330
70
100
AcDbEntity
  8
0
 62
    18
420
        0
370
    35
100
AcDbLine
 10
71.70164113036801
 20
123.4179138790989
 30
0.0
 11
71.70164113036801
 21
123.917490252734
 31
0.0
  0
LINE
  5
137
330
70
100
AcDbEntity
  8
0
 62
    18
420
        0
370
    35
100
AcDbLine
 10
71.70164113036801
 20
132.9098649781542
 30
0.0
 11
71.70164113036801
 21
133.4094413517886
 31
0.0
  0
LINE
  5
138
330
70
100
AcDbEntity
  8
0
 62
    18
420
        0
370
    35
100
AcDbLine
 10
71.66348282141406
 20
180.3598907818287
 30
0.0
 11
71.67213965007302
 21
181.2189003086092
 31
0.0
  0
LINE
  5
139
330
70
100
AcDbEntity
  8
0
 62
    18
420
        0
370
    35
100
AcDbLine
 10
71.68598100760078
 20
138.5550780002241
 30
0.0
 11
71.68776033708076
 21
138.657015718377
 31
0.0
  0
LINE
  5
13A
330
70
100
AcDbEntity
  8
0
 62
    18
420
        0
370
    35
100
AcDbLine
 10
86.58302928434087
 20
214.230907078376
 30
0.0
 11
86.66602315762832
 21
214.5406444300294
 31
0.0
  0
LINE
  5
13B
330
70
100
AcDbEntity
  8
0
 62
    18
420
        0
370
    35
100
AcDbLine
 10
50.8214183493539
 20
139.8056494997381
 30
0.0
 11
50.75002667953244
 21
139.7342578300158
 31
0.0
  0
LINE
  5
13C
330
70
100
AcDbEntity
  8
0
 62
    18
420
        0
370
    35
100
AcDbLine
 10
50.67154543726326
 20
139.4043578354026
 30
0.0
 11
50.75002667953244
 21
139.4828390777712
 31
0.0
  0
LINE
  5
13D
330
70
100
AcDbEntity
  8
0
 62
    18
420
        0
370
    35
100
AcDbLine
 10
50.82961192393887
 20
152.2934282751724
 30
0.0
 11
50.77146071199046
 21
152.2934282751724
 31
0.0
  0
LINE
  5
13E
330
70
100
AcDbEntity
  8
0
 62
    18
420
        0
370
    35
100
AcDbLine
 10
111.6198630206708
 20
154.7064719537843
 30
0.0
 11
113.618168515209
 21
154.7064719537843
 31
0.0
  0
LINE
  5
13F
330
70
100
AcDbEntity
  8
0
 62
    18
420
        0
370
    35
100
AcDbLine
 10
111.5849824684736
 20
154.7413525059815
 30
0.0
 11
113.5832879630118
 21
154.7413525059815
 31
0.0
  0
LINE
  5
140
330
70
100
AcDbEntity
  8
0
 62
    18
420
        0
370
    35
100
AcDbLine
 10
111.6198630206708
 20
116.9234210218506
 30
0.0
 11
111.5230694883964
 21
117.0202145540256
 31
0.0
  0
LINE
  5
141
330
70
100
AcDbEntity
  8
0
 62
    18
420
        0
370
    35
100
AcDbLine
 10
50.82961192393887
 20
180.2115539866553
 30
0.0
 11
50.67154543726326
 21
180.3696204734304
 31
0.0
  0
LINE
  5
142
330
70
100
AcDbEntity
  8
0
 62
    18
420
        0
370
    35
100
AcDbLine
 10
77.0789266212615
 20
205.3483666252582
 30
0.0
 11
77.07415678384613
 21
205.6481849793356
 31
0.0
  0
LINE
  5
143
330
70
100
AcDbEntity
  8
0
 62
    18
420
        0
370
    35
100
AcDbLine
 10
75.01090636073586
 20
204.8488627815203
 30
0.0
 11
75.01090636073586
 21
202.7006843748924
 31
0.0
  0
LINE
  5
144
330
70
100
AcDbEntity
  8
0
 62
    18
420
        0
370
    35
100
AcDbLine
 10
75.51048273437024
 20
205.3484391551553
 30
0.0
 11
75.51048273437024
 21
204.8488627815203
 31
0.0
  0
LINE
  5
145
330
70
100
AcDbEntity
  8
0
 62
    18
420
        0
370
    35
100
AcDbLine
 10
76.43969478933041
 20
114.925115527313
 30
0.0
 11
76.43969478933041
 21
117.0732939339409
 31
0.0
  0
LINE
  5
146
330
70
100
AcDbEntity
  8
0
 62
    18
420
        0
370
    35
100
AcDbLine
 10
76.64951686625691
 20
205.6481849793356
 30
0.0
 11
76.64951686625691
 21
214.5406444300294
 31
0.0
  0
LINE
  5
147
330
70
100
AcDbEntity
  8
0
 62
    18
420
        0
370
    35
100
AcDbLine
 10
76.83935604550455
 20
114.925115527313
 30
0.0
 11
76.83935604850225
 21
114.6752082208059
 31
0.0
  0
LINE
  5
148
330
70
100
AcDbEntity
  8
0
 62
    18
420
        0
370
    35
100
AcDbLine
 10
76.84177579282883
 20
114.925115527313
 30
0.0
 11
76.84177579582652
 21
114.6752082208059
 31
0.0
  0
LINE
  5
149
330
70
100
AcDbEntity
  8
0
 62
    18
420
        0
370
    35
100
AcDbLine
 10
77.2490085146185
 20
206.5474224518779
 30
0.0
 11
77.2490085146185
 21
207.7011655634739
 31
0.0
  0
LINE
  5
14A
330
70
100
AcDbEntity
  8
0
 62
    18
420
        0
370
    35
100
AcDbLine
 10
77.95341120144318
 20
205.6481849793356
 30
0.0
 11
77.95341120144318
 21
205.3483667782284
 31
0.0
  0
LINE
  5
14B
330
70
100
AcDbEntity
  8
0
 62
    18
420
        0
370
    35
100
AcDbLine
 10
77.97839002012458
 20
105.5330797029846
 30
0.0
 11
77.97839002012458
 21
114.4255391536787
 31
0.0
  0
LINE
  5
14C
330
70
100
AcDbEntity
  8
0
 62
    18
420
        0
370
    35
100
AcDbLine
 10
90.38980125143595
 20
214.230907078376
 30
0.0
 11
90.47279512472305
 21
214.5406444300294
 31
0.0
  0
LINE
  5
14D
330
70
100
AcDbEntity
  8
0
 62
    18
420
        0
370
    35
100
AcDbLine
 10
117.1152031306504
 20
202.8505572869824
 30
0.0
 11
116.9653302185601
 21
202.7006843748924
 31
0.0
  0
LINE
  5
14E
330
70
100
AcDbEntity
  8
0
 62
    18
420
        0
370
    35
100
AcDbLine
 10
55.83225917086529
 20
139.4043578354026
 30
0.0
 11
55.86713972306219
 21
139.4392383874997
 31
0.0
  0
LINE
  5
14F
330
70
100
AcDbEntity
  8
0
 62
    18
420
        0
370
    35
100
AcDbLine
 10
55.83225917086529
 20
180.3696204734304
 30
0.0
 11
55.86713972306219
 21
180.3347399212335
 31
0.0
  0
LINE
  5
150
330
70
100
AcDbEntity
  8
0
 62
    18
420
        0
370
    35
100
AcDbLine
 10
109.9117225874244
 20
117.0732939339409
 30
0.0
 11
109.9515303536862
 21
117.0202145540256
 31
0.0
  0
LINE
  5
151
330
70
100
AcDbEntity
  8
0
 62
    18
420
        0
370
    35
100
AcDbLine
 10
81.35636091756731
 20
114.6752082746598
 30
0.0
 11
81.36052206963009
 21
114.4255391536787
 31
0.0
  0
LINE
  5
152
330
70
100
AcDbEntity
  8
0
 62
    18
420
        0
370
    35
100
AcDbLine
 10
80.88592297798051
 20
205.3485313528739
 30
0.0
 11
80.88092875094121
 21
205.6481849793356
 31
0.0
  0
LINE
  5
153
330
70
100
AcDbEntity
  8
0
 62
    18
420
        0
370
    35
100
AcDbLine
 10
78.93258089376645
 20
114.4255391536787
 30
0.0
 11
78.93258089376645
 21
114.6752082457846
 31
0.0
  0
LINE
  5
154
330
70
100
AcDbEntity
  8
0
 62
    18
420
        0
370
    35
100
AcDbLine
 10
79.15239449816571
 20
205.6481849793356
 30
0.0
 11
79.15239449816571
 21
205.3483669878506
 31
0.0
  0
LINE
  5
155
330
70
100
AcDbEntity
  8
0
 62
    18
420
        0
370
    35
100
AcDbLine
 10
79.28228435531085
 20
113.5263016811361
 30
0.0
 11
79.28228435531085
 21
114.4255391536787
 31
0.0
  0
LINE
  5
156
330
70
100
AcDbEntity
  8
0
 62
    18
420
        0
370
    35
100
AcDbLine
 10
79.38219963003771
 20
114.4255391536787
 30
0.0
 11
79.38219963003771
 21
114.6752082510799
 31
0.0
  0
LINE
  5
157
330
70
100
AcDbEntity
  8
0
 62
    18
420
        0
370
    35
100
AcDbLine
 10
79.4821149047646
 20
113.5263016811361
 30
0.0
 11
79.4821149047646
 21
114.4255391536787
 31
0.0
  0
LINE
  5
158
330
70
100
AcDbEntity
  8
0
 62
    18
420
        0
370
    35
100
AcDbLine
 10
80.03164891576243
 20
205.6481849793356
 30
0.0
 11
80.03164891576243
 21
206.5474224518779
 31
0.0
  0
LINE
  5
159
330
70
100
AcDbEntity
  8
0
 62
    18
420
        0
370
    35
100
AcDbLine
 10
80.28143710257962
 20
114.4255391536787
 30
0.0
 11
80.28143710257962
 21
113.5263016811361
 31
0.0
  0
LINE
  5
15A
330
70
100
AcDbEntity
  8
0
 62
    18
420
        0
370
    35
100
AcDbLine
 10
80.38135237730649
 20
114.4255391536787
 30
0.0
 11
80.38135237730649
 21
114.67520826297
 31
0.0
  0
LINE
  5
15B
330
70
100
AcDbEntity
  8
0
 62
    18
420
        0
370
    35
100
AcDbLine
 10
80.48126765203305
 20
114.4255391536787
 30
0.0
 11
80.48126765203305
 21
113.5263016811361
 31
0.0
  0
LINE
  5
15C
330
70
100
AcDbEntity
  8
0
 62
    18
420
        0
370
    35
100
AcDbLine
 10
80.83097111357744
 20
114.4255391536787
 30
0.0
 11
80.83097111357744
 21
114.6752082683654
 31
0.0
  0
LINE
  5
15D
330
70
100
AcDbEntity
  8
0
 62
    18
420
        0
370
    35
100
AcDbLine
 10
80.88092875094121
 20
206.5474224518779
 30
0.0
 11
80.88092875094121
 21
205.6481849793356
 31
0.0
  0
LINE
  5
15E
330
70
100
AcDbEntity
  8
0
 62
    18
420
        0
370
    35
100
AcDbLine
 10
81.36052206963009
 20
113.5263016811361
 30
0.0
 11
81.36052206963009
 21
114.4255391536787
 31
0.0
  0
LINE
  5
15F
330
70
100
AcDbEntity
  8
0
 62
    18
420
        0
370
    35
100
AcDbLine
 10
81.76018316853761
 20
205.6481849793356
 30
0.0
 11
81.76018316853761
 21
205.3483674446633
 31
0.0
  0
LINE
  5
160
330
70
100
AcDbEntity
  8
0
 62
    18
420
        0
370
    35
100
AcDbLine
 10
82.20980190480887
 20
113.5263016811361
 30
0.0
 11
82.20980190480887
 21
114.4255391536787
 31
0.0
  0
LINE
  5
161
330
70
100
AcDbEntity
  8
0
 62
    18
420
        0
370
    35
100
AcDbLine
 10
82.73935286086119
 20
114.4255391536787
 30
0.0
 11
82.73935286086119
 21
114.6752082911463
 31
0.0
  0
LINE
  5
162
330
70
100
AcDbEntity
  8
0
 62
    18
420
        0
370
    35
100
AcDbLine
 10
82.95916646526045
 20
205.6481849793356
 30
0.0
 11
82.95916646526045
 21
205.3483676543853
 31
0.0
  0
LINE
  5
163
330
70
100
AcDbEntity
  8
0
 62
    18
420
        0
370
    35
100
AcDbLine
 10
83.08905632240557
 20
113.5263016811361
 30
0.0
 11
83.08905632240557
 21
114.4255391536787
 31
0.0
  0
LINE
  5
164
330
70
100
AcDbEntity
  8
0
 62
    18
420
        0
370
    35
100
AcDbLine
 10
83.18897159713278
 20
114.4255391536787
 30
0.0
 11
83.18897159713278
 21
114.6752082965417
 31
0.0
  0
LINE
  5
165
330
70
100
AcDbEntity
  8
0
 62
    18
420
        0
370
    35
100
AcDbLine
 10
83.28888687185935
 20
113.5263016811361
 30
0.0
 11
83.28888687185935
 21
114.4255391536787
 31
0.0
  0
LINE
  5
166
330
70
100
AcDbEntity
  8
0
 62
    18
420
        0
370
    35
100
AcDbLine
 10
78.40302993771413
 20
114.4255391536787
 30
0.0
 11
78.40700194586574
 21
114.6752082394896
 31
0.0
  0
LINE
  5
167
330
70
100
AcDbEntity
  8
0
 62
    18
420
        0
370
    35
100
AcDbLine
 10
80.03164891576243
 20
205.6481849793356
 30
0.0
 11
80.02665195174389
 21
205.3483671407209
 31
0.0
  0
LINE
  5
168
330
70
100
AcDbEntity
  8
0
 62
    18
420
        0
370
    35
100
AcDbLine
 10
82.20980190480887
 20
114.4255391536787
 30
0.0
 11
82.21396305697176
 21
114.6752082848513
 31
0.0
  0
LINE
  5
169
330
70
100
AcDbEntity
  8
0
 62
    18
420
        0
370
    35
100
AcDbLine
 10
83.83842088285717
 20
205.6481849793356
 30
0.0
 11
83.83342952018878
 21
205.3487032236327
 31
0.0
  0
LINE
  5
16A
330
70
100
AcDbEntity
  8
0
 62
    18
420
        0
370
    35
100
AcDbLine
 10
94.19657321853037
 20
214.230907078376
 30
0.0
 11
94.27956709181781
 21
214.5406444300294
 31
0.0
  0
LINE
  5
16B
330
70
100
AcDbEntity
  8
0
 62
    18
420
        0
370
    35
100
AcDbLine
 10
98.00334518562513
 20
214.230907078376
 30
0.0
 11
98.08633905891289
 21
214.5406444300294
 31
0.0
  0
LINE
  5
16C
330
70
100
AcDbEntity
  8
0
 62
    18
420
        0
370
    35
100
AcDbLine
 10
113.5832879630118
 20
165.0326258028518
 30
0.0
 11
111.5849824684736
 21
165.0326258028518
 31
0.0
  0
LINE
  5
16D
330
70
100
AcDbEntity
  8
0
 62
    18
420
        0
370
    35
100
AcDbLine
 10
113.618168515209
 20
165.0675063549492
 30
0.0
 11
111.6198630206708
 21
165.0675063549492
 31
0.0
  0
LINE
  5
16E
330
70
100
AcDbEntity
  8
0
 62
    18
420
        0
370
    35
100
AcDbLine
 10
85.1631328839626
 20
114.6752083200215
 30
0.0
 11
85.16729403672483
 21
114.4255391536787
 31
0.0
  0
LINE
  5
16F
330
70
100
AcDbEntity
  8
0
 62
    18
420
        0
370
    35
100
AcDbLine
 10
84.69269493398478
 20
205.3485320182096
 30
0.0
 11
84.68770071803627
 21
205.6481849793356
 31
0.0
  0
LINE
  5
170
330
70
100
AcDbEntity
  8
0
 62
    18
420
        0
370
    35
100
AcDbLine
 10
83.83842088285717
 20
205.6481849793356
 30
0.0
 11
83.83842088285717
 21
206.5474224518779
 31
0.0
  0
LINE
  5
171
330
70
100
AcDbEntity
  8
0
 62
    18
420
        0
370
    35
100
AcDbLine
 10
84.08820906967436
 20
114.4255391536787
 30
0.0
 11
84.08820906967436
 21
113.5263016811361
 31
0.0
  0
LINE
  5
172
330
70
100
AcDbEntity
  8
0
 62
    18
420
        0
370
    35
100
AcDbLine
 10
84.18812434440125
 20
114.4255391536787
 30
0.0
 11
84.18812434440125
 21
114.6752083084311
 31
0.0
  0
LINE
  5
173
330
70
100
AcDbEntity
  8
0
 62
    18
420
        0
370
    35
100
AcDbLine
 10
84.28803961912812
 20
114.4255391536787
 30
0.0
 11
84.28803961912812
 21
113.5263016811361
 31
0.0
  0
LINE
  5
174
330
70
100
AcDbEntity
  8
0
 62
    18
420
        0
370
    35
100
AcDbLine
 10
84.6377430806725
 20
114.4255391536787
 30
0.0
 11
84.6377430806725
 21
114.6752083137271
 31
0.0
  0
LINE
  5
175
330
70
100
AcDbEntity
  8
0
 62
    18
420
        0
370
    35
100
AcDbLine
 10
84.68770071803627
 20
206.5474224518779
 30
0.0
 11
84.68770071803627
 21
205.6481849793356
 31
0.0
  0
LINE
  5
176
330
70
100
AcDbEntity
  8
0
 62
    18
420
        0
370
    35
100
AcDbLine
 10
85.16729403672483
 20
113.5263016811361
 30
0.0
 11
85.16729403672483
 21
114.4255391536787
 31
0.0
  0
LINE
  5
177
330
70
100
AcDbEntity
  8
0
 62
    18
420
        0
370
    35
100
AcDbLine
 10
85.56695513563267
 20
205.6481849793356
 30
0.0
 11
85.56695513563267
 21
205.348368110299
 31
0.0
  0
LINE
  5
178
330
70
100
AcDbEntity
  8
0
 62
    18
420
        0
370
    35
100
AcDbLine
 10
86.01657387190362
 20
113.5263016811361
 30
0.0
 11
86.01657387190362
 21
114.4255391536787
 31
0.0
  0
LINE
  5
179
330
70
100
AcDbEntity
  8
0
 62
    18
420
        0
370
    35
100
AcDbLine
 10
86.54612482795625
 20
114.4255391536787
 30
0.0
 11
86.54612482795625
 21
114.6752083365074
 31
0.0
  0
LINE
  5
17A
330
70
100
AcDbEntity
  8
0
 62
    18
420
        0
370
    35
100
AcDbLine
 10
86.7659384323552
 20
205.6481849793356
 30
0.0
 11
86.7659384323552
 21
205.3483683199212
 31
0.0
  0
LINE
  5
17B
330
70
100
AcDbEntity
  8
0
 62
    18
420
        0
370
    35
100
AcDbLine
 10
86.89582828950033
 20
113.5263016811361
 30
0.0
 11
86.89582828950033
 21
114.4255391536787
 31
0.0
  0
LINE
  5
17C
330
70
100
AcDbEntity
  8
0
 62
    18
420
        0
370
    35
100
AcDbLine
 10
86.9957435642272
 20
114.4255391536787
 30
0.0
 11
86.9957435642272
 21
114.6752083419028
 31
0.0
  0
LINE
  5
17D
330
70
100
AcDbEntity
  8
0
 62
    18
420
        0
370
    35
100
AcDbLine
 10
87.09565883895409
 20
113.5263016811361
 30
0.0
 11
87.09565883895409
 21
114.4255391536787
 31
0.0
  0
LINE
  5
17E
330
70
100
AcDbEntity
  8
0
 62
    18
420
        0
370
    35
100
AcDbLine
 10
87.64519284995191
 20
205.6481849793356
 30
0.0
 11
87.64519284995191
 21
206.5474224518779
 31
0.0
  0
LINE
  5
17F
330
70
100
AcDbEntity
  8
0
 62
    18
420
        0
370
    35
100
AcDbLine
 10
87.8949810367691
 20
114.4255391536787
 30
0.0
 11
87.8949810367691
 21
113.5263016811361
 31
0.0
  0
LINE
  5
180
330
70
100
AcDbEntity
  8
0
 62
    18
420
        0
370
    35
100
AcDbLine
 10
86.01657387190362
 20
114.4255391536787
 30
0.0
 11
86.02073502476596
 21
114.675208330213
 31
0.0
  0
LINE
  5
181
330
70
100
AcDbEntity
  8
0
 62
    18
420
        0
370
    35
100
AcDbLine
 10
87.64519284995191
 20
205.6481849793356
 30
0.0
 11
87.64020149837433
 21
205.3487038890681
 31
0.0
  0
LINE
  5
182
330
70
100
AcDbEntity
  8
0
 62
    18
420
        0
370
    35
100
AcDbLine
 10
101.8101171527199
 20
214.230907078376
 30
0.0
 11
101.8931110260076
 21
214.5406444300294
 31
0.0
  0
LINE
  5
183
330
70
100
AcDbEntity
  8
0
 62
    18
420
        0
370
    35
100
AcDbLine
 10
111.6101333290687
 20
165.8819056380306
 30
0.0
 11
111.5719750201151
 21
165.8819056380306
 31
0.0
  0
LINE
  5
184
330
70
100
AcDbEntity
  8
0
 62
    18
420
        0
370
    35
100
AcDbLine
 10
88.96990485025812
 20
114.6752083653832
 30
0.0
 11
88.97406600381959
 21
114.4255391536787
 31
0.0
  0
LINE
  5
185
330
70
100
AcDbEntity
  8
0
 62
    18
420
        0
370
    35
100
AcDbLine
 10
88.49946688998873
 20
205.3485326836454
 30
0.0
 11
88.4944726851307
 21
205.6481849793356
 31
0.0
  0
LINE
  5
186
330
70
100
AcDbEntity
  8
0
 62
    18
420
        0
370
    35
100
AcDbLine
 10
92.77665783424996
 20
114.6763473505563
 30
0.0
 11
92.78083797091465
 21
114.4255391536787
 31
0.0
  0
LINE
  5
187
330
70
100
AcDbEntity
  8
0
 62
    18
420
        0
370
    35
100
AcDbLine
 10
87.99489631149599
 20
114.4255391536787
 30
0.0
 11
87.99489631149599
 21
114.6752083537929
 31
0.0
  0
LINE
  5
188
330
70
100
AcDbEntity
  8
0
 62
    18
420
        0
370
    35
100
AcDbLine
 10
88.09481158622318
 20
114.4255391536787
 30
0.0
 11
88.09481158622318
 21
113.5263016811361
 31
0.0
  0
LINE
  5
189
330
70
100
AcDbEntity
  8
0
 62
    18
420
        0
370
    35
100
AcDbLine
 10
88.44451504776726
 20
114.4255391536787
 30
0.0
 11
88.44451504776726
 21
114.6752083591882
 31
0.0
  0
LINE
  5
18A
330
70
100
AcDbEntity
  8
0
 62
    18
420
        0
370
    35
100
AcDbLine
 10
88.4944726851307
 20
206.5474224518779
 30
0.0
 11
88.4944726851307
 21
205.6481849793356
 31
0.0
  0
LINE
  5
18B
330
70
100
AcDbEntity
  8
0
 62
    18
420
        0
370
    35
100
AcDbLine
 10
88.97406600381959
 20
113.5263016811361
 30
0.0
 11
88.97406600381959
 21
114.4255391536787
 31
0.0
  0
LINE
  5
18C
330
70
100
AcDbEntity
  8
0
 62
    18
420
        0
370
    35
100
AcDbLine
 10
89.37372710272741
 20
205.6481849793356
 30
0.0
 11
89.37372710272741
 21
205.3483687759347
 31
0.0
  0
LINE
  5
18D
330
70
100
AcDbEntity
  8
0
 62
    18
420
        0
370
    35
100
AcDbLine
 10
89.82334583899836
 20
113.5263016811361
 30
0.0
 11
89.82334583899836
 21
114.4255391536787
 31
0.0
  0
LINE
  5
18E
330
70
100
AcDbEntity
  8
0
 62
    18
420
        0
370
    35
100
AcDbLine
 10
90.35289679505101
 20
114.4255391536787
 30
0.0
 11
90.35289679505101
 21
114.6752083819692
 31
0.0
  0
LINE
  5
18F
330
70
100
AcDbEntity
  8
0
 62
    18
420
        0
370
    35
100
AcDbLine
 10
90.57271039944994
 20
205.6481849793356
 30
0.0
 11
90.57271039944994
 21
205.3483689855566
 31
0.0
  0
LINE
  5
190
330
70
100
AcDbEntity
  8
0
 62
    18
420
        0
370
    35
100
AcDbLine
 10
90.70260025659507
 20
113.5263016811361
 30
0.0
 11
90.70260025659507
 21
114.4255391536787
 31
0.0
  0
LINE
  5
191
330
70
100
AcDbEntity
  8
0
 62
    18
420
        0
370
    35
100
AcDbLine
 10
90.80251553132196
 20
114.4255391536787
 30
0.0
 11
90.80251553132196
 21
114.6752083872645
 31
0.0
  0
LINE
  5
192
330
70
100
AcDbEntity
  8
0
 62
    18
420
        0
370
    35
100
AcDbLine
 10
90.90243080604883
 20
113.5263016811361
 30
0.0
 11
90.90243080604883
 21
114.4255391536787
 31
0.0
  0
LINE
  5
193
330
70
100
AcDbEntity
  8
0
 62
    18
420
        0
370
    35
100
AcDbLine
 10
91.45196481704665
 20
205.6481849793356
 30
0.0
 11
91.45196481704665
 21
206.5474224518779
 31
0.0
  0
LINE
  5
194
330
70
100
AcDbEntity
  8
0
 62
    18
420
        0
370
    35
100
AcDbLine
 10
91.70175300386418
 20
114.4255391536787
 30
0.0
 11
91.70175300386418
 21
113.5263016811361
 31
0.0
  0
LINE
  5
195
330
70
100
AcDbEntity
  8
0
 62
    18
420
        0
370
    35
100
AcDbLine
 10
91.80166827859073
 20
114.4255391536787
 30
0.0
 11
91.80166827859073
 21
114.6752083991546
 31
0.0
  0
LINE
  5
196
330
70
100
AcDbEntity
  8
0
 62
    18
420
        0
370
    35
100
AcDbLine
 10
91.90158355331794
 20
114.4255391536787
 30
0.0
 11
91.90158355331794
 21
113.5263016811361
 31
0.0
  0
LINE
  5
197
330
70
100
AcDbEntity
  8
0
 62
    18
420
        0
370
    35
100
AcDbLine
 10
92.251287014862
 20
114.4255391536787
 30
0.0
 11
92.251287014862
 21
114.67520840455
 31
0.0
  0
LINE
  5
198
330
70
100
AcDbEntity
  8
0
 62
    18
420
        0
370
    35
100
AcDbLine
 10
92.30124465222576
 20
206.5474224518779
 30
0.0
 11
92.30124465222576
 21
205.6481849793356
 31
0.0
  0
LINE
  5
199
330
70
100
AcDbEntity
  8
0
 62
    18
420
        0
370
    35
100
AcDbLine
 10
89.82334583899836
 20
114.4255391536787
 30
0.0
 11
89.82750699265993
 21
114.6752083756741
 31
0.0
  0
LINE
  5
19A
330
70
100
AcDbEntity
  8
0
 62
    18
420
        0
370
    35
100
AcDbLine
 10
91.45196481704665
 20
205.6481849793356
 30
0.0
 11
91.44697347655958
 21
205.3487045544042
 31
0.0
  0
LINE
  5
19B
330
70
100
AcDbEntity
  8
0
 62
    18
420
        0
370
    35
100
AcDbLine
 10
105.6168891198149
 20
214.230907078376
 30
0.0
 11
105.6998829931023
 21
214.5406444300294
 31
0.0
  0
LINE
  5
19C
330
70
100
AcDbEntity
  8
0
 62
    18
420
        0
370
    35
100
AcDbLine
 10
71.65375312991206
 20
139.4043578354026
 30
0.0
 11
71.66348282141406
 21
139.4140875269046
 31
0.0
  0
LINE
  5
19D
330
70
100
AcDbEntity
  8
0
 62
    18
420
        0
370
    35
100
AcDbLine
 10
71.65375312991206
 20
180.3696204734304
 30
0.0
 11
71.66348282141406
 21
180.3598907818287
 31
0.0
  0
LINE
  5
19E
330
70
100
AcDbEntity
  8
0
 62
    18
420
        0
370
    35
100
AcDbLine
 10
78.05332647616973
 20
214.5406444300294
 30
0.0
 11
78.13632034935739
 21
214.230907078376
 31
0.0
  0
LINE
  5
19F
330
70
100
AcDbEntity
  8
0
 62
    18
420
        0
370
    35
100
AcDbLine
 10
92.30623884599298
 20
205.3485333490812
 30
0.0
 11
92.30124465222576
 21
205.6481849793356
 31
0.0
  0
LINE
  5
1A0
330
70
100
AcDbEntity
  8
0
 62
    18
420
        0
370
    35
100
AcDbLine
 10
96.58344878294892
 20
114.6752084562061
 30
0.0
 11
96.58760993800939
 21
114.4255391536787
 31
0.0
  0
LINE
  5
1A1
330
70
100
AcDbEntity
  8
0
 62
    18
420
        0
370
    35
100
AcDbLine
 10
96.11301080199725
 20
205.348534014517
 30
0.0
 11
96.10801661932018
 21
205.6481849793356
 31
0.0
  0
LINE
  5
1A2
330
70
100
AcDbEntity
  8
0
 62
    18
420
        0
370
    35
100
AcDbLine
 10
92.78083797091465
 20
113.5263016811361
 30
0.0
 11
92.78083797091465
 21
114.4255391536787
 31
0.0
  0
LINE
  5
1A3
330
70
100
AcDbEntity
  8
0
 62
    18
420
        0
370
    35
100
AcDbLine
 10
93.18049906982215
 20
205.6481849793356
 30
0.0
 11
93.18049906982215
 21
205.3483694414703
 31
0.0
  0
LINE
  5
1A4
330
70
100
AcDbEntity
  8
0
 62
    18
420
        0
370
    35
100
AcDbLine
 10
93.6301178060931
 20
113.5263016811361
 30
0.0
 11
93.6301178060931
 21
114.4255391536787
 31
0.0
  0
LINE
  5
1A5
330
70
100
AcDbEntity
  8
0
 62
    18
420
        0
370
    35
100
AcDbLine
 10
94.15966876214575
 20
114.4255391536787
 30
0.0
 11
94.15966876214575
 21
114.6752084273303
 31
0.0
  0
LINE
  5
1A6
330
70
100
AcDbEntity
  8
0
 62
    18
420
        0
370
    35
100
AcDbLine
 10
94.379482366545
 20
205.6481849793356
 30
0.0
 11
94.379482366545
 21
205.3483696510922
 31
0.0
  0
LINE
  5
1A7
330
70
100
AcDbEntity
  8
0
 62
    18
420
        0
370
    35
100
AcDbLine
 10
94.50937222368983
 20
113.5263016811361
 30
0.0
 11
94.50937222368983
 21
114.4255391536787
 31
0.0
  0
LINE
  5
1A8
330
70
100
AcDbEntity
  8
0
 62
    18
420
        0
370
    35
100
AcDbLine
 10
94.6092874984167
 20
114.4255391536787
 30
0.0
 11
94.6092874984167
 21
114.6752084327257
 31
0.0
  0
LINE
  5
1A9
330
70
100
AcDbEntity
  8
0
 62
    18
420
        0
370
    35
100
AcDbLine
 10
94.70920277314325
 20
113.5263016811361
 30
0.0
 11
94.70920277314325
 21
114.4255391536787
 31
0.0
  0
LINE
  5
1AA
330
70
100
AcDbEntity
  8
0
 62
    18
420
        0
370
    35
100
AcDbLine
 10
95.25873678414173
 20
205.6481849793356
 30
0.0
 11
95.25873678414173
 21
206.5474224518779
 31
0.0
  0
LINE
  5
1AB
330
70
100
AcDbEntity
  8
0
 62
    18
420
        0
370
    35
100
AcDbLine
 10
95.50852497095892
 20
114.4255391536787
 30
0.0
 11
95.50852497095892
 21
113.5263016811361
 31
0.0
  0
LINE
  5
1AC
330
70
100
AcDbEntity
  8
0
 62
    18
420
        0
370
    35
100
AcDbLine
 10
95.60844024568579
 20
114.4255391536787
 30
0.0
 11
95.60844024568579
 21
114.6752084446157
 31
0.0
  0
LINE
  5
1AD
330
70
100
AcDbEntity
  8
0
 62
    18
420
        0
370
    35
100
AcDbLine
 10
95.70835552041268
 20
114.4255391536787
 30
0.0
 11
95.70835552041268
 21
113.5263016811361
 31
0.0
  0
LINE
  5
1AE
330
70
100
AcDbEntity
  8
0
 62
    18
420
        0
370
    35
100
AcDbLine
 10
96.05805898195676
 20
114.4255391536787
 30
0.0
 11
96.05805898195676
 21
114.6752084499117
 31
0.0
  0
LINE
  5
1AF
330
70
100
AcDbEntity
  8
0
 62
    18
420
        0
370
    35
100
AcDbLine
 10
96.10801661932018
 20
206.5474224518779
 30
0.0
 11
96.10801661932018
 21
205.6481849793356
 31
0.0
  0
LINE
  5
1B0
330
70
100
AcDbEntity
  8
0
 62
    18
420
        0
370
    35
100
AcDbLine
 10
96.58760993800939
 20
113.5263016811361
 30
0.0
 11
96.58760993800939
 21
114.4255391536787
 31
0.0
  0
LINE
  5
1B1
330
70
100
AcDbEntity
  8
0
 62
    18
420
        0
370
    35
100
AcDbLine
 10
96.98727103691691
 20
205.6481849793356
 30
0.0
 11
96.98727103691691
 21
205.348370107106
 31
0.0
  0
LINE
  5
1B2
330
70
100
AcDbEntity
  8
0
 62
    18
420
        0
370
    35
100
AcDbLine
 10
93.6301178060931
 20
114.4255391536787
 30
0.0
 11
93.63427896055425
 21
114.6752084210358
 31
0.0
  0
LINE
  5
1B3
330
70
100
AcDbEntity
  8
0
 62
    18
420
        0
370
    35
100
AcDbLine
 10
95.25873678414173
 20
205.6481849793356
 30
0.0
 11
95.25374545474512
 21
205.3487052198396
 31
0.0
  0
LINE
  5
1B4
330
70
100
AcDbEntity
  8
0
 62
    18
420
        0
370
    35
100
AcDbLine
 10
109.4236610869093
 20
214.230907078376
 30
0.0
 11
109.5066549601974
 21
214.5406444300294
 31
0.0
  0
LINE
  5
1B5
330
70
100
AcDbEntity
  8
0
 62
    18
420
        0
370
    35
100
AcDbLine
 10
116.9781877769209
 20
175.3238990997222
 30
0.0
 11
115.6535740887491
 21
175.3238990997222
 31
0.0
  0
LINE
  5
1B6
330
70
100
AcDbEntity
  8
0
 62
    18
420
        0
370
    35
100
AcDbLine
 10
111.6101333290687
 20
175.8734331107203
 30
0.0
 11
111.5719750201151
 21
175.8734331107203
 31
0.0
  0
LINE
  5
1B7
330
70
100
AcDbEntity
  8
0
 62
    18
420
        0
370
    35
100
AcDbLine
 10
50.77146071199046
 20
176.972501132716
 30
0.0
 11
50.82961192393887
 21
176.972501132716
 31
0.0
  0
LINE
  5
1B8
330
70
100
AcDbEntity
  8
0
 62
    18
420
        0
370
    35
100
AcDbLine
 10
113.618168515209
 20
177.621950418441
 30
0.0
 11
119.1135086251886
 21
177.621950418441
 31
0.0
  0
LINE
  5
1B9
330
70
100
AcDbEntity
  8
0
 62
    18
420
        0
370
    35
100
AcDbLine
 10
81.86009844326447
 20
214.5406444300294
 30
0.0
 11
81.94309231645247
 21
214.230907078376
 31
0.0
  0
LINE
  5
1BA
330
70
100
AcDbEntity
  8
0
 62
    18
420
        0
370
    35
100
AcDbLine
 10
100.3902017669407
 20
114.6763474412797
 30
0.0
 11
100.3943819051041
 21
114.4255391536787
 31
0.0
  0
LINE
  5
1BB
330
70
100
AcDbEntity
  8
0
 62
    18
420
        0
370
    35
100
AcDbLine
 10
99.9197827580015
 20
205.3485346798527
 30
0.0
 11
99.91478858641526
 21
205.6481849793356
 31
0.0
  0
LINE
  5
1BC
330
70
100
AcDbEntity
  8
0
 62
    18
420
        0
370
    35
100
AcDbLine
 10
97.43688977318786
 20
113.5263016811361
 30
0.0
 11
97.43688977318786
 21
114.4255391536787
 31
0.0
  0
LINE
  5
1BD
330
70
100
AcDbEntity
  8
0
 62
    18
420
        0
370
    35
100
AcDbLine
 10
97.96644072924051
 20
114.4255391536787
 30
0.0
 11
97.96644072924051
 21
114.675208472692
 31
0.0
  0
LINE
  5
1BE
330
70
100
AcDbEntity
  8
0
 62
    18
420
        0
370
    35
100
AcDbLine
 10
98.18625433363976
 20
205.6481849793356
 30
0.0
 11
98.18625433363976
 21
205.3483703167279
 31
0.0
  0
LINE
  5
1BF
330
70
100
AcDbEntity
  8
0
 62
    18
420
        0
370
    35
100
AcDbLine
 10
98.31614419078457
 20
113.5263016811361
 30
0.0
 11
98.31614419078457
 21
114.4255391536787
 31
0.0
  0
LINE
  5
1C0
330
70
100
AcDbEntity
  8
0
 62
    18
420
        0
370
    35
100
AcDbLine
 10
98.41605946551146
 20
114.4255391536787
 30
0.0
 11
98.41605946551146
 21
114.6752084780874
 31
0.0
  0
LINE
  5
1C1
330
70
100
AcDbEntity
  8
0
 62
    18
420
        0
370
    35
100
AcDbLine
 10
98.51597474023833
 20
113.5263016811361
 30
0.0
 11
98.51597474023833
 21
114.4255391536787
 31
0.0
  0
LINE
  5
1C2
330
70
100
AcDbEntity
  8
0
 62
    18
420
        0
370
    35
100
AcDbLine
 10
99.06550875123679
 20
205.6481849793356
 30
0.0
 11
99.06550875123679
 21
206.5474224518779
 31
0.0
  0
LINE
  5
1C3
330
70
100
AcDbEntity
  8
0
 62
    18
420
        0
370
    35
100
AcDbLine
 10
99.31529693805366
 20
114.4255391536787
 30
0.0
 11
99.31529693805366
 21
113.5263016811361
 31
0.0
  0
LINE
  5
1C4
330
70
100
AcDbEntity
  8
0
 62
    18
420
        0
370
    35
100
AcDbLine
 10
99.41521221278087
 20
114.4255391536787
 30
0.0
 11
99.41521221278087
 21
114.6752084899774
 31
0.0
  0
LINE
  5
1C5
330
70
100
AcDbEntity
  8
0
 62
    18
420
        0
370
    35
100
AcDbLine
 10
99.51512748750744
 20
114.4255391536787
 30
0.0
 11
99.51512748750744
 21
113.5263016811361
 31
0.0
  0
LINE
  5
1C6
330
70
100
AcDbEntity
  8
0
 62
    18
420
        0
370
    35
100
AcDbLine
 10
99.8648309490515
 20
114.4255391536787
 30
0.0
 11
99.8648309490515
 21
114.6752084953728
 31
0.0
  0
LINE
  5
1C7
330
70
100
AcDbEntity
  8
0
 62
    18
420
        0
370
    35
100
AcDbLine
 10
99.91478858641526
 20
206.5474224518779
 30
0.0
 11
99.91478858641526
 21
205.6481849793356
 31
0.0
  0
LINE
  5
1C8
330
70
100
AcDbEntity
  8
0
 62
    18
420
        0
370
    35
100
AcDbLine
 10
100.3943819051041
 20
113.5263016811361
 30
0.0
 11
100.3943819051041
 21
114.4255391536787
 31
0.0
  0
LINE
  5
1C9
330
70
100
AcDbEntity
  8
0
 62
    18
420
        0
370
    35
100
AcDbLine
 10
100.7940430040116
 20
205.6481849793356
 30
0.0
 11
100.7940430040116
 21
205.3483707726412
 31
0.0
  0
LINE
  5
1CA
330
70
100
AcDbEntity
  8
0
 62
    18
420
        0
370
    35
100
AcDbLine
 10
101.2436617402826
 20
113.5263016811361
 30
0.0
 11
101.2436617402826
 21
114.4255391536787
 31
0.0
  0
LINE
  5
1CB
330
70
100
AcDbEntity
  8
0
 62
    18
420
        0
370
    35
100
AcDbLine
 10
97.43688977318786
 20
114.4255391536787
 30
0.0
 11
97.44105092834843
 21
114.6752084664977
 31
0.0
  0
LINE
  5
1CC
330
70
100
AcDbEntity
  8
0
 62
    18
420
        0
370
    35
100
AcDbLine
 10
99.06550875123679
 20
205.6481849793356
 30
0.0
 11
99.06051743293067
 21
205.3487058852758
 31
0.0
  0
LINE
  5
1CD
330
70
100
AcDbEntity
  8
0
 62
    18
420
        0
370
    35
100
AcDbLine
 10
111.6198630206708
 20
165.0675063549492
 30
0.0
 11
111.5849824684736
 21
165.0326258028518
 31
0.0
  0
LINE
  5
1CE
330
70
100
AcDbEntity
  8
0
 62
    18
420
        0
370
    35
100
AcDbLine
 10
111.6198630206708
 20
179.6202559129785
 30
0.0
 11
117.1152031306504
 21
179.6202559129785
 31
0.0
  0
LINE
  5
1CF
330
70
100
AcDbEntity
  8
0
 62
    18
420
        0
370
    35
100
AcDbLine
 10
50.82961192393887
 20
179.9699593745229
 30
0.0
 11
50.77146071199046
 21
179.9699593745229
 31
0.0
  0
LINE
  5
1D0
330
70
100
AcDbEntity
  8
0
 62
    18
420
        0
370
    35
100
AcDbLine
 10
61.66222565722237
 20
180.3217324728747
 30
0.0
 11
62.31167494294708
 21
180.3217324728747
 31
0.0
  0
LINE
  5
1D1
330
70
100
AcDbEntity
  8
0
 62
    18
420
        0
370
    35
100
AcDbLine
 10
59.16434378904979
 20
180.3347399212335
 30
0.0
 11
59.01447087695947
 21
180.3347399212335
 31
0.0
  0
LINE
  5
1D2
330
70
100
AcDbEntity
  8
0
 62
    18
420
        0
370
    35
100
AcDbLine
 10
56.01701263515282
 20
180.3347399212335
 30
0.0
 11
55.86713972306219
 21
180.3347399212335
 31
0.0
  0
LINE
  5
1D3
330
70
100
AcDbEntity
  8
0
 62
    18
420
        0
370
    35
100
AcDbLine
 10
61.66222565722237
 20
180.3598907818287
 30
0.0
 11
71.66348282141406
 21
180.3598907818287
 31
0.0
  0
LINE
  5
1D4
330
70
100
AcDbEntity
  8
0
 62
    18
420
        0
370
    35
100
AcDbLine
 10
71.65375312991206
 20
180.3696204734304
 30
0.0
 11
59.19922434114753
 21
180.3696204734304
 31
0.0
  0
LINE
  5
1D5
330
70
100
AcDbEntity
  8
0
 62
    18
420
        0
370
    35
100
AcDbLine
 10
55.83225917086529
 20
180.3696204734304
 30
0.0
 11
50.67154543726326
 21
180.3696204734304
 31
0.0
  0
LINE
  5
1D6
330
70
100
AcDbEntity
  8
0
 62
    18
420
        0
370
    35
100
AcDbLine
 10
71.67213965007302
 20
181.2189003086092
 30
0.0
 11
71.68598100760078
 21
181.2189003086092
 31
0.0
  0
LINE
  5
1D7
330
70
100
AcDbEntity
  8
0
 62
    18
420
        0
370
    35
100
AcDbLine
 10
59.16434378904979
 20
182.3330454157714
 30
0.0
 11
59.01447087695947
 21
182.3330454157714
 31
0.0
  0
LINE
  5
1D8
330
70
100
AcDbEntity
  8
0
 62
    18
420
        0
370
    35
100
AcDbLine
 10
56.01701263515282
 20
182.3330454157714
 30
0.0
 11
55.86713972306219
 21
182.3330454157714
 31
0.0
  0
LINE
  5
1D9
330
70
100
AcDbEntity
  8
0
 62
    18
420
        0
370
    35
100
AcDbLine
 10
69.65544763537419
 20
182.3679259679686
 30
0.0
 11
59.19922434114753
 21
182.3679259679686
 31
0.0
  0
LINE
  5
1DA
330
70
100
AcDbEntity
  8
0
 62
    18
420
        0
370
    35
100
AcDbLine
 10
55.83225917086529
 20
182.3679259679686
 30
0.0
 11
48.87307049217946
 21
182.3679259679686
 31
0.0
  0
LINE
  5
1DB
330
70
100
AcDbEntity
  8
0
 62
    18
420
        0
370
    35
100
AcDbLine
 10
111.6198630206708
 20
154.7064719537843
 30
0.0
 11
111.5849824684736
 21
154.7413525059815
 31
0.0
  0
LINE
  5
1DC
330
70
100
AcDbEntity
  8
0
 62
    18
420
        0
370
    35
100
AcDbLine
 10
85.66687041035955
 20
214.5406444300294
 30
0.0
 11
85.74986428354719
 21
214.230907078376
 31
0.0
  0
LINE
  5
1DD
330
70
100
AcDbEntity
  8
0
 62
    18
420
        0
370
    35
100
AcDbLine
 10
103.7265547140061
 20
205.3485353452885
 30
0.0
 11
103.7215605535096
 21
205.6481849793356
 31
0.0
  0
LINE
  5
1DE
330
70
100
AcDbEntity
  8
0
 62
    18
420
        0
370
    35
100
AcDbLine
 10
104.1971818590516
 20
114.675208547029
 30
0.0
 11
104.2011538721989
 21
114.4255391536787
 31
0.0
  0
LINE
  5
1DF
330
70
100
AcDbEntity
  8
0
 62
    18
420
        0
370
    35
100
AcDbLine
 10
101.7732126963352
 20
114.4255391536787
 30
0.0
 11
101.7732126963352
 21
114.6752085181538
 31
0.0
  0
LINE
  5
1E0
330
70
100
AcDbEntity
  8
0
 62
    18
420
        0
370
    35
100
AcDbLine
 10
101.9930263007345
 20
205.6481849793356
 30
0.0
 11
101.9930263007345
 21
205.3483709823636
 31
0.0
  0
LINE
  5
1E1
330
70
100
AcDbEntity
  8
0
 62
    18
420
        0
370
    35
100
AcDbLine
 10
102.1229161578793
 20
113.5263016811361
 30
0.0
 11
102.1229161578793
 21
114.4255391536787
 31
0.0
  0
LINE
  5
1E2
330
70
100
AcDbEntity
  8
0
 62
    18
420
        0
370
    35
100
AcDbLine
 10
102.2228314326062
 20
114.4255391536787
 30
0.0
 11
102.2228314326062
 21
114.6752085234491
 31
0.0
  0
LINE
  5
1E3
330
70
100
AcDbEntity
  8
0
 62
    18
420
        0
370
    35
100
AcDbLine
 10
102.3227467073327
 20
113.5263016811361
 30
0.0
 11
102.3227467073327
 21
114.4255391536787
 31
0.0
  0
LINE
  5
1E4
330
70
100
AcDbEntity
  8
0
 62
    18
420
        0
370
    35
100
AcDbLine
 10
102.8722807183312
 20
205.6481849793356
 30
0.0
 11
102.8722807183312
 21
206.5474224518779
 31
0.0
  0
LINE
  5
1E5
330
70
100
AcDbEntity
  8
0
 62
    18
420
        0
370
    35
100
AcDbLine
 10
103.1220689051484
 20
114.4255391536787
 30
0.0
 11
103.1220689051484
 21
113.5263016811361
 31
0.0
  0
LINE
  5
1E6
330
70
100
AcDbEntity
  8
0
 62
    18
420
        0
370
    35
100
AcDbLine
 10
103.2219841798753
 20
114.4255391536787
 30
0.0
 11
103.2219841798753
 21
114.6752085353391
 31
0.0
  0
LINE
  5
1E7
330
70
100
AcDbEntity
  8
0
 62
    18
420
        0
370
    35
100
AcDbLine
 10
103.3218994546021
 20
114.4255391536787
 30
0.0
 11
103.3218994546021
 21
113.5263016811361
 31
0.0
  0
LINE
  5
1E8
330
70
100
AcDbEntity
  8
0
 62
    18
420
        0
370
    35
100
AcDbLine
 10
103.6716029161462
 20
114.4255391536787
 30
0.0
 11
103.6716029161462
 21
114.6752085407345
 31
0.0
  0
LINE
  5
1E9
330
70
100
AcDbEntity
  8
0
 62
    18
420
        0
370
    35
100
AcDbLine
 10
103.7215605535096
 20
206.5474224518779
 30
0.0
 11
103.7215605535096
 21
205.6481849793356
 31
0.0
  0
LINE
  5
1EA
330
70
100
AcDbEntity
  8
0
 62
    18
420
        0
370
    35
100
AcDbLine
 10
104.6008149711064
 20
205.6481849793356
 30
0.0
 11
104.6008149711064
 21
205.3483714382767
 31
0.0
  0
LINE
  5
1EB
330
70
100
AcDbEntity
  8
0
 62
    18
420
        0
370
    35
100
AcDbLine
 10
104.6257937897881
 20
105.5330797029846
 30
0.0
 11
104.6257937897881
 21
114.4255391536787
 31
0.0
  0
LINE
  5
1EC
330
70
100
AcDbEntity
  8
0
 62
    18
420
        0
370
    35
100
AcDbLine
 10
105.7648280819391
 20
114.6752085657133
 30
0.0
 11
105.7648279216748
 21
114.925115527313
 31
0.0
  0
LINE
  5
1ED
330
70
100
AcDbEntity
  8
0
 62
    18
420
        0
370
    35
100
AcDbLine
 10
105.7672478292627
 20
114.6752085657133
 30
0.0
 11
105.7672478262653
 21
114.925115527313
 31
0.0
  0
LINE
  5
1EE
330
70
100
AcDbEntity
  8
0
 62
    18
420
        0
370
    35
100
AcDbLine
 10
105.7997982678292
 20
205.6481849793356
 30
0.0
 11
105.7997982678292
 21
205.3483716478992
 31
0.0
  0
LINE
  5
1EF
330
70
100
AcDbEntity
  8
0
 62
    18
420
        0
370
    35
100
AcDbLine
 10
101.2436617402826
 20
114.4255391536787
 30
0.0
 11
101.2478228962424
 21
114.6752085118587
 31
0.0
  0
LINE
  5
1F0
330
70
100
AcDbEntity
  8
0
 62
    18
420
        0
370
    35
100
AcDbLine
 10
102.8722807183312
 20
205.6481849793356
 30
0.0
 11
102.8672894111162
 21
205.3487065507113
 31
0.0
  0
LINE
  5
1F1
330
70
100
AcDbEntity
  8
0
 62
    18
420
        0
370
    35
100
AcDbLine
 10
106.6790526854256
 20
205.6481849793356
 30
0.0
 11
106.6740613893011
 21
205.348707216047
 31
0.0
  0
LINE
  5
1F2
330
70
100
AcDbEntity
  8
0
 62
    18
420
        0
370
    35
100
AcDbLine
 10
71.65375312991206
 20
116.9234210218506
 30
0.0
 11
71.80362604200237
 21
117.0732939339409
 31
0.0
  0
LINE
  5
1F3
330
70
100
AcDbEntity
  8
0
 62
    18
420
        0
370
    35
100
AcDbLine
 10
71.70164113036801
 20
186.3645369570444
 30
0.0
 11
71.66348282141406
 21
186.3645369570444
 31
0.0
  0
LINE
  5
1F4
330
70
100
AcDbEntity
  8
0
 62
    18
420
        0
370
    35
100
AcDbLine
 10
117.0673151300946
 20
186.6143251438616
 30
0.0
 11
117.1054734390483
 21
186.6143251438616
 31
0.0
  0
LINE
  5
1F5
330
70
100
AcDbEntity
  8
0
 62
    18
420
        0
370
    35
100
AcDbLine
 10
71.65375312991206
 20
202.8505572869824
 30
0.0
 11
71.80362604200237
 21
202.7006843748924
 31
0.0
  0
LINE
  5
1F6
330
70
100
AcDbEntity
  8
0
 62
    18
420
        0
370
    35
100
AcDbLine
 10
89.4736423774543
 20
214.5406444300294
 30
0.0
 11
89.55663625064195
 21
214.230907078376
 31
0.0
  0
LINE
  5
1F7
330
70
100
AcDbEntity
  8
0
 62
    18
420
        0
370
    35
100
AcDbLine
 10
107.53332667001
 20
205.3485360107243
 30
0.0
 11
107.5283325206047
 21
205.6481849793356
 31
0.0
  0
LINE
  5
1F8
330
70
100
AcDbEntity
  8
0
 62
    18
420
        0
370
    35
100
AcDbLine
 10
106.2644042953091
 20
114.925115527313
 30
0.0
 11
106.2644042953091
 21
117.0732939339409
 31
0.0
  0
LINE
  5
1F9
330
70
100
AcDbEntity
  8
0
 62
    18
420
        0
370
    35
100
AcDbLine
 10
106.6790526854256
 20
205.6481849793356
 30
0.0
 11
106.6790526854256
 21
206.5474224518779
 31
0.0
  0
LINE
  5
1FA
330
70
100
AcDbEntity
  8
0
 62
    18
420
        0
370
    35
100
AcDbLine
 10
107.5283325206047
 20
206.5474224518779
 30
0.0
 11
107.5283325206047
 21
205.6481849793356
 31
0.0
  0
LINE
  5
1FB
330
70
100
AcDbEntity
  8
0
 62
    18
420
        0
370
    35
100
AcDbLine
 10
108.4075869382011
 20
205.6481849793356
 30
0.0
 11
108.4075869382011
 21
205.3483721039123
 31
0.0
  0
LINE
  5
1FC
330
70
100
AcDbEntity
  8
0
 62
    18
420
        0
370
    35
100
AcDbLine
 10
109.6065702349243
 20
205.6481849793356
 30
0.0
 11
109.6065702349243
 21
205.3483723135352
 31
0.0
  0
LINE
  5
1FD
330
70
100
AcDbEntity
  8
0
 62
    18
420
        0
370
    35
100
AcDbLine
 10
109.9515303536862
 20
117.0732939339409
 30
0.0
 11
109.9515303536862
 21
117.0202145540256
 31
0.0
  0
LINE
  5
1FE
330
70
100
AcDbEntity
  8
0
 62
    18
420
        0
370
    35
100
AcDbLine
 10
110.3109729217483
 20
206.5474224518779
 30
0.0
 11
110.3109729217483
 21
207.7011568993202
 31
0.0
  0
LINE
  5
1FF
330
70
100
AcDbEntity
  8
0
 62
    18
420
        0
370
    35
100
AcDbLine
 10
110.4858246525207
 20
205.6481849793356
 30
0.0
 11
110.4810599442561
 21
205.3486890308676
 31
0.0
  0
LINE
  5
200
330
70
100
AcDbEntity
  8
0
 62
    18
420
        0
370
    35
100
AcDbLine
 10
117.8146100537385
 20
177.621950418441
 30
0.0
 11
116.9781877769209
 21
175.3238990997222
 31
0.0
  0
LINE
  5
201
330
70
100
AcDbEntity
  8
0
 62
    18
420
        0
370
    35
100
AcDbLine
 10
93.28041434454904
 20
214.5406444300294
 30
0.0
 11
93.36340821773669
 21
214.230907078376
 31
0.0
  0
LINE
  5
202
330
70
100
AcDbEntity
  8
0
 62
    18
420
        0
370
    35
100
AcDbLine
 10
97.08718631164378
 20
214.5406444300294
 30
0.0
 11
97.17018018483145
 21
214.230907078376
 31
0.0
  0
LINE
  5
203
330
70
100
AcDbEntity
  8
0
 62
    18
420
        0
370
    35
100
AcDbLine
 10
110.9104645701102
 20
205.6481849793356
 30
0.0
 11
110.9104645701102
 21
214.5406444300294
 31
0.0
  0
LINE
  5
204
330
70
100
AcDbEntity
  8
0
 62
    18
420
        0
370
    35
100
AcDbLine
 10
111.5230694883964
 20
117.0202145540256
 30
0.0
 11
111.5230694883964
 21
123.917490252734
 31
0.0
  0
LINE
  5
205
330
70
100
AcDbEntity
  8
0
 62
    18
420
        0
370
    35
100
AcDbLine
 10
111.5719750201151
 20
123.4179138790989
 30
0.0
 11
111.5719750201151
 21
123.917490252734
 31
0.0
  0
LINE
  5
206
330
70
100
AcDbEntity
  8
0
 62
    18
420
        0
370
    35
100
AcDbLine
 10
111.5719750201151
 20
132.9098649781542
 30
0.0
 11
111.5719750201151
 21
133.4094413517886
 31
0.0
  0
LINE
  5
207
330
70
100
AcDbEntity
  8
0
 62
    18
420
        0
370
    35
100
AcDbLine
 10
111.5719750201151
 20
165.8819056380306
 30
0.0
 11
111.5719750201151
 21
166.381482011665
 31
0.0
  0
LINE
  5
208
330
70
100
AcDbEntity
  8
0
 62
    18
420
        0
370
    35
100
AcDbLine
 10
111.5719750201151
 20
175.3738567370856
 30
0.0
 11
111.5719750201151
 21
175.8734331107203
 31
0.0
  0
LINE
  5
209
330
70
100
AcDbEntity
  8
0
 62
    18
420
        0
370
    35
100
AcDbLine
 10
111.5849824684736
 20
165.0326258028518
 30
0.0
 11
111.5849824684736
 21
164.8827528907615
 31
0.0
  0
LINE
  5
20A
330
70
100
AcDbEntity
  8
0
 62
    18
420
        0
370
    35
100
AcDbLine
 10
111.5849824684736
 20
154.8912254180718
 30
0.0
 11
111.5849824684736
 21
154.7413525059815
 31
0.0
  0
LINE
  5
20B
330
70
100
AcDbEntity
  8
0
 62
    18
420
        0
370
    35
100
AcDbLine
 10
111.6198630206708
 20
116.9234210218506
 30
0.0
 11
111.6198630206708
 21
154.7064719537843
 31
0.0
  0
LINE
  5
20C
330
70
100
AcDbEntity
  8
0
 62
    18
420
        0
370
    35
100
AcDbLine
 10
111.6198630206708
 20
165.0675063549492
 30
0.0
 11
111.6198630206708
 21
179.6202559129785
 31
0.0
  0
LINE
  5
20D
330
70
100
AcDbEntity
  8
0
 62
    18
420
        0
370
    35
100
AcDbLine
 10
112.0494987019969
 20
204.8488627815203
 30
0.0
 11
112.0494987019969
 21
205.3484391551553
 31
0.0
  0
LINE
  5
20E
330
70
100
AcDbEntity
  8
0
 62
    18
420
        0
370
    35
100
AcDbLine
 10
112.5490750756313
 20
204.8488627815203
 30
0.0
 11
112.5490750756313
 21
202.7006843748924
 31
0.0
  0
LINE
  5
20F
330
70
100
AcDbEntity
  8
0
 62
    18
420
        0
370
    35
100
AcDbLine
 10
113.5832879630118
 20
165.0326258028518
 30
0.0
 11
113.5832879630118
 21
164.8827528907615
 31
0.0
  0
LINE
  5
210
330
70
100
AcDbEntity
  8
0
 62
    18
420
        0
370
    35
100
AcDbLine
 10
113.5832879630118
 20
154.8912254180718
 30
0.0
 11
113.5832879630118
 21
154.7413525059815
 31
0.0
  0
LINE
  5
211
330
70
100
AcDbEntity
  8
0
 62
    18
420
        0
370
    35
100
AcDbLine
 10
113.618168515209
 20
177.621950418441
 30
0.0
 11
113.618168515209
 21
165.0675063549492
 31
0.0
  0
LINE
  5
212
330
70
100
AcDbEntity
  8
0
 62
    18
420
        0
370
    35
100
AcDbLine
 10
113.618168515209
 20
154.7064719537843
 30
0.0
 11
113.618168515209
 21
142.1520278903923
 31
0.0
  0
LINE
  5
213
330
70
100
AcDbEntity
  8
0
 62
    18
420
        0
370
    35
100
AcDbLine
 10
115.1168976361122
 20
142.1520278903923
 30
0.0
 11
115.1168976361122
 21
139.6541460222197
 31
0.0
  0
LINE
  5
214
330
70
100
AcDbEntity
  8
0
 62
    18
420
        0
370
    35
100
AcDbLine
 10
71.70164113036801
 20
196.3560644297341
 30
0.0
 11
71.66348282141406
 21
196.3560644297341
 31
0.0
  0
LINE
  5
215
330
70
100
AcDbEntity
  8
0
 62
    18
420
        0
370
    35
100
AcDbLine
 10
117.0673151300946
 20
196.6058526165513
 30
0.0
 11
117.1054734390483
 21
196.6058526165513
 31
0.0
  0
LINE
  5
216
330
70
100
AcDbEntity
  8
0
 62
    18
420
        0
370
    35
100
AcDbLine
 10
100.8939582787385
 20
214.5406444300294
 30
0.0
 11
100.9769521519262
 21
214.230907078376
 31
0.0
  0
LINE
  5
217
330
70
100
AcDbEntity
  8
0
 62
    18
420
        0
370
    35
100
AcDbLine
 10
118.918909361655
 20
112.0701396985267
 30
0.0
 11
118.9162941198046
 21
113.5349509222292
 31
0.0
  0
LINE
  5
218
330
70
100
AcDbEntity
  8
0
 62
    18
420
        0
370
    35
100
AcDbLine
 10
117.0673151300946
 20
186.6143251438616
 30
0.0
 11
117.0673151300946
 21
187.1139015174963
 31
0.0
  0
LINE
  5
219
330
70
100
AcDbEntity
  8
0
 62
    18
420
        0
370
    35
100
AcDbLine
 10
117.0673151300946
 20
196.1062762429169
 30
0.0
 11
117.0673151300946
 21
196.6058526165513
 31
0.0
  0
LINE
  5
21A
330
70
100
AcDbEntity
  8
0
 62
    18
420
        0
370
    35
100
AcDbLine
 10
117.1152031306504
 20
179.6202559129785
 30
0.0
 11
117.1152031306504
 21
202.8505572869824
 31
0.0
  0
LINE
  5
21B
330
70
100
AcDbEntity
  8
0
 62
    18
420
        0
370
    35
100
AcDbLine
 10
118.9136780757342
 20
114.5222605495224
 30
0.0
 11
118.9136780757342
 21
113.5349553996322
 31
0.0
  0
LINE
  5
21C
330
70
100
AcDbEntity
  8
0
 62
    18
420
        0
370
    35
100
AcDbLine
 10
119.1135086251886
 20
114.925115527313
 30
0.0
 11
119.1135086251886
 21
139.6541460222197
 31
0.0
  0
LINE
  5
21D
330
70
100
AcDbEntity
  8
0
 62
    18
420
        0
370
    35
100
AcDbLine
 10
119.1135086251886
 20
177.621950418441
 30
0.0
 11
119.1135086251886
 21
204.8488627815203
 31
0.0
  0
LINE
  5
21E
330
70
100
AcDbEntity
  8
0
 62
    18
420
        0
370
    35
100
AcDbLine
 10
118.9162941165076
 20
114.5222605036614
 30
0.0
 11
118.9191101291094
 21
114.9243461367339
 31
0.0
  0
LINE
  5
21F
330
70
100
AcDbEntity
  8
0
 62
    18
420
        0
370
    35
100
AcDbLine
 10
111.6198630206708
 20
179.6202559129785
 30
0.0
 11
111.4699901085805
 21
179.7701288250695
 31
0.0
  0
LINE
  5
220
330
70
100
AcDbEntity
  8
0
 62
    18
420
        0
370
    35
100
AcDbLine
 10
117.1152031306504
 20
179.6202559129785
 30
0.0
 11
116.9653302185601
 21
179.7701288250695
 31
0.0
  0
LINE
  5
221
330
70
100
AcDbEntity
  8
0
 62
    18
420
        0
370
    35
100
AcDbLine
 10
115.6535740887491
 20
175.3238990997222
 30
0.0
 11
114.8171518119315
 21
177.621950418441
 31
0.0
  0
LINE
  5
222
330
70
100
AcDbEntity
  8
0
 62
    18
420
        0
370
    35
100
AcDbLine
 10
104.7007302458332
 20
214.5406444300294
 30
0.0
 11
104.7837241190209
 21
214.230907078376
 31
0.0
  0
LINE
  5
223
330
70
100
AcDbEntity
  8
0
 62
    18
420
        0
370
    35
100
AcDbLine
 10
117.1152031306504
 20
202.8505572869824
 30
0.0
 11
112.5490750756313
 21
202.8505572869824
 31
0.0
  0
LINE
  5
224
330
70
100
AcDbEntity
  8
0
 62
    18
420
        0
370
    35
100
AcDbLine
 10
75.01090636073586
 20
202.8505572869824
 30
0.0
 11
71.65375312991206
 21
202.8505572869824
 31
0.0
  0
LINE
  5
225
330
70
100
AcDbEntity
  8
0
 62
    18
420
        0
370
    35
100
AcDbLine
 10
112.5490750756313
 20
204.6413234961526
 30
0.0
 11
112.399202163541
 21
204.6413234961526
 31
0.0
  0
LINE
  5
226
330
70
100
AcDbEntity
  8
0
 62
    18
420
        0
370
    35
100
AcDbLine
 10
75.16077927282586
 20
204.6413234961526
 30
0.0
 11
75.01090636073586
 21
204.6413234961526
 31
0.0
  0
LINE
  5
227
330
70
100
AcDbEntity
  8
0
 62
    18
420
        0
370
    35
100
AcDbLine
 10
119.1135086251886
 20
204.8488627815203
 30
0.0
 11
112.5490750756313
 21
204.8488627815203
 31
0.0
  0
LINE
  5
228
330
70
100
AcDbEntity
  8
0
 62
    18
420
        0
370
    35
100
AcDbLine
 10
75.01090636073586
 20
204.8488627815203
 30
0.0
 11
69.65544763537419
 21
204.8488627815203
 31
0.0
  0
LINE
  5
229
330
70
100
AcDbEntity
  8
0
 62
    18
420
        0
370
    35
100
AcDbLine
 10
112.0494987019969
 20
205.3484391551553
 30
0.0
 11
75.51048273437024
 21
205.3484391551553
 31
0.0
  0
LINE
  5
22A
330
70
100
AcDbEntity
  8
0
 62
    18
420
        0
370
    35
100
AcDbLine
 10
110.9104645701102
 20
205.6481849793356
 30
0.0
 11
107.5283325206047
 21
205.6481849793356
 31
0.0
  0
LINE
  5
22B
330
70
100
AcDbEntity
  8
0
 62
    18
420
        0
370
    35
100
AcDbLine
 10
106.6790526854256
 20
205.6481849793356
 30
0.0
 11
103.7215605535096
 21
205.6481849793356
 31
0.0
  0
LINE
  5
22C
330
70
100
AcDbEntity
  8
0
 62
    18
420
        0
370
    35
100
AcDbLine
 10
102.8722807183312
 20
205.6481849793356
 30
0.0
 11
99.91478858641526
 21
205.6481849793356
 31
0.0
  0
LINE
  5
22D
330
70
100
AcDbEntity
  8
0
 62
    18
420
        0
370
    35
100
AcDbLine
 10
99.06550875123679
 20
205.6481849793356
 30
0.0
 11
96.10801661932018
 21
205.6481849793356
 31
0.0
  0
LINE
  5
22E
330
70
100
AcDbEntity
  8
0
 62
    18
420
        0
370
    35
100
AcDbLine
 10
95.25873678414173
 20
205.6481849793356
 30
0.0
 11
92.30124465222576
 21
205.6481849793356
 31
0.0
  0
LINE
  5
22F
330
70
100
AcDbEntity
  8
0
 62
    18
420
        0
370
    35
100
AcDbLine
 10
91.45196481704665
 20
205.6481849793356
 30
0.0
 11
88.4944726851307
 21
205.6481849793356
 31
0.0
  0
LINE
  5
230
330
70
100
AcDbEntity
  8
0
 62
    18
420
        0
370
    35
100
AcDbLine
 10
87.64519284995191
 20
205.6481849793356
 30
0.0
 11
84.68770071803627
 21
205.6481849793356
 31
0.0
  0
LINE
  5
231
330
70
100
AcDbEntity
  8
0
 62
    18
420
        0
370
    35
100
AcDbLine
 10
83.83842088285717
 20
205.6481849793356
 30
0.0
 11
80.88092875094121
 21
205.6481849793356
 31
0.0
  0
LINE
  5
232
330
70
100
AcDbEntity
  8
0
 62
    18
420
        0
370
    35
100
AcDbLine
 10
80.03164891576243
 20
205.6481849793356
 30
0.0
 11
76.64951686625691
 21
205.6481849793356
 31
0.0
  0
LINE
  5
233
330
70
100
AcDbEntity
  8
0
 62
    18
420
        0
370
    35
100
AcDbLine
 10
76.64951686625691
 20
205.8480155287894
 30
0.0
 11
80.03164891576243
 21
205.8480155287894
 31
0.0
  0
LINE
  5
234
330
70
100
AcDbEntity
  8
0
 62
    18
420
        0
370
    35
100
AcDbLine
 10
80.88092875094121
 20
205.8480155287894
 30
0.0
 11
83.83842088285717
 21
205.8480155287894
 31
0.0
  0
LINE
  5
235
330
70
100
AcDbEntity
  8
0
 62
    18
420
        0
370
    35
100
AcDbLine
 10
84.68770071803627
 20
205.8480155287894
 30
0.0
 11
87.64519284995191
 21
205.8480155287894
 31
0.0
  0
LINE
  5
236
330
70
100
AcDbEntity
  8
0
 62
    18
420
        0
370
    35
100
AcDbLine
 10
88.4944726851307
 20
205.8480155287894
 30
0.0
 11
91.45196481704665
 21
205.8480155287894
 31
0.0
  0
LINE
  5
237
330
70
100
AcDbEntity
  8
0
 62
    18
420
        0
370
    35
100
AcDbLine
 10
92.30124465222576
 20
205.8480155287894
 30
0.0
 11
95.25873678414173
 21
205.8480155287894
 31
0.0
  0
LINE
  5
238
330
70
100
AcDbEntity
  8
0
 62
    18
420
        0
370
    35
100
AcDbLine
 10
96.10801661932018
 20
205.8480155287894
 30
0.0
 11
99.06550875123679
 21
205.8480155287894
 31
0.0
  0
LINE
  5
239
330
70
100
AcDbEntity
  8
0
 62
    18
420
        0
370
    35
100
AcDbLine
 10
99.91478858641526
 20
205.8480155287894
 30
0.0
 11
102.8722807183312
 21
205.8480155287894
 31
0.0
  0
LINE
  5
23A
330
70
100
AcDbEntity
  8
0
 62
    18
420
        0
370
    35
100
AcDbLine
 10
103.7215605535096
 20
205.8480155287894
 30
0.0
 11
106.6790526854256
 21
205.8480155287894
 31
0.0
  0
LINE
  5
23B
330
70
100
AcDbEntity
  8
0
 62
    18
420
        0
370
    35
100
AcDbLine
 10
107.5283325206047
 20
205.8480155287894
 30
0.0
 11
110.9104645701102
 21
205.8480155287894
 31
0.0
  0
LINE
  5
23C
330
70
100
AcDbEntity
  8
0
 62
    18
420
        0
370
    35
100
AcDbLine
 10
108.507502212928
 20
214.5406444300294
 30
0.0
 11
108.590496086116
 21
214.230907078376
 31
0.0
  0
LINE
  5
23D
330
70
100
AcDbEntity
  8
0
 62
    18
420
        0
370
    35
100
AcDbLine
 10
110.9104645701102
 20
206.5474224518779
 30
0.0
 11
110.3109729217483
 21
206.5474224518779
 31
0.0
  0
LINE
  5
23E
330
70
100
AcDbEntity
  8
0
 62
    18
420
        0
370
    35
100
AcDbLine
 10
77.2490085146185
 20
206.5474224518779
 30
0.0
 11
76.64951686625691
 21
206.5474224518779
 31
0.0
  0
LINE
  5
23F
330
70
100
AcDbEntity
  8
0
 62
    18
420
        0
370
    35
100
AcDbLine
 10
80.03164891576243
 20
206.5474224518779
 30
0.0
 11
80.88092875094121
 21
206.5474224518779
 31
0.0
  0
LINE
  5
240
330
70
100
AcDbEntity
  8
0
 62
    18
420
        0
370
    35
100
AcDbLine
 10
83.83842088285717
 20
206.5474224518779
 30
0.0
 11
84.68770071803627
 21
206.5474224518779
 31
0.0
  0
LINE
  5
241
330
70
100
AcDbEntity
  8
0
 62
    18
420
        0
370
    35
100
AcDbLine
 10
87.64519284995191
 20
206.5474224518779
 30
0.0
 11
88.4944726851307
 21
206.5474224518779
 31
0.0
  0
LINE
  5
242
330
70
100
AcDbEntity
  8
0
 62
    18
420
        0
370
    35
100
AcDbLine
 10
91.45196481704665
 20
206.5474224518779
 30
0.0
 11
92.30124465222576
 21
206.5474224518779
 31
0.0
  0
LINE
  5
243
330
70
100
AcDbEntity
  8
0
 62
    18
420
        0
370
    35
100
AcDbLine
 10
95.25873678414173
 20
206.5474224518779
 30
0.0
 11
96.10801661932018
 21
206.5474224518779
 31
0.0
  0
LINE
  5
244
330
70
100
AcDbEntity
  8
0
 62
    18
420
        0
370
    35
100
AcDbLine
 10
99.06550875123679
 20
206.5474224518779
 30
0.0
 11
99.91478858641526
 21
206.5474224518779
 31
0.0
  0
LINE
  5
245
330
70
100
AcDbEntity
  8
0
 62
    18
420
        0
370
    35
100
AcDbLine
 10
102.8722807183312
 20
206.5474224518779
 30
0.0
 11
103.7215605535096
 21
206.5474224518779
 31
0.0
  0
LINE
  5
246
330
70
100
AcDbEntity
  8
0
 62
    18
420
        0
370
    35
100
AcDbLine
 10
106.6790526854256
 20
206.5474224518779
 30
0.0
 11
107.5283325206047
 21
206.5474224518779
 31
0.0
  0
LINE
  5
247
330
70
100
AcDbEntity
  8
0
 62
    18
420
        0
370
    35
100
AcDbLine
 10
76.64951686625691
 20
206.7472530013316
 30
0.0
 11
77.2490085146185
 21
206.7472530013316
 31
0.0
  0
LINE
  5
248
330
70
100
AcDbEntity
  8
0
 62
    18
420
        0
370
    35
100
AcDbLine
 10
110.3109729217483
 20
206.7472530013316
 30
0.0
 11
110.9104645701102
 21
206.7472530013316
 31
0.0
  0
LINE
  5
249
330
70
100
AcDbEntity
  8
0
 62
    18
420
        0
370
    35
100
AcDbLine
 10
77.18658201728911
 20
209.0453043200501
 30
0.0
 11
79.91922368221999
 21
209.0453043200501
 31
0.0
  0
LINE
  5
24A
330
70
100
AcDbEntity
  8
0
 62
    18
420
        0
370
    35
100
AcDbLine
 10
80.99335398438354
 20
209.0453043200501
 30
0.0
 11
83.72599564931475
 21
209.0453043200501
 31
0.0
  0
LINE
  5
24B
330
70
100
AcDbEntity
  8
0
 62
    18
420
        0
370
    35
100
AcDbLine
 10
84.8001259514786
 20
209.0453043200501
 30
0.0
 11
87.53276761640949
 21
209.0453043200501
 31
0.0
  0
LINE
  5
24C
330
70
100
AcDbEntity
  8
0
 62
    18
420
        0
370
    35
100
AcDbLine
 10
88.60689791857302
 20
209.0453043200501
 30
0.0
 11
91.33953958350454
 21
209.0453043200501
 31
0.0
  0
LINE
  5
24D
330
70
100
AcDbEntity
  8
0
 62
    18
420
        0
370
    35
100
AcDbLine
 10
92.41366988566777
 20
209.0453043200501
 30
0.0
 11
95.14631155059928
 21
209.0453043200501
 31
0.0
  0
LINE
  5
24E
330
70
100
AcDbEntity
  8
0
 62
    18
420
        0
370
    35
100
AcDbLine
 10
96.22044185276283
 20
209.0453043200501
 30
0.0
 11
98.95308351769404
 21
209.0453043200501
 31
0.0
  0
LINE
  5
24F
330
70
100
AcDbEntity
  8
0
 62
    18
420
        0
370
    35
100
AcDbLine
 10
100.0272138198572
 20
209.0453043200501
 30
0.0
 11
102.7598554847888
 21
209.0453043200501
 31
0.0
  0
LINE
  5
250
330
70
100
AcDbEntity
  8
0
 62
    18
420
        0
370
    35
100
AcDbLine
 10
103.8339857869523
 20
209.0453043200501
 30
0.0
 11
106.5666274518835
 21
209.0453043200501
 31
0.0
  0
LINE
  5
251
330
70
100
AcDbEntity
  8
0
 62
    18
420
        0
370
    35
100
AcDbLine
 10
107.6407577540467
 20
209.0453043200501
 30
0.0
 11
110.3733994189786
 21
209.0453043200501
 31
0.0
  0
LINE
  5
252
330
70
100
AcDbEntity
  8
0
 62
    18
420
        0
370
    35
100
AcDbLine
 10
77.18658201728911
 20
209.6447959684114
 30
0.0
 11
79.91922368221999
 21
209.6447959684114
 31
0.0
  0
LINE
  5
253
330
70
100
AcDbEntity
  8
0
 62
    18
420
        0
370
    35
100
AcDbLine
 10
80.99335398438354
 20
209.6447959684114
 30
0.0
 11
83.72599564931475
 21
209.6447959684114
 31
0.0
  0
LINE
  5
254
330
70
100
AcDbEntity
  8
0
 62
    18
420
        0
370
    35
100
AcDbLine
 10
84.8001259514786
 20
209.6447959684114
 30
0.0
 11
87.53276761640949
 21
209.6447959684114
 31
0.0
  0
LINE
  5
255
330
70
100
AcDbEntity
  8
0
 62
    18
420
        0
370
    35
100
AcDbLine
 10
88.60689791857302
 20
209.6447959684114
 30
0.0
 11
91.33953958350454
 21
209.6447959684114
 31
0.0
  0
LINE
  5
256
330
70
100
AcDbEntity
  8
0
 62
    18
420
        0
370
    35
100
AcDbLine
 10
92.41366988566777
 20
209.6447959684114
 30
0.0
 11
95.14631155059928
 21
209.6447959684114
 31
0.0
  0
LINE
  5
257
330
70
100
AcDbEntity
  8
0
 62
    18
420
        0
370
    35
100
AcDbLine
 10
96.22044185276283
 20
209.6447959684114
 30
0.0
 11
98.95308351769404
 21
209.6447959684114
 31
0.0
  0
LINE
  5
258
330
70
100
AcDbEntity
  8
0
 62
    18
420
        0
370
    35
100
AcDbLine
 10
100.0272138198572
 20
209.6447959684114
 30
0.0
 11
102.7598554847888
 21
209.6447959684114
 31
0.0
  0
LINE
  5
259
330
70
100
AcDbEntity
  8
0
 62
    18
420
        0
370
    35
100
AcDbLine
 10
103.8339857869523
 20
209.6447959684114
 30
0.0
 11
106.5666274518835
 21
209.6447959684114
 31
0.0
  0
LINE
  5
25A
330
70
100
AcDbEntity
  8
0
 62
    18
420
        0
370
    35
100
AcDbLine
 10
107.6407577540467
 20
209.6447959684114
 30
0.0
 11
110.3733994189786
 21
209.6447959684114
 31
0.0
  0
LINE
  5
25B
330
70
100
AcDbEntity
  8
0
 62
    18
420
        0
370
    35
100
AcDbLine
 10
110.9104645701102
 20
213.0419153091259
 30
0.0
 11
76.64951686625691
 21
213.0419153091259
 31
0.0
  0
LINE
  5
25C
330
70
100
AcDbEntity
  8
0
 62
    18
420
        0
370
    35
100
AcDbLine
 10
110.9104645701102
 20
214.230907078376
 30
0.0
 11
109.4236610869093
 21
214.230907078376
 31
0.0
  0
LINE
  5
25D
330
70
100
AcDbEntity
  8
0
 62
    18
420
        0
370
    35
100
AcDbLine
 10
108.590496086116
 20
214.230907078376
 30
0.0
 11
105.6168891198149
 21
214.230907078376
 31
0.0
  0
LINE
  5
25E
330
70
100
AcDbEntity
  8
0
 62
    18
420
        0
370
    35
100
AcDbLine
 10
104.7837241190209
 20
214.230907078376
 30
0.0
 11
101.8101171527199
 21
214.230907078376
 31
0.0
  0
LINE
  5
25F
330
70
100
AcDbEntity
  8
0
 62
    18
420
        0
370
    35
100
AcDbLine
 10
100.9769521519262
 20
214.230907078376
 30
0.0
 11
98.00334518562513
 21
214.230907078376
 31
0.0
  0
LINE
  5
260
330
70
100
AcDbEntity
  8
0
 62
    18
420
        0
370
    35
100
AcDbLine
 10
97.17018018483145
 20
214.230907078376
 30
0.0
 11
94.19657321853037
 21
214.230907078376
 31
0.0
  0
LINE
  5
261
330
70
100
AcDbEntity
  8
0
 62
    18
420
        0
370
    35
100
AcDbLine
 10
93.36340821773669
 20
214.230907078376
 30
0.0
 11
90.38980125143595
 21
214.230907078376
 31
0.0
  0
LINE
  5
262
330
70
100
AcDbEntity
  8
0
 62
    18
420
        0
370
    35
100
AcDbLine
 10
89.55663625064195
 20
214.230907078376
 30
0.0
 11
86.58302928434087
 21
214.230907078376
 31
0.0
  0
LINE
  5
263
330
70
100
AcDbEntity
  8
0
 62
    18
420
        0
370
    35
100
AcDbLine
 10
85.74986428354719
 20
214.230907078376
 30
0.0
 11
82.77625731724613
 21
214.230907078376
 31
0.0
  0
LINE
  5
264
330
70
100
AcDbEntity
  8
0
 62
    18
420
        0
370
    35
100
AcDbLine
 10
81.94309231645247
 20
214.230907078376
 30
0.0
 11
78.96948535015138
 21
214.230907078376
 31
0.0
  0
LINE
  5
265
330
70
100
AcDbEntity
  8
0
 62
    18
420
        0
370
    35
100
AcDbLine
 10
78.13632034935739
 20
214.230907078376
 30
0.0
 11
76.64951686625691
 21
214.230907078376
 31
0.0
  0
LINE
  5
266
330
70
100
AcDbEntity
  8
0
 62
    18
420
        0
370
    35
100
AcDbLine
 10
110.9104645701102
 20
214.5406444300294
 30
0.0
 11
76.64951686625691
 21
214.5406444300294
 31
0.0
  0
LINE
  5
267
330
70
100
AcDbEntity
  8
0
 62
    18
420
        0
370
    35
100
AcDbLine
 10
170.9011429472622
 20
105.5330797029846
 30
0.0
 11
164.4066500900139
 21
105.5330797029846
 31
0.0
  0
LINE
  5
268
330
70
100
AcDbEntity
  8
0
 62
    18
420
        0
370
    35
100
AcDbLine
 10
159.8605050899397
 20
107.0318088238878
 30
0.0
 11
160.4599967383016
 21
107.0318088238878
 31
0.0
  0
LINE
  5
269
330
70
100
AcDbEntity
  8
0
 62
    18
420
        0
370
    35
100
AcDbLine
 10
170.9011429472622
 20
107.5313851975222
 30
0.0
 11
170.9511005846257
 21
107.5313851975222
 31
0.0
  0
LINE
  5
26A
330
70
100
AcDbEntity
  8
0
 62
    18
420
        0
370
    35
100
AcDbLine
 10
164.4066500900139
 20
105.8428170546377
 30
0.0
 11
160.4599967383016
 21
107.0494300732765
 31
0.0
  0
LINE
  5
26B
330
70
100
AcDbEntity
  8
0
 62
    18
420
        0
370
    35
100
AcDbLine
 10
163.2576244306542
 20
109.015127027217
 30
0.0
 11
163.0773664851966
 21
109.015127027217
 31
0.0
  0
LINE
  5
26C
330
70
100
AcDbEntity
  8
0
 62
    18
420
        0
370
    35
100
AcDbLine
 10
163.2576244306542
 20
109.0451016096349
 30
0.0
 11
163.4216107867512
 21
109.0451016096349
 31
0.0
  0
LINE
  5
26D
330
70
100
AcDbEntity
  8
0
 62
    18
420
        0
370
    35
100
AcDbLine
 10
170.7512700351719
 20
113.5263016811361
 30
0.0
 11
167.9536423428187
 21
113.5263016811361
 31
0.0
  0
LINE
  5
26E
330
70
100
AcDbEntity
  8
0
 62
    18
420
        0
370
    35
100
AcDbLine
 10
161.758895309751
 20
113.5263016811361
 30
0.0
 11
160.0603356393941
 21
113.5263016811361
 31
0.0
  0
LINE
  5
26F
330
70
100
AcDbEntity
  8
0
 62
    18
420
        0
370
    35
100
AcDbLine
 10
161.9587258592048
 20
114.4255391536787
 30
0.0
 11
170.1517736104605
 21
114.4255391536787
 31
0.0
  0
LINE
  5
270
330
70
100
AcDbEntity
  8
0
 62
    18
420
        0
370
    35
100
AcDbLine
 10
161.6589779901584
 20
114.6752082208059
 30
0.0
 11
168.9054741103148
 21
114.6752082208059
 31
0.0
  0
LINE
  5
271
330
70
100
AcDbEntity
  8
0
 62
    18
420
        0
370
    35
100
AcDbLine
 10
161.6589800350241
 20
114.7252849778593
 30
0.0
 11
168.902837452724
 21
114.7252849778593
 31
0.0
  0
LINE
  5
272
330
70
100
AcDbEntity
  8
0
 62
    18
420
        0
370
    35
100
AcDbLine
 10
155.5641482766833
 20
115.2303203586132
 30
0.0
 11
173.0493213538901
 21
114.925115527313
 31
0.0
  0
LINE
  5
273
330
70
100
AcDbEntity
  8
0
 62
    18
420
        0
370
    35
100
AcDbLine
 10
173.0493213538901
 20
137.406052340865
 30
0.0
 11
155.5641482766833
 21
137.7112571721645
 31
0.0
  0
LINE
  5
274
330
70
100
AcDbEntity
  8
0
 62
    18
420
        0
370
    35
100
AcDbLine
 10
172.8494908044364
 20
137.6094013853365
 30
0.0
 11
155.7639788261371
 21
137.9076301061766
 31
0.0
  0
LINE
  5
275
330
70
100
AcDbEntity
  8
0
 62
    18
420
        0
370
    35
100
AcDbLine
 10
161.087104284777
 20
140.728235225534
 30
0.0
 11
163.4298390820938
 21
140.728235225534
 31
0.0
  0
LINE
  5
276
330
70
100
AcDbEntity
  8
0
 62
    18
420
        0
370
    35
100
AcDbLine
 10
165.4307816559647
 20
144.5400055510648
 30
0.0
 11
165.9378821842326
 21
144.5400055510648
 31
0.0
  0
LINE
  5
277
330
70
100
AcDbEntity
  8
0
 62
    18
420
        0
370
    35
100
AcDbLine
 10
163.4298390820938
 20
147.072855170692
 30
0.0
 11
161.087104284777
 21
147.072855170692
 31
0.0
  0
LINE
  5
278
330
70
100
AcDbEntity
  8
0
 62
    18
420
        0
370
    35
100
AcDbLine
 10
155.5641482766833
 20
115.2303203586132
 30
0.0
 11
155.5641482766833
 21
204.5436579501204
 31
0.0
  0
LINE
  5
279
330
70
100
AcDbEntity
  8
0
 62
    18
420
        0
370
    35
100
AcDbLine
 10
155.7639788261371
 20
137.9076301061766
 30
0.0
 11
155.7639788261371
 21
181.8663482025566
 31
0.0
  0
LINE
  5
27A
330
70
100
AcDbEntity
  8
0
 62
    18
420
        0
370
    35
100
AcDbLine
 10
158.3617759690365
 20
212.5423389354915
 30
0.0
 11
158.3617759690365
 21
206.7472530013316
 31
0.0
  0
LINE
  5
27B
330
70
100
AcDbEntity
  8
0
 62
    18
420
        0
370
    35
100
AcDbLine
 10
158.4117336064
 20
214.5406444300294
 30
0.0
 11
158.4117336064
 21
212.5423389354915
 31
0.0
  0
LINE
  5
27C
330
70
100
AcDbEntity
  8
0
 62
    18
420
        0
370
    35
100
AcDbLine
 10
159.0861617108067
 20
145.7352561472101
 30
0.0
 11
159.0861617108067
 21
142.0658342489159
 31
0.0
  0
LINE
  5
27D
330
70
100
AcDbEntity
  8
0
 62
    18
420
        0
370
    35
100
AcDbLine
 10
159.1610981668515
 20
206.5474224518779
 30
0.0
 11
159.1610981668515
 21
205.6481849793356
 31
0.0
  0
LINE
  5
27E
330
70
100
AcDbEntity
  8
0
 62
    18
420
        0
370
    35
100
AcDbLine
 10
159.5607592657591
 20
206.5474224518779
 30
0.0
 11
159.5607592657591
 21
205.6481849793356
 31
0.0
  0
LINE
  5
27F
330
70
100
AcDbEntity
  8
0
 62
    18
420
        0
370
    35
100
AcDbLine
 10
159.8605050899397
 20
107.0318088238878
 30
0.0
 11
159.8605050899397
 21
113.3264711316824
 31
0.0
  0
LINE
  5
280
330
70
100
AcDbEntity
  8
0
 62
    18
420
        0
370
    35
100
AcDbLine
 10
160.4599967383016
 20
107.0318088238878
 30
0.0
 11
160.4599967383016
 21
107.0494300732765
 31
0.0
  0
LINE
  5
281
330
70
100
AcDbEntity
  8
0
 62
    18
420
        0
370
    35
100
AcDbLine
 10
161.1594036613898
 20
205.6481849793356
 30
0.0
 11
161.1594036613898
 21
206.5474224518779
 31
0.0
  0
LINE
  5
282
330
70
100
AcDbEntity
  8
0
 62
    18
420
        0
370
    35
100
AcDbLine
 10
161.3592342108435
 20
206.5474224518779
 30
0.0
 11
161.3592342108435
 21
205.6481849793356
 31
0.0
  0
LINE
  5
283
330
70
100
AcDbEntity
  8
0
 62
    18
420
        0
370
    35
100
AcDbLine
 10
161.6589779901584
 20
114.6752082208059
 30
0.0
 11
161.6589779901584
 21
115.1239347102762
 31
0.0
  0
LINE
  5
284
330
70
100
AcDbEntity
  8
0
 62
    18
420
        0
370
    35
100
AcDbLine
 10
161.6589800350241
 20
140.6532987694892
 30
0.0
 11
161.6589800350241
 21
140.728235225534
 31
0.0
  0
LINE
  5
285
330
70
100
AcDbEntity
  8
0
 62
    18
420
        0
370
    35
100
AcDbLine
 10
161.6589800350241
 20
147.072855170692
 30
0.0
 11
161.6589800350241
 21
147.1477916267375
 31
0.0
  0
LINE
  5
286
330
70
100
AcDbEntity
  8
0
 62
    18
420
        0
370
    35
100
AcDbLine
 10
161.6589800350241
 20
204.6500436342266
 30
0.0
 11
161.6589800350241
 21
205.3484391551553
 31
0.0
  0
LINE
  5
287
330
70
100
AcDbEntity
  8
0
 62
    18
420
        0
370
    35
100
AcDbLine
 10
161.6616166926142
 20
114.6752082208059
 30
0.0
 11
161.6616166926142
 21
115.1238886515326
 31
0.0
  0
LINE
  5
288
330
70
100
AcDbEntity
  8
0
 62
    18
420
        0
370
    35
100
AcDbLine
 10
161.6616187374806
 20
147.1477916267375
 30
0.0
 11
161.6616187374806
 21
147.072855170692
 31
0.0
  0
LINE
  5
289
330
70
100
AcDbEntity
  8
0
 62
    18
420
        0
370
    35
100
AcDbLine
 10
161.6616187374806
 20
140.728235225534
 30
0.0
 11
161.6616187374806
 21
140.6532987694892
 31
0.0
  0
LINE
  5
28A
330
70
100
AcDbEntity
  8
0
 62
    18
420
        0
370
    35
100
AcDbLine
 10
161.7588943330793
 20
147.1477916267375
 30
0.0
 11
161.7588943330793
 21
147.072855170692
 31
0.0
  0
LINE
  5
28B
330
70
100
AcDbEntity
  8
0
 62
    18
420
        0
370
    35
100
AcDbLine
 10
161.758895309751
 20
113.5263016811361
 30
0.0
 11
161.758895309751
 21
114.2257086042249
 31
0.0
  0
LINE
  5
28C
330
70
100
AcDbEntity
  8
0
 62
    18
420
        0
370
    35
100
AcDbLine
 10
161.758895309751
 20
140.6982899851351
 30
0.0
 11
161.758895309751
 21
140.728235225534
 31
0.0
  0
LINE
  5
28D
330
70
100
AcDbEntity
  8
0
 62
    18
420
        0
370
    35
100
AcDbLine
 10
161.7615330355358
 20
147.1477916267375
 30
0.0
 11
161.7615330355358
 21
147.072855170692
 31
0.0
  0
LINE
  5
28E
330
70
100
AcDbEntity
  8
0
 62
    18
420
        0
370
    35
100
AcDbLine
 10
162.1085987712951
 20
114.4255391536787
 30
0.0
 11
162.1085987712951
 21
114.6752082208059
 31
0.0
  0
LINE
  5
28F
330
70
100
AcDbEntity
  8
0
 62
    18
420
        0
370
    35
100
AcDbLine
 10
162.5082598702026
 20
205.6481849793356
 30
0.0
 11
162.5082598702026
 21
205.3483664297239
 31
0.0
  0
LINE
  5
290
330
70
100
AcDbEntity
  8
0
 62
    18
420
        0
370
    35
100
AcDbLine
 10
162.7080904196563
 20
114.6752082208059
 30
0.0
 11
162.7080904196563
 21
114.4255391536787
 31
0.0
  0
LINE
  5
291
330
70
100
AcDbEntity
  8
0
 62
    18
420
        0
370
    35
100
AcDbLine
 10
162.7580470803481
 20
147.1477916267375
 30
0.0
 11
162.7580470803481
 21
147.072855170692
 31
0.0
  0
LINE
  5
292
330
70
100
AcDbEntity
  8
0
 62
    18
420
        0
370
    35
100
AcDbLine
 10
162.7606857828046
 20
147.1477916267375
 30
0.0
 11
162.7606857828046
 21
147.072855170692
 31
0.0
  0
LINE
  5
293
330
70
100
AcDbEntity
  8
0
 62
    18
420
        0
370
    35
100
AcDbLine
 10
163.0577929046288
 20
147.072855170692
 30
0.0
 11
163.0577929046288
 21
147.128812043277
 31
0.0
  0
LINE
  5
294
330
70
100
AcDbEntity
  8
0
 62
    18
420
        0
370
    35
100
AcDbLine
 10
163.0604316070853
 20
147.072855170692
 30
0.0
 11
163.0604316070853
 21
147.1286449628564
 31
0.0
  0
LINE
  5
295
330
70
100
AcDbEntity
  8
0
 62
    18
420
        0
370
    35
100
AcDbLine
 10
164.4066500900139
 20
105.8428170546377
 30
0.0
 11
164.4066500900139
 21
105.5330797029846
 31
0.0
  0
LINE
  5
296
330
70
100
AcDbEntity
  8
0
 62
    18
420
        0
370
    35
100
AcDbLine
 10
164.9062264636483
 20
214.230907078376
 30
0.0
 11
164.9062264636483
 21
214.5406444300294
 31
0.0
  0
LINE
  5
297
330
70
100
AcDbEntity
  8
0
 62
    18
420
        0
370
    35
100
AcDbLine
 10
165.4307816559647
 20
142.0658342489159
 30
0.0
 11
165.4307816559647
 21
145.7352561472101
 31
0.0
  0
LINE
  5
298
330
70
100
AcDbEntity
  8
0
 62
    18
420
        0
370
    35
100
AcDbLine
 10
166.6047861340059
 20
205.3483664297239
 30
0.0
 11
166.6047861340059
 21
205.6481849793356
 31
0.0
  0
LINE
  5
299
330
70
100
AcDbEntity
  8
0
 62
    18
420
        0
370
    35
100
AcDbLine
 10
166.8046166834596
 20
114.4255391536787
 30
0.0
 11
166.8046166834596
 21
114.6752082208059
 31
0.0
  0
LINE
  5
29A
330
70
100
AcDbEntity
  8
0
 62
    18
420
        0
370
    35
100
AcDbLine
 10
167.2042777823671
 20
205.6481849793356
 30
0.0
 11
167.2042777823671
 21
205.3483664297239
 31
0.0
  0
LINE
  5
29B
330
70
100
AcDbEntity
  8
0
 62
    18
420
        0
370
    35
100
AcDbLine
 10
167.5539812439112
 20
206.5474224518779
 30
0.0
 11
167.5539812439112
 21
205.8480155287894
 31
0.0
  0
LINE
  5
29C
330
70
100
AcDbEntity
  8
0
 62
    18
420
        0
370
    35
100
AcDbLine
 10
167.9536423428187
 20
113.5263016811361
 30
0.0
 11
167.9536423428187
 21
114.4255391536787
 31
0.0
  0
LINE
  5
29D
330
70
100
AcDbEntity
  8
0
 62
    18
420
        0
370
    35
100
AcDbLine
 10
168.1534728922724
 20
114.4255391536787
 30
0.0
 11
168.1534728922724
 21
113.5263016811361
 31
0.0
  0
LINE
  5
29E
330
70
100
AcDbEntity
  8
0
 62
    18
420
        0
370
    35
100
AcDbLine
 10
168.6530492659068
 20
204.8488627815203
 30
0.0
 11
168.6530492659068
 21
204.7721255667667
 31
0.0
  0
LINE
  5
29F
330
70
100
AcDbEntity
  8
0
 62
    18
420
        0
370
    35
100
AcDbLine
 10
168.8528798153606
 20
213.0419153091259
 30
0.0
 11
168.8528798153606
 21
213.0242940596377
 31
0.0
  0
LINE
  5
2A0
330
70
100
AcDbEntity
  8
0
 62
    18
420
        0
370
    35
100
AcDbLine
 10
168.9028354078583
 20
114.9974927087491
 30
0.0
 11
168.9028354078583
 21
114.6752082208059
 31
0.0
  0
LINE
  5
2A1
330
70
100
AcDbEntity
  8
0
 62
    18
420
        0
370
    35
100
AcDbLine
 10
168.902837452724
 20
204.7764856357538
 30
0.0
 11
168.902837452724
 21
205.3484391551553
 31
0.0
  0
LINE
  5
2A2
330
70
100
AcDbEntity
  8
0
 62
    18
420
        0
370
    35
100
AcDbLine
 10
168.9054741103148
 20
114.9974466500054
 30
0.0
 11
168.9054741103148
 21
114.6752082208059
 31
0.0
  0
LINE
  5
2A3
330
70
100
AcDbEntity
  8
0
 62
    18
420
        0
370
    35
100
AcDbLine
 10
169.4523714637219
 20
213.0419153091259
 30
0.0
 11
169.4523714637219
 21
206.7472530013316
 31
0.0
  0
LINE
  5
2A4
330
70
100
AcDbEntity
  8
0
 62
    18
420
        0
370
    35
100
AcDbLine
 10
169.7521172879025
 20
113.5263016811361
 30
0.0
 11
169.7521172879025
 21
114.4255391536787
 31
0.0
  0
LINE
  5
2A5
330
70
100
AcDbEntity
  8
0
 62
    18
420
        0
370
    35
100
AcDbLine
 10
170.1517783868106
 20
113.5263016811361
 30
0.0
 11
170.1517783868106
 21
114.4255391536787
 31
0.0
  0
LINE
  5
2A6
330
70
100
AcDbEntity
  8
0
 62
    18
420
        0
370
    35
100
AcDbLine
 10
170.9011429472622
 20
105.5330797029846
 30
0.0
 11
170.9011429472622
 21
107.5313851975222
 31
0.0
  0
LINE
  5
2A7
330
70
100
AcDbEntity
  8
0
 62
    18
420
        0
370
    35
100
AcDbLine
 10
170.9511005846257
 20
107.5313851975222
 30
0.0
 11
170.9511005846257
 21
113.3264711316824
 31
0.0
  0
LINE
  5
2A8
330
70
100
AcDbEntity
  8
0
 62
    18
420
        0
370
    35
100
AcDbLine
 10
172.8494908044364
 20
182.1645769234972
 30
0.0
 11
172.8494908044364
 21
137.6094013853365
 31
0.0
  0
LINE
  5
2A9
330
70
100
AcDbEntity
  8
0
 62
    18
420
        0
370
    35
100
AcDbLine
 10
173.0493213538901
 20
204.8488627815203
 30
0.0
 11
173.0493213538901
 21
114.925115527313
 31
0.0
  0
LINE
  5
2AA
330
70
100
AcDbEntity
  8
0
 62
    18
420
        0
370
    35
100
AcDbLine
 10
172.8494908044364
 20
182.1645769234972
 30
0.0
 11
155.7639788261371
 21
181.8663482025566
 31
0.0
  0
LINE
  5
2AB
330
70
100
AcDbEntity
  8
0
 62
    18
420
        0
370
    35
100
AcDbLine
 10
173.0493213538901
 20
182.3679259679686
 30
0.0
 11
155.5641482766833
 21
182.0627211365687
 31
0.0
  0
LINE
  5
2AC
330
70
100
AcDbEntity
  8
0
 62
    18
420
        0
370
    35
100
AcDbLine
 10
155.5641482766833
 20
204.5436579501204
 30
0.0
 11
173.0493213538901
 21
204.8488627815203
 31
0.0
  0
LINE
  5
2AD
330
70
100
AcDbEntity
  8
0
 62
    18
420
        0
370
    35
100
AcDbLine
 10
161.6589800350241
 20
204.8488627815203
 30
0.0
 11
168.902837452724
 21
204.8488627815203
 31
0.0
  0
LINE
  5
2AE
330
70
100
AcDbEntity
  8
0
 62
    18
420
        0
370
    35
100
AcDbLine
 10
168.902837452724
 20
205.3484391551553
 30
0.0
 11
161.6589800350241
 21
205.3484391551553
 31
0.0
  0
LINE
  5
2AF
330
70
100
AcDbEntity
  8
0
 62
    18
420
        0
370
    35
100
AcDbLine
 10
159.1611029432017
 20
205.6481849793356
 30
0.0
 11
167.3541506944574
 21
205.6481849793356
 31
0.0
  0
LINE
  5
2B0
330
70
100
AcDbEntity
  8
0
 62
    18
420
        0
370
    35
100
AcDbLine
 10
158.5616065184903
 20
206.5474224518779
 30
0.0
 11
161.3592342108435
 21
206.5474224518779
 31
0.0
  0
LINE
  5
2B1
330
70
100
AcDbEntity
  8
0
 62
    18
420
        0
370
    35
100
AcDbLine
 10
167.5539812439112
 20
206.5474224518779
 30
0.0
 11
169.2525409142681
 21
206.5474224518779
 31
0.0
  0
LINE
  5
2B2
330
70
100
AcDbEntity
  8
0
 62
    18
420
        0
370
    35
100
AcDbLine
 10
166.0552521230074
 20
211.028622523379
 30
0.0
 11
165.8912657670111
 21
211.028622523379
 31
0.0
  0
LINE
  5
2B3
330
70
100
AcDbEntity
  8
0
 62
    18
420
        0
370
    35
100
AcDbLine
 10
166.0552521230074
 20
211.0585971057969
 30
0.0
 11
166.2355100685657
 21
211.0585971057969
 31
0.0
  0
LINE
  5
2B4
330
70
100
AcDbEntity
  8
0
 62
    18
420
        0
370
    35
100
AcDbLine
 10
158.4117336064
 20
212.5423389354915
 30
0.0
 11
158.3617759690365
 21
212.5423389354915
 31
0.0
  0
LINE
  5
2B5
330
70
100
AcDbEntity
  8
0
 62
    18
420
        0
370
    35
100
AcDbLine
 10
169.4523714637219
 20
213.0419153091259
 30
0.0
 11
168.8528798153606
 21
213.0419153091259
 31
0.0
  0
LINE
  5
2B6
330
70
100
AcDbEntity
  8
0
 62
    18
420
        0
370
    35
100
AcDbLine
 10
158.4117336064
 20
214.5406444300294
 30
0.0
 11
164.9062264636483
 21
214.5406444300294
 31
0.0
  0
LINE
  5
2B7
330
70
100
AcDbEntity
  8
0
 62
    18
420
        0
370
    35
100
AcDbLine
 10
164.9062264636483
 20
214.230907078376
 30
0.0
 11
168.8528798153606
 21
213.0242940596377
 31
0.0
  0
SPLINE
  5
2B8
330
70
100
AcDbEntity
  8
0
 62
    18
420
        0
370
    35
100
AcDbSpline
210
0.0
220
0.0
230
1.0
 70
     8
 71
     3
 72
     8
 73
     4
 74
     0
 42
0.0000000001
 43
0.0000000001
 40
0.0
 40
0.0
 40
0.0
 40
0.0
 40
1.0
 40
1.0
 40
1.0
 40
1.0
 10
47.57417192072973
 20
156.9394885499731
 30
0.0
 10
47.2982635081957
 20
156.9394885499731
 30
0.0
 10
47.07459554709534
 20
156.7158205888728
 30
0.0
 10
47.07459554709534
 20
156.4399121763387
 30
0.0
  0
SPLINE
  5
2B9
330
70
100
AcDbEntity
  8
0
 62
    18
420
        0
370
    35
100
AcDbSpline
210
0.0
220
0.0
230
1.0
 70
     8
 71
     3
 72
     8
 73
     4
 74
     0
 42
0.0000000001
 43
0.0000000001
 40
0.0
 40
0.0
 40
0.0
 40
0.0
 40
1.0
 40
1.0
 40
1.0
 40
1.0
 10
47.07459554709534
 20
154.9411830554353
 30
0.0
 10
47.07459554709534
 20
154.6652746429012
 30
0.0
 10
47.2982635081957
 20
154.4416066818009
 30
0.0
 10
47.57417192072973
 20
154.4416066818009
 30
0.0
  0
SPLINE
  5
2BA
330
70
100
AcDbEntity
  8
0
 62
    18
420
        0
370
    35
100
AcDbSpline
210
0.0
220
0.0
230
1.0
 70
     8
 71
     3
 72
    11
 73
     7
 74
     0
 42
0.0000000001
 43
0.0000000001
 40
0.0
 40
0.0
 40
0.0
 40
0.0
 40
1.0
 40
1.0
 40
1.0
 40
2.0
 40
2.0
 40
2.0
 40
2.0
 10
80.45628883335101
 20
208.4620709858091
 30
0.0
 10
80.94394475696621
 20
207.4108599340537
 30
0.0
 10
82.19144292356581
 20
206.954008237068
 30
0.0
 10
83.24265397532085
 20
207.4416641606829
 30
0.0
 10
83.69273628120044
 20
207.6504569641927
 30
0.0
 10
84.05426799693721
 20
208.0119886799295
 30
0.0
 10
84.26306080044705
 20
208.4620709858091
 30
0.0
  0
SPLINE
  5
2BB
330
70
100
AcDbEntity
  8
0
 62
    18
420
        0
370
    35
100
AcDbSpline
210
0.0
220
0.0
230
1.0
 70
     8
 71
     3
 72
    11
 73
     7
 74
     0
 42
0.0000000001
 43
0.0000000001
 40
0.0
 40
0.0
 40
0.0
 40
0.0
 40
1.0
 40
1.0
 40
1.0
 40
2.0
 40
2.0
 40
2.0
 40
2.0
 10
77.24900631176452
 20
207.7011571383871
 30
0.0
 10
78.15690334924548
 20
206.9810349650704
 30
0.0
 10
79.4766736823314
 20
207.1332565687102
 30
0.0
 10
80.19679585564809
 20
208.0411536061911
 30
0.0
 10
80.29958155043898
 20
208.1707411001661
 30
0.0
 10
80.3866839040989
 20
208.312027753799
 30
0.0
 10
80.45628883335231
 20
208.4620709858091
 30
0.0
  0
SPLINE
  5
2BC
330
70
100
AcDbEntity
  8
0
 62
    18
420
        0
370
    35
100
AcDbSpline
210
0.0
220
0.0
230
1.0
 70
     9
 71
     3
 72
    20
 73
    16
 74
     0
 42
0.0000000001
 43
0.0000000001
 40
0.0
 40
0.0
 40
0.0
 40
0.0
 40
1.0
 40
1.0
 40
1.0
 40
2.0
 40
2.0
 40
2.0
 40
3.0
 40
3.0
 40
3.0
 40
4.0
 40
4.0
 40
4.0
 40
5.0
 40
5.0
 40
5.0
 40
5.0
 10
77.10413136626472
 20
209.3450501442311
 30
0.0
 10
77.10413136626472
 20
210.1451845405797
 30
0.0
 10
77.75276845345555
 20
210.7938216277708
 30
0.0
 10
78.55290284980444
 20
210.7938216277708
 30
0.0
 10
79.35303724615335
 20
210.7938216277708
 30
0.0
 10
80.0016743333445
 20
210.1451845405797
 30
0.0
 10
80.0016743333445
 20
209.3450501442311
 30
0.0
 10
80.0016743333445
 20
208.5449157478819
 30
0.0
 10
79.35303724615335
 20
207.8962786606907
 30
0.0
 10
78.55290284980444
 20
207.8962786606907
 30
0.0
 10
77.75276845345555
 20
207.8962786606907
 30
0.0
 10
77.10413136626472
 20
208.5449157478819
 30
0.0
 10
77.10413136626472
 20
209.3450501442311
 30
0.0
 10
77.10413136626472
 20
209.3450501442311
 30
0.0
 10
77.10413136626472
 20
209.3450501442311
 30
0.0
 10
77.10413136626472
 20
209.3450501442311
 30
0.0
  0
SPLINE
  5
2BD
330
70
100
AcDbEntity
  8
0
 62
    18
420
        0
370
    35
100
AcDbSpline
210
0.0
220
0.0
230
1.0
 70
     9
 71
     3
 72
    20
 73
    16
 74
     0
 42
0.0000000001
 43
0.0000000001
 40
0.0
 40
0.0
 40
0.0
 40
0.0
 40
1.0
 40
1.0
 40
1.0
 40
2.0
 40
2.0
 40
2.0
 40
3.0
 40
3.0
 40
3.0
 40
4.0
 40
4.0
 40
4.0
 40
5.0
 40
5.0
 40
5.0
 40
5.0
 10
80.91090333335914
 20
209.3450501442311
 30
0.0
 10
80.91090333335914
 20
210.1451845405797
 30
0.0
 10
81.55954042055029
 20
210.7938216277708
 30
0.0
 10
82.35967481689918
 20
210.7938216277708
 30
0.0
 10
83.15980921324808
 20
210.7938216277708
 30
0.0
 10
83.80844630043924
 20
210.1451845405797
 30
0.0
 10
83.80844630043924
 20
209.3450501442311
 30
0.0
 10
83.80844630043924
 20
208.5449157478819
 30
0.0
 10
83.15980921324808
 20
207.8962786606907
 30
0.0
 10
82.35967481689918
 20
207.8962786606907
 30
0.0
 10
81.55954042055029
 20
207.8962786606907
 30
0.0
 10
80.91090333335914
 20
208.5449157478819
 30
0.0
 10
80.91090333335914
 20
209.3450501442311
 30
0.0
 10
80.91090333335914
 20
209.3450501442311
 30
0.0
 10
80.91090333335914
 20
209.3450501442311
 30
0.0
 10
80.91090333335914
 20
209.3450501442311
 30
0.0
  0
SPLINE
  5
2BE
330
70
100
AcDbEntity
  8
0
 62
    18
420
        0
370
    35
100
AcDbSpline
210
0.0
220
0.0
230
1.0
 70
     9
 71
     3
 72
    20
 73
    16
 74
     0
 42
0.0000000001
 43
0.0000000001
 40
0.0
 40
0.0
 40
0.0
 40
0.0
 40
1.0
 40
1.0
 40
1.0
 40
2.0
 40
2.0
 40
2.0
 40
3.0
 40
3.0
 40
3.0
 40
4.0
 40
4.0
 40
4.0
 40
5.0
 40
5.0
 40
5.0
 40
5.0
 10
77.15408900362783
 20
209.3450501442311
 30
0.0
 10
77.15408900362783
 20
210.1175936993265
 30
0.0
 10
77.78035929470873
 20
210.7438639904074
 30
0.0
 10
78.55290284980444
 20
210.7438639904074
 30
0.0
 10
79.32544640489985
 20
210.7438639904074
 30
0.0
 10
79.95171669598104
 20
210.1175936993265
 30
0.0
 10
79.95171669598104
 20
209.3450501442311
 30
0.0
 10
79.95171669598104
 20
208.5725065891354
 30
0.0
 10
79.32544640489985
 20
207.9462362980541
 30
0.0
 10
78.55290284980444
 20
207.9462362980541
 30
0.0
 10
77.78035929470873
 20
207.9462362980541
 30
0.0
 10
77.15408900362783
 20
208.5725065891354
 30
0.0
 10
77.15408900362783
 20
209.3450501442311
 30
0.0
 10
77.15408900362783
 20
209.3450501442311
 30
0.0
 10
77.15408900362783
 20
209.3450501442311
 30
0.0
 10
77.15408900362783
 20
209.3450501442311
 30
0.0
  0
SPLINE
  5
2BF
330
70
100
AcDbEntity
  8
0
 62
    18
420
        0
370
    35
100
AcDbSpline
210
0.0
220
0.0
230
1.0
 70
     9
 71
     3
 72
    20
 73
    16
 74
     0
 42
0.0000000001
 43
0.0000000001
 40
0.0
 40
0.0
 40
0.0
 40
0.0
 40
1.0
 40
1.0
 40
1.0
 40
2.0
 40
2.0
 40
2.0
 40
3.0
 40
3.0
 40
3.0
 40
4.0
 40
4.0
 40
4.0
 40
5.0
 40
5.0
 40
5.0
 40
5.0
 10
80.96086097072257
 20
209.3450501442311
 30
0.0
 10
80.96086097072257
 20
210.1175936993265
 30
0.0
 10
81.58713126180378
 20
210.7438639904074
 30
0.0
 10
82.35967481689918
 20
210.7438639904074
 30
0.0
 10
83.13221837199458
 20
210.7438639904074
 30
0.0
 10
83.75848866307579
 20
210.1175936993265
 30
0.0
 10
83.75848866307579
 20
209.3450501442311
 30
0.0
 10
83.75848866307579
 20
208.5725065891354
 30
0.0
 10
83.13221837199458
 20
207.9462362980541
 30
0.0
 10
82.35967481689918
 20
207.9462362980541
 30
0.0
 10
81.58713126180378
 20
207.9462362980541
 30
0.0
 10
80.96086097072257
 20
208.5725065891354
 30
0.0
 10
80.96086097072257
 20
209.3450501442311
 30
0.0
 10
80.96086097072257
 20
209.3450501442311
 30
0.0
 10
80.96086097072257
 20
209.3450501442311
 30
0.0
 10
80.96086097072257
 20
209.3450501442311
 30
0.0
  0
SPLINE
  5
2C0
330
70
100
AcDbEntity
  8
0
 62
    18
420
        0
370
    35
100
AcDbSpline
210
0.0
220
0.0
230
1.0
 70
     8
 71
     3
 72
    11
 73
     7
 74
     0
 42
0.0000000001
 43
0.0000000001
 40
0.0
 40
0.0
 40
0.0
 40
0.0
 40
1.0
 40
1.0
 40
1.0
 40
2.0
 40
2.0
 40
2.0
 40
2.0
 10
77.39199226465716
 20
209.0453043200508
 30
0.0
 10
77.55753731217751
 20
208.4041511079568
 30
0.0
 10
78.21149546189044
 20
208.0185945115634
 30
0.0
 10
78.85264867398444
 20
208.1841395590838
 30
0.0
 10
79.27497576716191
 20
208.2931839456521
 30
0.0
 10
79.6047690483831
 20
208.6229772268733
 30
0.0
 10
79.7138134349514
 20
209.0453043200508
 30
0.0
  0
SPLINE
  5
2C1
330
70
100
AcDbEntity
  8
0
 62
    18
420
        0
370
    35
100
AcDbSpline
210
0.0
220
0.0
230
1.0
 70
     8
 71
     3
 72
    11
 73
     7
 74
     0
 42
0.0000000001
 43
0.0000000001
 40
0.0
 40
0.0
 40
0.0
 40
0.0
 40
1.0
 40
1.0
 40
1.0
 40
2.0
 40
2.0
 40
2.0
 40
2.0
 10
79.7138134349514
 20
209.6447959684111
 30
0.0
 10
79.54826838743137
 20
210.2859491805048
 30
0.0
 10
78.89431023771813
 20
210.6715057768981
 30
0.0
 10
78.25315702562445
 20
210.5059607293783
 30
0.0
 10
77.83082993244668
 20
210.3969163428097
 30
0.0
 10
77.50103665122546
 20
210.0671230615886
 30
0.0
 10
77.39199226465716
 20
209.6447959684111
 30
0.0
  0
SPLINE
  5
2C2
330
70
100
AcDbEntity
  8
0
 62
    18
420
        0
370
    35
100
AcDbSpline
210
0.0
220
0.0
230
1.0
 70
     8
 71
     3
 72
    11
 73
     7
 74
     0
 42
0.0000000001
 43
0.0000000001
 40
0.0
 40
0.0
 40
0.0
 40
0.0
 40
1.0
 40
1.0
 40
1.0
 40
2.0
 40
2.0
 40
2.0
 40
2.0
 10
81.1987642317519
 20
209.0453043200508
 30
0.0
 10
81.36430927927193
 20
208.4041511079568
 30
0.0
 10
82.01826742898518
 20
208.0185945115634
 30
0.0
 10
82.65942064107917
 20
208.1841395590838
 30
0.0
 10
83.08174773425664
 20
208.2931839456521
 30
0.0
 10
83.41154101547784
 20
208.6229772268733
 30
0.0
 10
83.52058540204646
 20
209.0453043200508
 30
0.0
  0
SPLINE
  5
2C3
330
70
100
AcDbEntity
  8
0
 62
    18
420
        0
370
    35
100
AcDbSpline
210
0.0
220
0.0
230
1.0
 70
     8
 71
     3
 72
    11
 73
     7
 74
     0
 42
0.0000000001
 43
0.0000000001
 40
0.0
 40
0.0
 40
0.0
 40
0.0
 40
1.0
 40
1.0
 40
1.0
 40
2.0
 40
2.0
 40
2.0
 40
2.0
 10
83.52058540204614
 20
209.6447959684108
 30
0.0
 10
83.35504035452613
 20
210.2859491805048
 30
0.0
 10
82.70108220481288
 20
210.6715057768981
 30
0.0
 10
82.05992899271889
 20
210.5059607293783
 30
0.0
 10
81.63760189954141
 20
210.3969163428097
 30
0.0
 10
81.3078086183202
 20
210.0671230615882
 30
0.0
 10
81.1987642317519
 20
209.6447959684108
 30
0.0
  0
SPLINE
  5
2C4
330
70
100
AcDbEntity
  8
0
 62
    18
420
        0
370
    35
100
AcDbSpline
210
0.0
220
0.0
230
1.0
 70
     8
 71
     3
 72
    11
 73
     7
 74
     0
 42
0.0000000001
 43
0.0000000001
 40
0.0
 40
0.0
 40
0.0
 40
0.0
 40
1.0
 40
1.0
 40
1.0
 40
2.0
 40
2.0
 40
2.0
 40
2.0
 10
107.1036926030145
 20
208.4620709858091
 30
0.0
 10
107.5913485266297
 20
207.4108599340537
 30
0.0
 10
108.8388466932293
 20
206.954008237068
 30
0.0
 10
109.8900577449844
 20
207.4416641606829
 30
0.0
 10
110.0401004082178
 20
207.5112688260812
 30
0.0
 10
110.1813865614685
 20
207.5983707841645
 30
0.0
 10
110.3109736560323
 20
207.7011559735538
 30
0.0
  0
SPLINE
  5
2C5
330
70
100
AcDbEntity
  8
0
 62
    18
420
        0
370
    35
100
AcDbSpline
210
0.0
220
0.0
230
1.0
 70
     8
 71
     3
 72
    11
 73
     7
 74
     0
 42
0.0000000001
 43
0.0000000001
 40
0.0
 40
0.0
 40
0.0
 40
0.0
 40
1.0
 40
1.0
 40
1.0
 40
2.0
 40
2.0
 40
2.0
 40
2.0
 10
103.2969206359198
 20
208.4620709858091
 30
0.0
 10
103.7845765595347
 20
207.4108599340537
 30
0.0
 10
105.0320747261343
 20
206.954008237068
 30
0.0
 10
106.0832857778899
 20
207.4416641606829
 30
0.0
 10
106.5333680837695
 20
207.6504569641927
 30
0.0
 10
106.8948997995063
 20
208.0119886799295
 30
0.0
 10
107.1036926030158
 20
208.4620709858091
 30
0.0
  0
SPLINE
  5
2C6
330
70
100
AcDbEntity
  8
0
 62
    18
420
        0
370
    35
100
AcDbSpline
210
0.0
220
0.0
230
1.0
 70
     8
 71
     3
 72
    11
 73
     7
 74
     0
 42
0.0000000001
 43
0.0000000001
 40
0.0
 40
0.0
 40
0.0
 40
0.0
 40
1.0
 40
1.0
 40
1.0
 40
2.0
 40
2.0
 40
2.0
 40
2.0
 10
99.49014866882507
 20
208.4620709858091
 30
0.0
 10
99.97780459243992
 20
207.4108599340537
 30
0.0
 10
101.2253027590398
 20
206.954008237068
 30
0.0
 10
102.2765138107949
 20
207.4416641606829
 30
0.0
 10
102.7265961166745
 20
207.6504569641927
 30
0.0
 10
103.0881278324112
 20
208.0119886799295
 30
0.0
 10
103.2969206359211
 20
208.4620709858091
 30
0.0
  0
SPLINE
  5
2C7
330
70
100
AcDbEntity
  8
0
 62
    18
420
        0
370
    35
100
AcDbSpline
210
0.0
220
0.0
230
1.0
 70
     8
 71
     3
 72
    11
 73
     7
 74
     0
 42
0.0000000001
 43
0.0000000001
 40
0.0
 40
0.0
 40
0.0
 40
0.0
 40
1.0
 40
1.0
 40
1.0
 40
2.0
 40
2.0
 40
2.0
 40
2.0
 10
95.68337670173031
 20
208.4620709858091
 30
0.0
 10
96.17103262534518
 20
207.4108599340537
 30
0.0
 10
97.41853079194481
 20
206.954008237068
 30
0.0
 10
98.46974184369983
 20
207.4416641606829
 30
0.0
 10
98.91982414957974
 20
207.6504569641927
 30
0.0
 10
99.28135586531684
 20
208.0119886799295
 30
0.0
 10
99.49014866882635
 20
208.4620709858091
 30
0.0
  0
SPLINE
  5
2C8
330
70
100
AcDbEntity
  8
0
 62
    18
420
        0
370
    35
100
AcDbSpline
210
0.0
220
0.0
230
1.0
 70
     8
 71
     3
 72
    11
 73
     7
 74
     0
 42
0.0000000001
 43
0.0000000001
 40
0.0
 40
0.0
 40
0.0
 40
0.0
 40
1.0
 40
1.0
 40
1.0
 40
2.0
 40
2.0
 40
2.0
 40
2.0
 10
91.87660473463557
 20
208.4620709858091
 30
0.0
 10
92.36426065825042
 20
207.4108599340537
 30
0.0
 10
93.61175882485039
 20
206.954008237068
 30
0.0
 10
94.66296987660541
 20
207.4416641606829
 30
0.0
 10
95.113052182485
 20
207.6504569641927
 30
0.0
 10
95.47458389822176
 20
208.0119886799295
 30
0.0
 10
95.68337670173161
 20
208.4620709858091
 30
0.0
  0
SPLINE
  5
2C9
330
70
100
AcDbEntity
  8
0
 62
    18
420
        0
370
    35
100
AcDbSpline
210
0.0
220
0.0
230
1.0
 70
     8
 71
     3
 72
    11
 73
     7
 74
     0
 42
0.0000000001
 43
0.0000000001
 40
0.0
 40
0.0
 40
0.0
 40
0.0
 40
1.0
 40
1.0
 40
1.0
 40
2.0
 40
2.0
 40
2.0
 40
2.0
 10
88.06983276754083
 20
208.4620709858091
 30
0.0
 10
88.55748869115569
 20
207.4108599340537
 30
0.0
 10
89.80498685775531
 20
206.954008237068
 30
0.0
 10
90.85619790951033
 20
207.4416641606829
 30
0.0
 10
91.30628021539024
 20
207.6504569641927
 30
0.0
 10
91.66781193112734
 20
208.0119886799295
 30
0.0
 10
91.87660473463685
 20
208.4620709858091
 30
0.0
  0
SPLINE
  5
2CA
330
70
100
AcDbEntity
  8
0
 62
    18
420
        0
370
    35
100
AcDbSpline
210
0.0
220
0.0
230
1.0
 70
     8
 71
     3
 72
    11
 73
     7
 74
     0
 42
0.0000000001
 43
0.0000000001
 40
0.0
 40
0.0
 40
0.0
 40
0.0
 40
1.0
 40
1.0
 40
1.0
 40
2.0
 40
2.0
 40
2.0
 40
2.0
 10
84.26306080044575
 20
208.4620709858091
 30
0.0
 10
84.75071672406063
 20
207.4108599340537
 30
0.0
 10
85.99821489066089
 20
206.954008237068
 30
0.0
 10
87.04942594241591
 20
207.4416641606829
 30
0.0
 10
87.4995082482955
 20
207.6504569641927
 30
0.0
 10
87.86103996403229
 20
208.0119886799295
 30
0.0
 10
88.06983276754179
 20
208.4620709858091
 30
0.0
  0
SPLINE
  5
2CB
330
70
100
AcDbEntity
  8
0
 62
    18
420
        0
370
    35
100
AcDbSpline
210
0.0
220
0.0
230
1.0
 70
     9
 71
     3
 72
    20
 73
    16
 74
     0
 42
0.0000000001
 43
0.0000000001
 40
0.0
 40
0.0
 40
0.0
 40
0.0
 40
1.0
 40
1.0
 40
1.0
 40
2.0
 40
2.0
 40
2.0
 40
3.0
 40
3.0
 40
3.0
 40
4.0
 40
4.0
 40
4.0
 40
5.0
 40
5.0
 40
5.0
 40
5.0
 10
84.7176753004542
 20
209.3450501442311
 30
0.0
 10
84.7176753004542
 20
210.1451845405797
 30
0.0
 10
85.36631238764504
 20
210.7938216277708
 30
0.0
 10
86.16644678399394
 20
210.7938216277708
 30
0.0
 10
86.96658118034283
 20
210.7938216277708
 30
0.0
 10
87.61521826753398
 20
210.1451845405797
 30
0.0
 10
87.61521826753398
 20
209.3450501442311
 30
0.0
 10
87.61521826753398
 20
208.5449157478819
 30
0.0
 10
86.96658118034283
 20
207.8962786606907
 30
0.0
 10
86.16644678399394
 20
207.8962786606907
 30
0.0
 10
85.36631238764504
 20
207.8962786606907
 30
0.0
 10
84.7176753004542
 20
208.5449157478819
 30
0.0
 10
84.7176753004542
 20
209.3450501442311
 30
0.0
 10
84.7176753004542
 20
209.3450501442311
 30
0.0
 10
84.7176753004542
 20
209.3450501442311
 30
0.0
 10
84.7176753004542
 20
209.3450501442311
 30
0.0
  0
SPLINE
  5
2CC
330
70
100
AcDbEntity
  8
0
 62
    18
420
        0
370
    35
100
AcDbSpline
210
0.0
220
0.0
230
1.0
 70
     9
 71
     3
 72
    20
 73
    16
 74
     0
 42
0.0000000001
 43
0.0000000001
 40
0.0
 40
0.0
 40
0.0
 40
0.0
 40
1.0
 40
1.0
 40
1.0
 40
2.0
 40
2.0
 40
2.0
 40
3.0
 40
3.0
 40
3.0
 40
4.0
 40
4.0
 40
4.0
 40
5.0
 40
5.0
 40
5.0
 40
5.0
 10
88.52444726754864
 20
209.3450501442311
 30
0.0
 10
88.52444726754864
 20
210.1451845405797
 30
0.0
 10
89.17308435473978
 20
210.7938216277708
 30
0.0
 10
89.97321875108868
 20
210.7938216277708
 30
0.0
 10
90.77335314743757
 20
210.7938216277708
 30
0.0
 10
91.42199023462872
 20
210.1451845405797
 30
0.0
 10
91.42199023462872
 20
209.3450501442311
 30
0.0
 10
91.42199023462872
 20
208.5449157478819
 30
0.0
 10
90.77335314743757
 20
207.8962786606907
 30
0.0
 10
89.97321875108868
 20
207.8962786606907
 30
0.0
 10
89.17308435473978
 20
207.8962786606907
 30
0.0
 10
88.52444726754864
 20
208.5449157478819
 30
0.0
 10
88.52444726754864
 20
209.3450501442311
 30
0.0
 10
88.52444726754864
 20
209.3450501442311
 30
0.0
 10
88.52444726754864
 20
209.3450501442311
 30
0.0
 10
88.52444726754864
 20
209.3450501442311
 30
0.0
  0
SPLINE
  5
2CD
330
70
100
AcDbEntity
  8
0
 62
    18
420
        0
370
    35
100
AcDbSpline
210
0.0
220
0.0
230
1.0
 70
     9
 71
     3
 72
    20
 73
    16
 74
     0
 42
0.0000000001
 43
0.0000000001
 40
0.0
 40
0.0
 40
0.0
 40
0.0
 40
1.0
 40
1.0
 40
1.0
 40
2.0
 40
2.0
 40
2.0
 40
3.0
 40
3.0
 40
3.0
 40
4.0
 40
4.0
 40
4.0
 40
5.0
 40
5.0
 40
5.0
 40
5.0
 10
92.3312192346437
 20
209.3450501442311
 30
0.0
 10
92.3312192346437
 20
210.1451845405797
 30
0.0
 10
92.97985632183452
 20
210.7938216277708
 30
0.0
 10
93.77999071818342
 20
210.7938216277708
 30
0.0
 10
94.58012511453231
 20
210.7938216277708
 30
0.0
 10
95.22876220172348
 20
210.1451845405797
 30
0.0
 10
95.22876220172348
 20
209.3450501442311
 30
0.0
 10
95.22876220172348
 20
208.5449157478819
 30
0.0
 10
94.58012511453231
 20
207.8962786606907
 30
0.0
 10
93.77999071818342
 20
207.8962786606907
 30
0.0
 10
92.97985632183452
 20
207.8962786606907
 30
0.0
 10
92.3312192346437
 20
208.5449157478819
 30
0.0
 10
92.3312192346437
 20
209.3450501442311
 30
0.0
 10
92.3312192346437
 20
209.3450501442311
 30
0.0
 10
92.3312192346437
 20
209.3450501442311
 30
0.0
 10
92.3312192346437
 20
209.3450501442311
 30
0.0
  0
SPLINE
  5
2CE
330
70
100
AcDbEntity
  8
0
 62
    18
420
        0
370
    35
100
AcDbSpline
210
0.0
220
0.0
230
1.0
 70
     9
 71
     3
 72
    20
 73
    16
 74
     0
 42
0.0000000001
 43
0.0000000001
 40
0.0
 40
0.0
 40
0.0
 40
0.0
 40
1.0
 40
1.0
 40
1.0
 40
2.0
 40
2.0
 40
2.0
 40
3.0
 40
3.0
 40
3.0
 40
4.0
 40
4.0
 40
4.0
 40
5.0
 40
5.0
 40
5.0
 40
5.0
 10
96.13799120173812
 20
209.3450501442311
 30
0.0
 10
96.13799120173812
 20
210.1451845405797
 30
0.0
 10
96.78662828892928
 20
210.7938216277708
 30
0.0
 10
97.58676268527818
 20
210.7938216277708
 30
0.0
 10
98.38689708162707
 20
210.7938216277708
 30
0.0
 10
99.03553416881822
 20
210.1451845405797
 30
0.0
 10
99.03553416881822
 20
209.3450501442311
 30
0.0
 10
99.03553416881822
 20
208.5449157478819
 30
0.0
 10
98.38689708162707
 20
207.8962786606907
 30
0.0
 10
97.58676268527818
 20
207.8962786606907
 30
0.0
 10
96.78662828892928
 20
207.8962786606907
 30
0.0
 10
96.13799120173812
 20
208.5449157478819
 30
0.0
 10
96.13799120173812
 20
209.3450501442311
 30
0.0
 10
96.13799120173812
 20
209.3450501442311
 30
0.0
 10
96.13799120173812
 20
209.3450501442311
 30
0.0
 10
96.13799120173812
 20
209.3450501442311
 30
0.0
  0
SPLINE
  5
2CF
330
70
100
AcDbEntity
  8
0
 62
    18
420
        0
370
    35
100
AcDbSpline
210
0.0
220
0.0
230
1.0
 70
     9
 71
     3
 72
    20
 73
    16
 74
     0
 42
0.0000000001
 43
0.0000000001
 40
0.0
 40
0.0
 40
0.0
 40
0.0
 40
1.0
 40
1.0
 40
1.0
 40
2.0
 40
2.0
 40
2.0
 40
3.0
 40
3.0
 40
3.0
 40
4.0
 40
4.0
 40
4.0
 40
5.0
 40
5.0
 40
5.0
 40
5.0
 10
99.9447631688332
 20
209.3450501442311
 30
0.0
 10
99.9447631688332
 20
210.1451845405797
 30
0.0
 10
100.5934002560243
 20
210.7938216277708
 30
0.0
 10
101.3935346523729
 20
210.7938216277708
 30
0.0
 10
102.1936690487218
 20
210.7938216277708
 30
0.0
 10
102.8423061359129
 20
210.1451845405797
 30
0.0
 10
102.8423061359129
 20
209.3450501442311
 30
0.0
 10
102.8423061359129
 20
208.5449157478819
 30
0.0
 10
102.1936690487218
 20
207.8962786606907
 30
0.0
 10
101.3935346523729
 20
207.8962786606907
 30
0.0
 10
100.5934002560243
 20
207.8962786606907
 30
0.0
 10
99.9447631688332
 20
208.5449157478819
 30
0.0
 10
99.9447631688332
 20
209.3450501442311
 30
0.0
 10
99.9447631688332
 20
209.3450501442311
 30
0.0
 10
99.9447631688332
 20
209.3450501442311
 30
0.0
 10
99.9447631688332
 20
209.3450501442311
 30
0.0
  0
SPLINE
  5
2D0
330
70
100
AcDbEntity
  8
0
 62
    18
420
        0
370
    35
100
AcDbSpline
210
0.0
220
0.0
230
1.0
 70
     9
 71
     3
 72
    20
 73
    16
 74
     0
 42
0.0000000001
 43
0.0000000001
 40
0.0
 40
0.0
 40
0.0
 40
0.0
 40
1.0
 40
1.0
 40
1.0
 40
2.0
 40
2.0
 40
2.0
 40
3.0
 40
3.0
 40
3.0
 40
4.0
 40
4.0
 40
4.0
 40
5.0
 40
5.0
 40
5.0
 40
5.0
 10
103.7515351359279
 20
209.3450501442311
 30
0.0
 10
103.7515351359279
 20
210.1451845405797
 30
0.0
 10
104.4001722231191
 20
210.7938216277708
 30
0.0
 10
105.2003066194679
 20
210.7938216277708
 30
0.0
 10
106.0004410158168
 20
210.7938216277708
 30
0.0
 10
106.6490781030077
 20
210.1451845405797
 30
0.0
 10
106.6490781030077
 20
209.3450501442311
 30
0.0
 10
106.6490781030077
 20
208.5449157478819
 30
0.0
 10
106.0004410158168
 20
207.8962786606907
 30
0.0
 10
105.2003066194679
 20
207.8962786606907
 30
0.0
 10
104.4001722231191
 20
207.8962786606907
 30
0.0
 10
103.7515351359279
 20
208.5449157478819
 30
0.0
 10
103.7515351359279
 20
209.3450501442311
 30
0.0
 10
103.7515351359279
 20
209.3450501442311
 30
0.0
 10
103.7515351359279
 20
209.3450501442311
 30
0.0
 10
103.7515351359279
 20
209.3450501442311
 30
0.0
  0
SPLINE
  5
2D1
330
70
100
AcDbEntity
  8
0
 62
    18
420
        0
370
    35
100
AcDbSpline
210
0.0
220
0.0
230
1.0
 70
     9
 71
     3
 72
    20
 73
    16
 74
     0
 42
0.0000000001
 43
0.0000000001
 40
0.0
 40
0.0
 40
0.0
 40
0.0
 40
1.0
 40
1.0
 40
1.0
 40
2.0
 40
2.0
 40
2.0
 40
3.0
 40
3.0
 40
3.0
 40
4.0
 40
4.0
 40
4.0
 40
5.0
 40
5.0
 40
5.0
 40
5.0
 10
107.5583071030226
 20
209.3450501442311
 30
0.0
 10
107.5583071030226
 20
210.1451845405797
 30
0.0
 10
108.2069441902135
 20
210.7938216277708
 30
0.0
 10
109.0070785865624
 20
210.7938216277708
 30
0.0
 10
109.8072129829113
 20
210.7938216277708
 30
0.0
 10
110.4558500701027
 20
210.1451845405797
 30
0.0
 10
110.4558500701027
 20
209.3450501442311
 30
0.0
 10
110.4558500701027
 20
208.5449157478819
 30
0.0
 10
109.8072129829113
 20
207.8962786606907
 30
0.0
 10
109.0070785865624
 20
207.8962786606907
 30
0.0
 10
108.2069441902135
 20
207.8962786606907
 30
0.0
 10
107.5583071030226
 20
208.5449157478819
 30
0.0
 10
107.5583071030226
 20
209.3450501442311
 30
0.0
 10
107.5583071030226
 20
209.3450501442311
 30
0.0
 10
107.5583071030226
 20
209.3450501442311
 30
0.0
 10
107.5583071030226
 20
209.3450501442311
 30
0.0
  0
SPLINE
  5
2D2
330
70
100
AcDbEntity
  8
0
 62
    18
420
        0
370
    35
100
AcDbSpline
210
0.0
220
0.0
230
1.0
 70
     9
 71
     3
 72
    20
 73
    16
 74
     0
 42
0.0000000001
 43
0.0000000001
 40
0.0
 40
0.0
 40
0.0
 40
0.0
 40
1.0
 40
1.0
 40
1.0
 40
2.0
 40
2.0
 40
2.0
 40
3.0
 40
3.0
 40
3.0
 40
4.0
 40
4.0
 40
4.0
 40
5.0
 40
5.0
 40
5.0
 40
5.0
 10
84.76763293781733
 20
209.3450501442311
 30
0.0
 10
84.76763293781733
 20
210.1175936993265
 30
0.0
 10
85.39390322889854
 20
210.7438639904074
 30
0.0
 10
86.16644678399394
 20
210.7438639904074
 30
0.0
 10
86.93899033908932
 20
210.7438639904074
 30
0.0
 10
87.56526063017053
 20
210.1175936993265
 30
0.0
 10
87.56526063017053
 20
209.3450501442311
 30
0.0
 10
87.56526063017053
 20
208.5725065891354
 30
0.0
 10
86.93899033908932
 20
207.9462362980541
 30
0.0
 10
86.16644678399394
 20
207.9462362980541
 30
0.0
 10
85.39390322889854
 20
207.9462362980541
 30
0.0
 10
84.76763293781733
 20
208.5725065891354
 30
0.0
 10
84.76763293781733
 20
209.3450501442311
 30
0.0
 10
84.76763293781733
 20
209.3450501442311
 30
0.0
 10
84.76763293781733
 20
209.3450501442311
 30
0.0
 10
84.76763293781733
 20
209.3450501442311
 30
0.0
  0
SPLINE
  5
2D3
330
70
100
AcDbEntity
  8
0
 62
    18
420
        0
370
    35
100
AcDbSpline
210
0.0
220
0.0
230
1.0
 70
     9
 71
     3
 72
    20
 73
    16
 74
     0
 42
0.0000000001
 43
0.0000000001
 40
0.0
 40
0.0
 40
0.0
 40
0.0
 40
1.0
 40
1.0
 40
1.0
 40
2.0
 40
2.0
 40
2.0
 40
3.0
 40
3.0
 40
3.0
 40
4.0
 40
4.0
 40
4.0
 40
5.0
 40
5.0
 40
5.0
 40
5.0
 10
88.57440490491207
 20
209.3450501442311
 30
0.0
 10
88.57440490491207
 20
210.1175936993265
 30
0.0
 10
89.20067519599328
 20
210.7438639904074
 30
0.0
 10
89.97321875108868
 20
210.7438639904074
 30
0.0
 10
90.74576230618408
 20
210.7438639904074
 30
0.0
 10
91.37203259726529
 20
210.1175936993265
 30
0.0
 10
91.37203259726529
 20
209.3450501442311
 30
0.0
 10
91.37203259726529
 20
208.5725065891354
 30
0.0
 10
90.74576230618408
 20
207.9462362980541
 30
0.0
 10
89.97321875108868
 20
207.9462362980541
 30
0.0
 10
89.20067519599328
 20
207.9462362980541
 30
0.0
 10
88.57440490491207
 20
208.5725065891354
 30
0.0
 10
88.57440490491207
 20
209.3450501442311
 30
0.0
 10
88.57440490491207
 20
209.3450501442311
 30
0.0
 10
88.57440490491207
 20
209.3450501442311
 30
0.0
 10
88.57440490491207
 20
209.3450501442311
 30
0.0
  0
SPLINE
  5
2D4
330
70
100
AcDbEntity
  8
0
 62
    18
420
        0
370
    35
100
AcDbSpline
210
0.0
220
0.0
230
1.0
 70
     9
 71
     3
 72
    20
 73
    16
 74
     0
 42
0.0000000001
 43
0.0000000001
 40
0.0
 40
0.0
 40
0.0
 40
0.0
 40
1.0
 40
1.0
 40
1.0
 40
2.0
 40
2.0
 40
2.0
 40
3.0
 40
3.0
 40
3.0
 40
4.0
 40
4.0
 40
4.0
 40
5.0
 40
5.0
 40
5.0
 40
5.0
 10
92.38117687200682
 20
209.3450501442311
 30
0.0
 10
92.38117687200682
 20
210.1175936993265
 30
0.0
 10
93.00744716308804
 20
210.7438639904074
 30
0.0
 10
93.77999071818342
 20
210.7438639904074
 30
0.0
 10
94.55253427327882
 20
210.7438639904074
 30
0.0
 10
95.17880456436003
 20
210.1175936993265
 30
0.0
 10
95.17880456436003
 20
209.3450501442311
 30
0.0
 10
95.17880456436003
 20
208.5725065891354
 30
0.0
 10
94.55253427327882
 20
207.9462362980541
 30
0.0
 10
93.77999071818342
 20
207.9462362980541
 30
0.0
 10
93.00744716308804
 20
207.9462362980541
 30
0.0
 10
92.38117687200682
 20
208.5725065891354
 30
0.0
 10
92.38117687200682
 20
209.3450501442311
 30
0.0
 10
92.38117687200682
 20
209.3450501442311
 30
0.0
 10
92.38117687200682
 20
209.3450501442311
 30
0.0
 10
92.38117687200682
 20
209.3450501442311
 30
0.0
  0
SPLINE
  5
2D5
330
70
100
AcDbEntity
  8
0
 62
    18
420
        0
370
    35
100
AcDbSpline
210
0.0
220
0.0
230
1.0
 70
     9
 71
     3
 72
    20
 73
    16
 74
     0
 42
0.0000000001
 43
0.0000000001
 40
0.0
 40
0.0
 40
0.0
 40
0.0
 40
1.0
 40
1.0
 40
1.0
 40
2.0
 40
2.0
 40
2.0
 40
3.0
 40
3.0
 40
3.0
 40
4.0
 40
4.0
 40
4.0
 40
5.0
 40
5.0
 40
5.0
 40
5.0
 10
96.18794883910156
 20
209.3450501442311
 30
0.0
 10
96.18794883910156
 20
210.1175936993265
 30
0.0
 10
96.81421913018278
 20
210.7438639904074
 30
0.0
 10
97.58676268527818
 20
210.7438639904074
 30
0.0
 10
98.3593062403739
 20
210.7438639904074
 30
0.0
 10
98.98557653145479
 20
210.1175936993265
 30
0.0
 10
98.98557653145479
 20
209.3450501442311
 30
0.0
 10
98.98557653145479
 20
208.5725065891354
 30
0.0
 10
98.3593062403739
 20
207.9462362980541
 30
0.0
 10
97.58676268527818
 20
207.9462362980541
 30
0.0
 10
96.81421913018278
 20
207.9462362980541
 30
0.0
 10
96.18794883910156
 20
208.5725065891354
 30
0.0
 10
96.18794883910156
 20
209.3450501442311
 30
0.0
 10
96.18794883910156
 20
209.3450501442311
 30
0.0
 10
96.18794883910156
 20
209.3450501442311
 30
0.0
 10
96.18794883910156
 20
209.3450501442311
 30
0.0
  0
SPLINE
  5
2D6
330
70
100
AcDbEntity
  8
0
 62
    18
420
        0
370
    35
100
AcDbSpline
210
0.0
220
0.0
230
1.0
 70
     9
 71
     3
 72
    20
 73
    16
 74
     0
 42
0.0000000001
 43
0.0000000001
 40
0.0
 40
0.0
 40
0.0
 40
0.0
 40
1.0
 40
1.0
 40
1.0
 40
2.0
 40
2.0
 40
2.0
 40
3.0
 40
3.0
 40
3.0
 40
4.0
 40
4.0
 40
4.0
 40
5.0
 40
5.0
 40
5.0
 40
5.0
 10
99.99472080619662
 20
209.3450501442311
 30
0.0
 10
99.99472080619662
 20
210.1175936993265
 30
0.0
 10
100.6209910972775
 20
210.7438639904074
 30
0.0
 10
101.3935346523729
 20
210.7438639904074
 30
0.0
 10
102.1660782074686
 20
210.7438639904074
 30
0.0
 10
102.7923484985495
 20
210.1175936993265
 30
0.0
 10
102.7923484985495
 20
209.3450501442311
 30
0.0
 10
102.7923484985495
 20
208.5725065891354
 30
0.0
 10
102.1660782074686
 20
207.9462362980541
 30
0.0
 10
101.3935346523729
 20
207.9462362980541
 30
0.0
 10
100.6209910972775
 20
207.9462362980541
 30
0.0
 10
99.99472080619662
 20
208.5725065891354
 30
0.0
 10
99.99472080619662
 20
209.3450501442311
 30
0.0
 10
99.99472080619662
 20
209.3450501442311
 30
0.0
 10
99.99472080619662
 20
209.3450501442311
 30
0.0
 10
99.99472080619662
 20
209.3450501442311
 30
0.0
  0
SPLINE
  5
2D7
330
70
100
AcDbEntity
  8
0
 62
    18
420
        0
370
    35
100
AcDbSpline
210
0.0
220
0.0
230
1.0
 70
     9
 71
     3
 72
    20
 73
    16
 74
     0
 42
0.0000000001
 43
0.0000000001
 40
0.0
 40
0.0
 40
0.0
 40
0.0
 40
1.0
 40
1.0
 40
1.0
 40
2.0
 40
2.0
 40
2.0
 40
3.0
 40
3.0
 40
3.0
 40
4.0
 40
4.0
 40
4.0
 40
5.0
 40
5.0
 40
5.0
 40
5.0
 10
103.8014927732914
 20
209.3450501442311
 30
0.0
 10
103.8014927732914
 20
210.1175936993265
 30
0.0
 10
104.4277630643722
 20
210.7438639904074
 30
0.0
 10
105.2003066194679
 20
210.7438639904074
 30
0.0
 10
105.9728501745633
 20
210.7438639904074
 30
0.0
 10
106.5991204656443
 20
210.1175936993265
 30
0.0
 10
106.5991204656443
 20
209.3450501442311
 30
0.0
 10
106.5991204656443
 20
208.5725065891354
 30
0.0
 10
105.9728501745633
 20
207.9462362980541
 30
0.0
 10
105.2003066194679
 20
207.9462362980541
 30
0.0
 10
104.4277630643722
 20
207.9462362980541
 30
0.0
 10
103.8014927732914
 20
208.5725065891354
 30
0.0
 10
103.8014927732914
 20
209.3450501442311
 30
0.0
 10
103.8014927732914
 20
209.3450501442311
 30
0.0
 10
103.8014927732914
 20
209.3450501442311
 30
0.0
 10
103.8014927732914
 20
209.3450501442311
 30
0.0
  0
SPLINE
  5
2D8
330
70
100
AcDbEntity
  8
0
 62
    18
420
        0
370
    35
100
AcDbSpline
210
0.0
220
0.0
230
1.0
 70
     9
 71
     3
 72
    20
 73
    16
 74
     0
 42
0.0000000001
 43
0.0000000001
 40
0.0
 40
0.0
 40
0.0
 40
0.0
 40
1.0
 40
1.0
 40
1.0
 40
2.0
 40
2.0
 40
2.0
 40
3.0
 40
3.0
 40
3.0
 40
4.0
 40
4.0
 40
4.0
 40
5.0
 40
5.0
 40
5.0
 40
5.0
 10
107.6082647403861
 20
209.3450501442311
 30
0.0
 10
107.6082647403861
 20
210.1175936993265
 30
0.0
 10
108.234535031467
 20
210.7438639904074
 30
0.0
 10
109.0070785865624
 20
210.7438639904074
 30
0.0
 10
109.7796221416578
 20
210.7438639904074
 30
0.0
 10
110.4058924327393
 20
210.1175936993265
 30
0.0
 10
110.4058924327393
 20
209.3450501442311
 30
0.0
 10
110.4058924327393
 20
208.5725065891354
 30
0.0
 10
109.7796221416578
 20
207.9462362980541
 30
0.0
 10
109.0070785865624
 20
207.9462362980541
 30
0.0
 10
108.234535031467
 20
207.9462362980541
 30
0.0
 10
107.6082647403861
 20
208.5725065891354
 30
0.0
 10
107.6082647403861
 20
209.3450501442311
 30
0.0
 10
107.6082647403861
 20
209.3450501442311
 30
0.0
 10
107.6082647403861
 20
209.3450501442311
 30
0.0
 10
107.6082647403861
 20
209.3450501442311
 30
0.0
  0
SPLINE
  5
2D9
330
70
100
AcDbEntity
  8
0
 62
    18
420
        0
370
    35
100
AcDbSpline
210
0.0
220
0.0
230
1.0
 70
     8
 71
     3
 72
    11
 73
     7
 74
     0
 42
0.0000000001
 43
0.0000000001
 40
0.0
 40
0.0
 40
0.0
 40
0.0
 40
1.0
 40
1.0
 40
1.0
 40
2.0
 40
2.0
 40
2.0
 40
2.0
 10
96.42585210013121
 20
209.0453043200508
 30
0.0
 10
96.59139714765125
 20
208.4041511079568
 30
0.0
 10
97.24535529736449
 20
208.0185945115634
 30
0.0
 10
97.88650850945849
 20
208.1841395590838
 30
0.0
 10
98.30883560263595
 20
208.2931839456521
 30
0.0
 10
98.63862888385716
 20
208.6229772268733
 30
0.0
 10
98.74767327042546
 20
209.0453043200508
 30
0.0
  0
SPLINE
  5
2DA
330
70
100
AcDbEntity
  8
0
 62
    18
420
        0
370
    35
100
AcDbSpline
210
0.0
220
0.0
230
1.0
 70
     8
 71
     3
 72
    11
 73
     7
 74
     0
 42
0.0000000001
 43
0.0000000001
 40
0.0
 40
0.0
 40
0.0
 40
0.0
 40
1.0
 40
1.0
 40
1.0
 40
2.0
 40
2.0
 40
2.0
 40
2.0
 10
85.00553619884666
 20
209.0453043200508
 30
0.0
 10
85.17108124636701
 20
208.4041511079568
 30
0.0
 10
85.82503939607994
 20
208.0185945115634
 30
0.0
 10
86.46619260817393
 20
208.1841395590838
 30
0.0
 10
86.88851970135138
 20
208.2931839456521
 30
0.0
 10
87.2183129825726
 20
208.6229772268733
 30
0.0
 10
87.3273573691412
 20
209.0453043200508
 30
0.0
  0
SPLINE
  5
2DB
330
70
100
AcDbEntity
  8
0
 62
    18
420
        0
370
    35
100
AcDbSpline
210
0.0
220
0.0
230
1.0
 70
     8
 71
     3
 72
    11
 73
     7
 74
     0
 42
0.0000000001
 43
0.0000000001
 40
0.0
 40
0.0
 40
0.0
 40
0.0
 40
1.0
 40
1.0
 40
1.0
 40
2.0
 40
2.0
 40
2.0
 40
2.0
 10
98.74767327042546
 20
209.6447959684108
 30
0.0
 10
98.58212822290543
 20
210.2859491805048
 30
0.0
 10
97.92817007319218
 20
210.6715057768981
 30
0.0
 10
97.28701686109818
 20
210.5059607293783
 30
0.0
 10
96.86468976792072
 20
210.3969163428097
 30
0.0
 10
96.53489648669951
 20
210.0671230615882
 30
0.0
 10
96.42585210013121
 20
209.6447959684108
 30
0.0
  0
SPLINE
  5
2DC
330
70
100
AcDbEntity
  8
0
 62
    18
420
        0
370
    35
100
AcDbSpline
210
0.0
220
0.0
230
1.0
 70
     8
 71
     3
 72
    11
 73
     7
 74
     0
 42
0.0000000001
 43
0.0000000001
 40
0.0
 40
0.0
 40
0.0
 40
0.0
 40
1.0
 40
1.0
 40
1.0
 40
2.0
 40
2.0
 40
2.0
 40
2.0
 10
87.3273573691412
 20
209.6447959684108
 30
0.0
 10
87.16181232162085
 20
210.2859491805048
 30
0.0
 10
86.5078541719076
 20
210.6715057768981
 30
0.0
 10
85.86670095981395
 20
210.5059607293783
 30
0.0
 10
85.44437386663648
 20
210.3969163428097
 30
0.0
 10
85.11458058541496
 20
210.0671230615882
 30
0.0
 10
85.00553619884666
 20
209.6447959684108
 30
0.0
  0
SPLINE
  5
2DD
330
70
100
AcDbEntity
  8
0
 62
    18
420
        0
370
    35
100
AcDbSpline
210
0.0
220
0.0
230
1.0
 70
     8
 71
     3
 72
    11
 73
     7
 74
     0
 42
0.0000000001
 43
0.0000000001
 40
0.0
 40
0.0
 40
0.0
 40
0.0
 40
1.0
 40
1.0
 40
1.0
 40
2.0
 40
2.0
 40
2.0
 40
2.0
 10
100.2326240672259
 20
209.0453043200508
 30
0.0
 10
100.398169114746
 20
208.4041511079568
 30
0.0
 10
101.0521272644592
 20
208.0185945115634
 30
0.0
 10
101.6932804765532
 20
208.1841395590838
 30
0.0
 10
102.1156075697307
 20
208.2931839456521
 30
0.0
 10
102.4454008509519
 20
208.6229772268733
 30
0.0
 10
102.5544452375202
 20
209.0453043200508
 30
0.0
  0
SPLINE
  5
2DE
330
70
100
AcDbEntity
  8
0
 62
    18
420
        0
370
    35
100
AcDbSpline
210
0.0
220
0.0
230
1.0
 70
     8
 71
     3
 72
    11
 73
     7
 74
     0
 42
0.0000000001
 43
0.0000000001
 40
0.0
 40
0.0
 40
0.0
 40
0.0
 40
1.0
 40
1.0
 40
1.0
 40
2.0
 40
2.0
 40
2.0
 40
2.0
 10
102.5544452375202
 20
209.6447959684108
 30
0.0
 10
102.3889001900001
 20
210.2859491805048
 30
0.0
 10
101.7349420402869
 20
210.6715057768981
 30
0.0
 10
101.0937888281929
 20
210.5059607293783
 30
0.0
 10
100.6714617350154
 20
210.3969163428097
 30
0.0
 10
100.3416684537939
 20
210.0671230615882
 30
0.0
 10
100.2326240672259
 20
209.6447959684108
 30
0.0
  0
SPLINE
  5
2DF
330
70
100
AcDbEntity
  8
0
 62
    18
420
        0
370
    35
100
AcDbSpline
210
0.0
220
0.0
230
1.0
 70
     8
 71
     3
 72
    11
 73
     7
 74
     0
 42
0.0000000001
 43
0.0000000001
 40
0.0
 40
0.0
 40
0.0
 40
0.0
 40
1.0
 40
1.0
 40
1.0
 40
2.0
 40
2.0
 40
2.0
 40
2.0
 10
88.8123081659414
 20
209.0453043200508
 30
0.0
 10
88.97785321346175
 20
208.4041511079568
 30
0.0
 10
89.631811363175
 20
208.0185945115634
 30
0.0
 10
90.27296457526867
 20
208.1841395590838
 30
0.0
 10
90.69529166844613
 20
208.2931839456521
 30
0.0
 10
91.02508494966766
 20
208.6229772268733
 30
0.0
 10
91.13412933623596
 20
209.0453043200508
 30
0.0
  0
SPLINE
  5
2E0
330
70
100
AcDbEntity
  8
0
 62
    18
420
        0
370
    35
100
AcDbSpline
210
0.0
220
0.0
230
1.0
 70
     8
 71
     3
 72
    11
 73
     7
 74
     0
 42
0.0000000001
 43
0.0000000001
 40
0.0
 40
0.0
 40
0.0
 40
0.0
 40
1.0
 40
1.0
 40
1.0
 40
2.0
 40
2.0
 40
2.0
 40
2.0
 10
104.0393960343207
 20
209.0453043200508
 30
0.0
 10
104.2049410818407
 20
208.4041511079568
 30
0.0
 10
104.858899231554
 20
208.0185945115634
 30
0.0
 10
105.5000524436479
 20
208.1841395590838
 30
0.0
 10
105.9223795368251
 20
208.2931839456521
 30
0.0
 10
106.2521728180469
 20
208.6229772268733
 30
0.0
 10
106.3612172046152
 20
209.0453043200508
 30
0.0
  0
SPLINE
  5
2E1
330
70
100
AcDbEntity
  8
0
 62
    18
420
        0
370
    35
100
AcDbSpline
210
0.0
220
0.0
230
1.0
 70
     8
 71
     3
 72
    11
 73
     7
 74
     0
 42
0.0000000001
 43
0.0000000001
 40
0.0
 40
0.0
 40
0.0
 40
0.0
 40
1.0
 40
1.0
 40
1.0
 40
2.0
 40
2.0
 40
2.0
 40
2.0
 10
91.13412933623596
 20
209.6447959684108
 30
0.0
 10
90.96858428871561
 20
210.2859491805048
 30
0.0
 10
90.31462613900268
 20
210.6715057768981
 30
0.0
 10
89.67347292690869
 20
210.5059607293783
 30
0.0
 10
89.25114583373122
 20
210.3969163428097
 30
0.0
 10
88.9213525525097
 20
210.0671230615882
 30
0.0
 10
88.8123081659414
 20
209.6447959684108
 30
0.0
  0
SPLINE
  5
2E2
330
70
100
AcDbEntity
  8
0
 62
    18
420
        0
370
    35
100
AcDbSpline
210
0.0
220
0.0
230
1.0
 70
     8
 71
     3
 72
    11
 73
     7
 74
     0
 42
0.0000000001
 43
0.0000000001
 40
0.0
 40
0.0
 40
0.0
 40
0.0
 40
1.0
 40
1.0
 40
1.0
 40
2.0
 40
2.0
 40
2.0
 40
2.0
 10
106.3612172046152
 20
209.6447959684111
 30
0.0
 10
106.1956721570949
 20
210.2859491805048
 30
0.0
 10
105.541714007382
 20
210.6715057768981
 30
0.0
 10
104.9005607952876
 20
210.5059607293783
 30
0.0
 10
104.4782337021102
 20
210.3969163428097
 30
0.0
 10
104.148440420889
 20
210.0671230615886
 30
0.0
 10
104.0393960343207
 20
209.6447959684111
 30
0.0
  0
SPLINE
  5
2E3
330
70
100
AcDbEntity
  8
0
 62
    18
420
        0
370
    35
100
AcDbSpline
210
0.0
220
0.0
230
1.0
 70
     8
 71
     3
 72
    11
 73
     7
 74
     0
 42
0.0000000001
 43
0.0000000001
 40
0.0
 40
0.0
 40
0.0
 40
0.0
 40
1.0
 40
1.0
 40
1.0
 40
2.0
 40
2.0
 40
2.0
 40
2.0
 10
107.8461680014151
 20
209.0453043200508
 30
0.0
 10
108.0117130489355
 20
208.4041511079568
 30
0.0
 10
108.665671198649
 20
208.0185945115634
 30
0.0
 10
109.306824410743
 20
208.1841395590838
 30
0.0
 10
109.7291515039201
 20
208.2931839456521
 30
0.0
 10
110.0589447851414
 20
208.6229772268733
 30
0.0
 10
110.1679891717097
 20
209.0453043200508
 30
0.0
  0
SPLINE
  5
2E4
330
70
100
AcDbEntity
  8
0
 62
    18
420
        0
370
    35
100
AcDbSpline
210
0.0
220
0.0
230
1.0
 70
     8
 71
     3
 72
    11
 73
     7
 74
     0
 42
0.0000000001
 43
0.0000000001
 40
0.0
 40
0.0
 40
0.0
 40
0.0
 40
1.0
 40
1.0
 40
1.0
 40
2.0
 40
2.0
 40
2.0
 40
2.0
 10
92.61908013303616
 20
209.0453043200508
 30
0.0
 10
92.78462518055651
 20
208.4041511079568
 30
0.0
 10
93.43858333026975
 20
208.0185945115634
 30
0.0
 10
94.07973654236341
 20
208.1841395590838
 30
0.0
 10
94.50206363554121
 20
208.2931839456521
 30
0.0
 10
94.8318569167624
 20
208.6229772268733
 30
0.0
 10
94.9409013033307
 20
209.0453043200508
 30
0.0
  0
SPLINE
  5
2E5
330
70
100
AcDbEntity
  8
0
 62
    18
420
        0
370
    35
100
AcDbSpline
210
0.0
220
0.0
230
1.0
 70
     8
 71
     3
 72
    11
 73
     7
 74
     0
 42
0.0000000001
 43
0.0000000001
 40
0.0
 40
0.0
 40
0.0
 40
0.0
 40
1.0
 40
1.0
 40
1.0
 40
2.0
 40
2.0
 40
2.0
 40
2.0
 10
110.1679891717097
 20
209.6447959684111
 30
0.0
 10
110.00244412419
 20
210.2859491805048
 30
0.0
 10
109.3484859744764
 20
210.6715057768981
 30
0.0
 10
108.7073327623824
 20
210.5059607293783
 30
0.0
 10
108.2850056692052
 20
210.3969163428097
 30
0.0
 10
107.955212387984
 20
210.0671230615886
 30
0.0
 10
107.8461680014151
 20
209.6447959684111
 30
0.0
  0
SPLINE
  5
2E6
330
70
100
AcDbEntity
  8
0
 62
    18
420
        0
370
    35
100
AcDbSpline
210
0.0
220
0.0
230
1.0
 70
     8
 71
     3
 72
    11
 73
     7
 74
     0
 42
0.0000000001
 43
0.0000000001
 40
0.0
 40
0.0
 40
0.0
 40
0.0
 40
1.0
 40
1.0
 40
1.0
 40
2.0
 40
2.0
 40
2.0
 40
2.0
 10
94.9409013033307
 20
209.6447959684111
 30
0.0
 10
94.77535625581067
 20
210.2859491805048
 30
0.0
 10
94.12139810609742
 20
210.6715057768981
 30
0.0
 10
93.48024489400343
 20
210.5059607293783
 30
0.0
 10
93.05791780082598
 20
210.3969163428097
 30
0.0
 10
92.72812451960444
 20
210.0671230615886
 30
0.0
 10
92.61908013303616
 20
209.6447959684111
 30
0.0
  0
SPLINE
  5
2E7
330
70
100
AcDbEntity
  8
0
 62
    18
420
        0
370
    35
100
AcDbSpline
210
0.0
220
0.0
230
1.0
 70
     8
 71
     3
 72
     8
 73
     4
 74
     0
 42
0.0000000001
 43
0.0000000001
 40
0.0
 40
0.0
 40
0.0
 40
0.0
 40
1.0
 40
1.0
 40
1.0
 40
1.0
 10
160.0603356393941
 20
113.5263016811361
 30
0.0
 10
159.9499722743801
 20
113.5263016811361
 30
0.0
 10
159.8605050899397
 20
113.4368344966963
 30
0.0
 10
159.8605050899397
 20
113.3264711316824
 30
0.0
  0
SPLINE
  5
2E8
330
70
100
AcDbEntity
  8
0
 62
    18
420
        0
370
    35
100
AcDbSpline
210
0.0
220
0.0
230
1.0
 70
     9
 71
     3
 72
    20
 73
    16
 74
     0
 42
0.0000000001
 43
0.0000000001
 40
0.0
 40
0.0
 40
0.0
 40
0.0
 40
1.0
 40
1.0
 40
1.0
 40
2.0
 40
2.0
 40
2.0
 40
3.0
 40
3.0
 40
3.0
 40
4.0
 40
4.0
 40
4.0
 40
5.0
 40
5.0
 40
5.0
 40
5.0
 10
162.5032466533661
 20
109.030114318426
 30
0.0
 10
162.5032466533661
 20
109.4439769372272
 30
0.0
 10
162.8387485950165
 20
109.7794788788776
 30
0.0
 10
163.2526112138178
 20
109.7794788788776
 30
0.0
 10
163.666473832619
 20
109.7794788788776
 30
0.0
 10
164.0019757742694
 20
109.4439769372272
 30
0.0
 10
164.0019757742694
 20
109.030114318426
 30
0.0
 10
164.0019757742694
 20
108.6162516996248
 30
0.0
 10
163.666473832619
 20
108.2807497579744
 30
0.0
 10
163.2526112138178
 20
108.2807497579744
 30
0.0
 10
162.8387485950165
 20
108.2807497579744
 30
0.0
 10
162.5032466533661
 20
108.6162516996248
 30
0.0
 10
162.5032466533661
 20
109.030114318426
 30
0.0
 10
162.5032466533661
 20
109.030114318426
 30
0.0
 10
162.5032466533661
 20
109.030114318426
 30
0.0
 10
162.5032466533661
 20
109.030114318426
 30
0.0
  0
SPLINE
  5
2E9
330
70
100
AcDbEntity
  8
0
 62
    18
420
        0
370
    35
100
AcDbSpline
210
0.0
220
0.0
230
1.0
 70
     9
 71
     3
 72
    20
 73
    16
 74
     0
 42
0.0000000001
 43
0.0000000001
 40
0.0
 40
0.0
 40
0.0
 40
0.0
 40
1.0
 40
1.0
 40
1.0
 40
2.0
 40
2.0
 40
2.0
 40
3.0
 40
3.0
 40
3.0
 40
4.0
 40
4.0
 40
4.0
 40
5.0
 40
5.0
 40
5.0
 40
5.0
 10
162.6830941478744
 20
109.030114318426
 30
0.0
 10
162.6830941478744
 20
109.344649908715
 30
0.0
 10
162.9380756235288
 20
109.5996313843693
 30
0.0
 10
163.2526112138178
 20
109.5996313843693
 30
0.0
 10
163.5671468041067
 20
109.5996313843693
 30
0.0
 10
163.8221282797611
 20
109.344649908715
 30
0.0
 10
163.8221282797611
 20
109.030114318426
 30
0.0
 10
163.8221282797611
 20
108.715578728137
 30
0.0
 10
163.5671468041067
 20
108.4605972524826
 30
0.0
 10
163.2526112138178
 20
108.4605972524826
 30
0.0
 10
162.9380756235288
 20
108.4605972524826
 30
0.0
 10
162.6830941478744
 20
108.715578728137
 30
0.0
 10
162.6830941478744
 20
109.030114318426
 30
0.0
 10
162.6830941478744
 20
109.030114318426
 30
0.0
 10
162.6830941478744
 20
109.030114318426
 30
0.0
 10
162.6830941478744
 20
109.030114318426
 30
0.0
  0
SPLINE
  5
2EA
330
70
100
AcDbEntity
  8
0
 62
    18
420
        0
370
    35
100
AcDbSpline
210
0.0
220
0.0
230
1.0
 70
     8
 71
     3
 72
     8
 73
     4
 74
     0
 42
0.0000000001
 43
0.0000000001
 40
0.0
 40
0.0
 40
0.0
 40
0.0
 40
1.0
 40
1.0
 40
1.0
 40
1.0
 10
163.1607200568467
 20
109.3526431075207
 30
0.0
 10
163.1036240671386
 20
109.3090900956989
 30
0.0
 10
163.0591129361277
 20
109.2511609987865
 30
0.0
 10
163.0317341260712
 20
109.1847741202683
 30
0.0
  0
SPLINE
  5
2EB
330
70
100
AcDbEntity
  8
0
 62
    18
420
        0
370
    35
100
AcDbSpline
210
0.0
220
0.0
230
1.0
 70
     8
 71
     3
 72
     8
 73
     4
 74
     0
 42
0.0000000001
 43
0.0000000001
 40
0.0
 40
0.0
 40
0.0
 40
0.0
 40
1.0
 40
1.0
 40
1.0
 40
1.0
 10
163.3180494986543
 20
108.7125478525222
 30
0.0
 10
163.3798929012118
 20
108.7565240745206
 30
0.0
 10
163.4275502346769
 20
108.8176007455784
 30
0.0
 10
163.4551712241711
 20
108.888280272179
 30
0.0
  0
SPLINE
  5
2EC
330
70
100
AcDbEntity
  8
0
 62
    18
420
        0
370
    35
100
AcDbSpline
210
0.0
220
0.0
230
1.0
 70
     8
 71
     3
 72
    17
 73
    13
 74
     0
 42
0.0000000001
 43
0.0000000001
 40
0.0
 40
0.0
 40
0.0
 40
0.0
 40
1.0
 40
1.0
 40
1.0
 40
2.0
 40
2.0
 40
2.0
 40
3.0
 40
3.0
 40
3.0
 40
4.0
 40
4.0
 40
4.0
 40
4.0
 10
163.1607200567858
 20
109.352643107529
 30
0.0
 10
162.9825923251823
 20
109.3904684716624
 30
0.0
 10
162.807527751497
 20
109.2767309303479
 30
0.0
 10
162.7697023873636
 20
109.0986031987445
 30
0.0
 10
162.7318770232308
 20
108.9204754671417
 30
0.0
 10
162.8456145645447
 20
108.7454108934558
 30
0.0
 10
163.0237422961482
 20
108.707585529323
 30
0.0
 10
163.2018700277509
 20
108.6697601651895
 30
0.0
 10
163.3769346014369
 20
108.7834977065041
 30
0.0
 10
163.4147599655703
 20
108.9616254381069
 30
0.0
 10
163.4205828124574
 20
108.9890464697694
 30
0.0
 10
163.4228849891808
 20
109.0170981289356
 30
0.0
 10
163.4216107866889
 20
109.0451016096349
 30
0.0
  0
SPLINE
  5
2ED
330
70
100
AcDbEntity
  8
0
 62
    18
420
        0
370
    35
100
AcDbSpline
210
0.0
220
0.0
230
1.0
 70
     8
 71
     3
 72
    17
 73
    13
 74
     0
 42
0.0000000001
 43
0.0000000001
 40
0.0
 40
0.0
 40
0.0
 40
0.0
 40
1.0
 40
1.0
 40
1.0
 40
2.0
 40
2.0
 40
2.0
 40
3.0
 40
3.0
 40
3.0
 40
4.0
 40
4.0
 40
4.0
 40
4.0
 10
163.3180494987095
 20
108.7125478525222
 30
0.0
 10
163.493436614886
 20
108.6635620748184
 30
0.0
 10
163.6753267835811
 20
108.766030605578
 30
0.0
 10
163.7243125612848
 20
108.9414177217544
 30
0.0
 10
163.773298338988
 20
109.1168048379309
 30
0.0
 10
163.6708298082284
 20
109.298695006626
 30
0.0
 10
163.4954426920526
 20
109.3476807843298
 30
0.0
 10
163.3200555758761
 20
109.3966665620329
 30
0.0
 10
163.138165407181
 20
109.2941980312734
 30
0.0
 10
163.0891796294772
 20
109.1188109150975
 30
0.0
 10
163.0797629754412
 20
109.0850958273139
 30
0.0
 10
163.0757753289984
 20
109.0500962814198
 30
0.0
 10
163.0773664851594
 20
109.0151270272164
 30
0.0
  0
SPLINE
  5
2EE
330
70
100
AcDbEntity
  8
0
 62
    18
420
        0
370
    35
100
AcDbSpline
210
0.0
220
0.0
230
1.0
 70
     8
 71
     3
 72
     8
 73
     4
 74
     0
 42
0.0000000001
 43
0.0000000001
 40
0.0
 40
0.0
 40
0.0
 40
0.0
 40
1.0
 40
1.0
 40
1.0
 40
1.0
 10
161.9587258592048
 20
114.4255391536787
 30
0.0
 10
161.8483624941914
 20
114.4255391536787
 30
0.0
 10
161.758895309751
 20
114.3360719692382
 30
0.0
 10
161.758895309751
 20
114.2257086042249
 30
0.0
  0
SPLINE
  5
2EF
330
70
100
AcDbEntity
  8
0
 62
    18
420
        0
370
    35
100
AcDbSpline
210
0.0
220
0.0
230
1.0
 70
     8
 71
     3
 72
    14
 73
    10
 74
     0
 42
0.0000000001
 43
0.0000000001
 40
0.0
 40
0.0
 40
0.0
 40
0.0
 40
1.0
 40
1.0
 40
1.0
 40
2.0
 40
2.0
 40
2.0
 40
3.0
 40
3.0
 40
3.0
 40
3.0
 10
163.0317341259948
 20
109.1847741203011
 30
0.0
 10
162.9463178760072
 20
109.1513625219156
 30
0.0
 10
162.9041597762061
 20
109.0550335179418
 30
0.0
 10
162.9375713745915
 20
108.9696172679541
 30
0.0
 10
162.970982972977
 20
108.8842010179665
 30
0.0
 10
163.0673119769515
 20
108.8420429181648
 30
0.0
 10
163.1527282269391
 20
108.8754545165502
 30
0.0
 10
163.2113321033856
 20
108.8983781310143
 30
0.0
 10
163.2519454284169
 20
108.9524560182213
 30
0.0
 10
163.2576244306644
 20
109.0151270272138
 30
0.0
  0
SPLINE
  5
2F0
330
70
100
AcDbEntity
  8
0
 62
    18
420
        0
370
    35
100
AcDbSpline
210
0.0
220
0.0
230
1.0
 70
     8
 71
     3
 72
    14
 73
    10
 74
     0
 42
0.0000000001
 43
0.0000000001
 40
0.0
 40
0.0
 40
0.0
 40
0.0
 40
1.0
 40
1.0
 40
1.0
 40
2.0
 40
2.0
 40
2.0
 40
3.0
 40
3.0
 40
3.0
 40
3.0
 10
163.4551712242256
 20
108.888280272179
 30
0.0
 10
163.5335040049751
 20
108.9150247323487
 30
0.0
 10
163.5753246017976
 20
109.0002066665218
 30
0.0
 10
163.548580141628
 20
109.0785394472706
 30
0.0
 10
163.5218356814584
 20
109.15687222802
 30
0.0
 10
163.4366537472852
 20
109.1986928248426
 30
0.0
 10
163.3583209665358
 20
109.1719483646729
 30
0.0
 10
163.3028327180624
 20
109.1530035086753
 30
0.0
 10
163.2634877516648
 20
109.1034409167491
 30
0.0
 10
163.2576244306882
 20
109.0451016096349
 30
0.0
  0
SPLINE
  5
2F1
330
70
100
AcDbEntity
  8
0
 62
    18
420
        0
370
    35
100
AcDbSpline
210
0.0
220
0.0
230
1.0
 70
     9
 71
     3
 72
    20
 73
    16
 74
     0
 42
0.0000000001
 43
0.0000000001
 40
0.0
 40
0.0
 40
0.0
 40
0.0
 40
1.0
 40
1.0
 40
1.0
 40
2.0
 40
2.0
 40
2.0
 40
3.0
 40
3.0
 40
3.0
 40
4.0
 40
4.0
 40
4.0
 40
5.0
 40
5.0
 40
5.0
 40
5.0
 10
159.0961532382791
 20
143.9005451981133
 30
0.0
 10
159.0961532382791
 20
145.6470454494539
 30
0.0
 10
160.5119714320449
 20
147.0628636432196
 30
0.0
 10
162.2584716833854
 20
147.0628636432196
 30
0.0
 10
164.0049719347265
 20
147.0628636432196
 30
0.0
 10
165.4207901284916
 20
145.6470454494539
 30
0.0
 10
165.4207901284916
 20
143.9005451981133
 30
0.0
 10
165.4207901284916
 20
142.1540449467722
 30
0.0
 10
164.0049719347265
 20
140.7382267530071
 30
0.0
 10
162.2584716833854
 20
140.7382267530071
 30
0.0
 10
160.5119714320449
 20
140.7382267530071
 30
0.0
 10
159.0961532382791
 20
142.1540449467722
 30
0.0
 10
159.0961532382791
 20
143.9005451981133
 30
0.0
 10
159.0961532382791
 20
143.9005451981133
 30
0.0
 10
159.0961532382791
 20
143.9005451981133
 30
0.0
 10
159.0961532382791
 20
143.9005451981133
 30
0.0
  0
SPLINE
  5
2F2
330
70
100
AcDbEntity
  8
0
 62
    18
420
        0
370
    35
100
AcDbSpline
210
0.0
220
0.0
230
1.0
 70
     9
 71
     3
 72
    20
 73
    16
 74
     0
 42
0.0000000001
 43
0.0000000001
 40
0.0
 40
0.0
 40
0.0
 40
0.0
 40
1.0
 40
1.0
 40
1.0
 40
2.0
 40
2.0
 40
2.0
 40
3.0
 40
3.0
 40
3.0
 40
4.0
 40
4.0
 40
4.0
 40
5.0
 40
5.0
 40
5.0
 40
5.0
 10
159.5857380844411
 20
143.9005451981133
 30
0.0
 10
159.5857380844411
 20
145.3766552051707
 30
0.0
 10
160.782361676328
 20
146.5732787970576
 30
0.0
 10
162.2584716833854
 20
146.5732787970576
 30
0.0
 10
163.7345816904428
 20
146.5732787970576
 30
0.0
 10
164.9312052823297
 20
145.3766552051707
 30
0.0
 10
164.9312052823297
 20
143.9005451981133
 30
0.0
 10
164.9312052823297
 20
142.424435191056
 30
0.0
 10
163.7345816904428
 20
141.2278115991684
 30
0.0
 10
162.2584716833854
 20
141.2278115991684
 30
0.0
 10
160.782361676328
 20
141.2278115991684
 30
0.0
 10
159.5857380844411
 20
142.424435191056
 30
0.0
 10
159.5857380844411
 20
143.9005451981133
 30
0.0
 10
159.5857380844411
 20
143.9005451981133
 30
0.0
 10
159.5857380844411
 20
143.9005451981133
 30
0.0
 10
159.5857380844411
 20
143.9005451981133
 30
0.0
  0
SPLINE
  5
2F3
330
70
100
AcDbEntity
  8
0
 62
    18
420
        0
370
    35
100
AcDbSpline
210
0.0
220
0.0
230
1.0
 70
     9
 71
     3
 72
    20
 73
    16
 74
     0
 42
0.0000000001
 43
0.0000000001
 40
0.0
 40
0.0
 40
0.0
 40
0.0
 40
1.0
 40
1.0
 40
1.0
 40
2.0
 40
2.0
 40
2.0
 40
3.0
 40
3.0
 40
3.0
 40
4.0
 40
4.0
 40
4.0
 40
5.0
 40
5.0
 40
5.0
 40
5.0
 10
159.9454330734576
 20
143.9005451981133
 30
0.0
 10
159.9454330734576
 20
145.1780011481456
 30
0.0
 10
160.9810157333524
 20
146.2135838080405
 30
0.0
 10
162.2584716833854
 20
146.2135838080405
 30
0.0
 10
163.5359276334184
 20
146.2135838080405
 30
0.0
 10
164.5715102933132
 20
145.1780011481456
 30
0.0
 10
164.5715102933132
 20
143.9005451981133
 30
0.0
 10
164.5715102933132
 20
142.6230892480804
 30
0.0
 10
163.5359276334184
 20
141.5875065881856
 30
0.0
 10
162.2584716833854
 20
141.5875065881856
 30
0.0
 10
160.9810157333524
 20
141.5875065881856
 30
0.0
 10
159.9454330734576
 20
142.6230892480804
 30
0.0
 10
159.9454330734576
 20
143.9005451981133
 30
0.0
 10
159.9454330734576
 20
143.9005451981133
 30
0.0
 10
159.9454330734576
 20
143.9005451981133
 30
0.0
 10
159.9454330734576
 20
143.9005451981133
 30
0.0
  0
SPLINE
  5
2F4
330
70
100
AcDbEntity
  8
0
 62
    18
420
        0
370
    35
100
AcDbSpline
210
0.0
220
0.0
230
1.0
 70
     9
 71
     3
 72
    20
 73
    16
 74
     0
 42
0.0000000001
 43
0.0000000001
 40
0.0
 40
0.0
 40
0.0
 40
0.0
 40
1.0
 40
1.0
 40
1.0
 40
2.0
 40
2.0
 40
2.0
 40
3.0
 40
3.0
 40
3.0
 40
4.0
 40
4.0
 40
4.0
 40
5.0
 40
5.0
 40
5.0
 40
5.0
 10
160.2102085514844
 20
143.9005451981133
 30
0.0
 10
160.2102085514844
 20
145.0317696895029
 30
0.0
 10
161.1272471919958
 20
145.9488083300144
 30
0.0
 10
162.2584716833854
 20
145.9488083300144
 30
0.0
 10
163.389696174775
 20
145.9488083300144
 30
0.0
 10
164.306734815287
 20
145.0317696895029
 30
0.0
 10
164.306734815287
 20
143.9005451981133
 30
0.0
 10
164.306734815287
 20
142.7693207067231
 30
0.0
 10
163.389696174775
 20
141.8522820662117
 30
0.0
 10
162.2584716833854
 20
141.8522820662117
 30
0.0
 10
161.1272471919958
 20
141.8522820662117
 30
0.0
 10
160.2102085514844
 20
142.7693207067231
 30
0.0
 10
160.2102085514844
 20
143.9005451981133
 30
0.0
 10
160.2102085514844
 20
143.9005451981133
 30
0.0
 10
160.2102085514844
 20
143.9005451981133
 30
0.0
 10
160.2102085514844
 20
143.9005451981133
 30
0.0
  0
SPLINE
  5
2F5
330
70
100
AcDbEntity
  8
0
 62
    18
420
        0
370
    35
100
AcDbSpline
210
0.0
220
0.0
230
1.0
 70
     9
 71
     3
 72
    20
 73
    16
 74
     0
 42
0.0000000001
 43
0.0000000001
 40
0.0
 40
0.0
 40
0.0
 40
0.0
 40
1.0
 40
1.0
 40
1.0
 40
2.0
 40
2.0
 40
2.0
 40
3.0
 40
3.0
 40
3.0
 40
4.0
 40
4.0
 40
4.0
 40
5.0
 40
5.0
 40
5.0
 40
5.0
 10
162.1585564086585
 20
155.6905476158871
 30
0.0
 10
162.1585564086585
 20
156.3803186472221
 30
0.0
 10
162.7177263114096
 20
156.9394885499731
 30
0.0
 10
163.4074973427451
 20
156.9394885499731
 30
0.0
 10
164.09726837408
 20
156.9394885499731
 30
0.0
 10
164.6564382768311
 20
156.3803186472221
 30
0.0
 10
164.6564382768311
 20
155.6905476158871
 30
0.0
 10
164.6564382768311
 20
155.0007765845516
 30
0.0
 10
164.09726837408
 20
154.4416066818009
 30
0.0
 10
163.4074973427451
 20
154.4416066818009
 30
0.0
 10
162.7177263114096
 20
154.4416066818009
 30
0.0
 10
162.1585564086585
 20
155.0007765845516
 30
0.0
 10
162.1585564086585
 20
155.6905476158871
 30
0.0
 10
162.1585564086585
 20
155.6905476158871
 30
0.0
 10
162.1585564086585
 20
155.6905476158871
 30
0.0
 10
162.1585564086585
 20
155.6905476158871
 30
0.0
  0
SPLINE
  5
2F6
330
70
100
AcDbEntity
  8
0
 62
    18
420
        0
370
    35
100
AcDbSpline
210
0.0
220
0.0
230
1.0
 70
     8
 71
     3
 72
     8
 73
     4
 74
     0
 42
0.0000000001
 43
0.0000000001
 40
0.0
 40
0.0
 40
0.0
 40
0.0
 40
1.0
 40
1.0
 40
1.0
 40
1.0
 10
161.758895309751
 20
140.6982899851351
 30
0.0
 10
161.758895309751
 20
140.6830458399049
 30
0.0
 10
161.7592441812731
 20
140.6678036909703
 30
0.0
 10
161.7599416503061
 20
140.6525755098332
 30
0.0
  0
SPLINE
  5
2F7
330
70
100
AcDbEntity
  8
0
 62
    18
420
        0
370
    35
100
AcDbSpline
210
0.0
220
0.0
230
1.0
 70
     9
 71
     3
 72
    20
 73
    16
 74
     0
 42
0.0000000001
 43
0.0000000001
 40
0.0
 40
0.0
 40
0.0
 40
0.0
 40
1.0
 40
1.0
 40
1.0
 40
2.0
 40
2.0
 40
2.0
 40
3.0
 40
3.0
 40
3.0
 40
4.0
 40
4.0
 40
4.0
 40
5.0
 40
5.0
 40
5.0
 40
5.0
 10
162.6581327822929
 20
155.6905476158871
 30
0.0
 10
162.6581327822929
 20
156.104410234688
 30
0.0
 10
162.9936347239439
 20
156.4399121763387
 30
0.0
 10
163.4074973427451
 20
156.4399121763387
 30
0.0
 10
163.8213599615457
 20
156.4399121763387
 30
0.0
 10
164.1568619031967
 20
156.104410234688
 30
0.0
 10
164.1568619031967
 20
155.6905476158871
 30
0.0
 10
164.1568619031967
 20
155.2766849970856
 30
0.0
 10
163.8213599615457
 20
154.9411830554353
 30
0.0
 10
163.4074973427451
 20
154.9411830554353
 30
0.0
 10
162.9936347239439
 20
154.9411830554353
 30
0.0
 10
162.6581327822929
 20
155.2766849970856
 30
0.0
 10
162.6581327822929
 20
155.6905476158871
 30
0.0
 10
162.6581327822929
 20
155.6905476158871
 30
0.0
 10
162.6581327822929
 20
155.6905476158871
 30
0.0
 10
162.6581327822929
 20
155.6905476158871
 30
0.0
  0
SPLINE
  5
2F8
330
70
100
AcDbEntity
  8
0
 62
    18
420
        0
370
    35
100
AcDbSpline
210
0.0
220
0.0
230
1.0
 70
     8
 71
     3
 72
    11
 73
     7
 74
     0
 42
0.0000000001
 43
0.0000000001
 40
0.0
 40
0.0
 40
0.0
 40
0.0
 40
1.0
 40
1.0
 40
1.0
 40
2.0
 40
2.0
 40
2.0
 40
2.0
 10
161.6340012163793
 20
143.9005451980851
 30
0.0
 10
161.7336364404527
 20
143.5556596824379
 30
0.0
 10
162.0939916996747
 20
143.3568450389416
 30
0.0
 10
162.438877215322
 20
143.4564802630156
 30
0.0
 10
162.6533283406867
 20
143.5184338242966
 30
0.0
 10
162.8209885891111
 20
143.686094072721
 30
0.0
 10
162.8829421503921
 20
143.9005451980851
 30
0.0
  0
SPLINE
  5
2F9
330
70
100
AcDbEntity
  8
0
 62
    18
420
        0
370
    35
100
AcDbSpline
210
0.0
220
0.0
230
1.0
 70
     8
 71
     3
 72
    11
 73
     7
 74
     0
 42
0.0000000001
 43
0.0000000001
 40
0.0
 40
0.0
 40
0.0
 40
0.0
 40
1.0
 40
1.0
 40
1.0
 40
2.0
 40
2.0
 40
2.0
 40
2.0
 10
162.8829421503921
 20
143.9005451980408
 30
0.0
 10
162.7833069263181
 20
144.2454307136881
 30
0.0
 10
162.4229516670961
 20
144.4442453571843
 30
0.0
 10
162.0780661514488
 20
144.344610133111
 30
0.0
 10
161.8636150260847
 20
144.2826565718299
 30
0.0
 10
161.6959547776597
 20
144.1149963234055
 30
0.0
 10
161.6340012163793
 20
143.9005451980408
 30
0.0
  0
SPLINE
  5
2FA
330
70
100
AcDbEntity
  8
0
 62
    18
420
        0
370
    35
100
AcDbSpline
210
0.0
220
0.0
230
1.0
 70
     9
 71
     3
 72
    20
 73
    16
 74
     0
 42
0.0000000001
 43
0.0000000001
 40
0.0
 40
0.0
 40
0.0
 40
0.0
 40
1.0
 40
1.0
 40
1.0
 40
2.0
 40
2.0
 40
2.0
 40
3.0
 40
3.0
 40
3.0
 40
4.0
 40
4.0
 40
4.0
 40
5.0
 40
5.0
 40
5.0
 40
5.0
 10
161.6240096888696
 20
143.9005451981133
 30
0.0
 10
161.6240096888696
 20
144.2509488820317
 30
0.0
 10
161.9080679994671
 20
144.5350071926291
 30
0.0
 10
162.2584716833854
 20
144.5350071926291
 30
0.0
 10
162.6088753673037
 20
144.5350071926291
 30
0.0
 10
162.8929336779011
 20
144.2509488820317
 30
0.0
 10
162.8929336779011
 20
143.9005451981133
 30
0.0
 10
162.8929336779011
 20
143.550141514195
 30
0.0
 10
162.6088753673037
 20
143.266083203597
 30
0.0
 10
162.2584716833854
 20
143.266083203597
 30
0.0
 10
161.9080679994671
 20
143.266083203597
 30
0.0
 10
161.6240096888696
 20
143.550141514195
 30
0.0
 10
161.6240096888696
 20
143.9005451981133
 30
0.0
 10
161.6240096888696
 20
143.9005451981133
 30
0.0
 10
161.6240096888696
 20
143.9005451981133
 30
0.0
 10
161.6240096888696
 20
143.9005451981133
 30
0.0
  0
SPLINE
  5
2FB
330
70
100
AcDbEntity
  8
0
 62
    18
420
        0
370
    35
100
AcDbSpline
210
0.0
220
0.0
230
1.0
 70
     8
 71
     3
 72
    11
 73
     7
 74
     0
 42
0.0000000001
 43
0.0000000001
 40
0.0
 40
0.0
 40
0.0
 40
0.0
 40
1.0
 40
1.0
 40
1.0
 40
2.0
 40
2.0
 40
2.0
 40
2.0
 10
162.8329845130877
 20
143.900545198096
 30
0.0
 10
162.731670287077
 20
144.2178398725231
 30
0.0
 10
162.3923207239393
 20
144.3929266199365
 30
0.0
 10
162.0750260495128
 20
144.2916123939257
 30
0.0
 10
161.8890602520372
 20
144.2322323212229
 30
0.0
 10
161.7433389263859
 20
144.0865109955716
 30
0.0
 10
161.6839588536831
 20
143.900545198096
 30
0.0
  0
SPLINE
  5
2FC
330
70
100
AcDbEntity
  8
0
 62
    18
420
        0
370
    35
100
AcDbSpline
210
0.0
220
0.0
230
1.0
 70
     8
 71
     3
 72
    11
 73
     7
 74
     0
 42
0.0000000001
 43
0.0000000001
 40
0.0
 40
0.0
 40
0.0
 40
0.0
 40
1.0
 40
1.0
 40
1.0
 40
2.0
 40
2.0
 40
2.0
 40
2.0
 10
161.6839588536831
 20
143.90054519813
 30
0.0
 10
161.7852730796938
 20
143.5832505237035
 30
0.0
 10
162.1246226428315
 20
143.4081637762896
 30
0.0
 10
162.4419173172586
 20
143.5094780023003
 30
0.0
 10
162.6278831147342
 20
143.5688580750039
 30
0.0
 10
162.7736044403848
 20
143.7145794006545
 30
0.0
 10
162.8329845130877
 20
143.90054519813
 30
0.0
  0
SPLINE
  5
2FD
330
70
100
AcDbEntity
  8
0
 62
    18
420
        0
370
    35
100
AcDbSpline
210
0.0
220
0.0
230
1.0
 70
     8
 71
     3
 72
     8
 73
     4
 74
     0
 42
0.0000000001
 43
0.0000000001
 40
0.0
 40
0.0
 40
0.0
 40
0.0
 40
1.0
 40
1.0
 40
1.0
 40
1.0
 10
158.3617759690365
 20
206.7472530013316
 30
0.0
 10
158.3617759690365
 20
206.6368896363182
 30
0.0
 10
158.4512431534769
 20
206.5474224518772
 30
0.0
 10
158.5616065184903
 20
206.5474224518772
 30
0.0
  0
SPLINE
  5
2FE
330
70
100
AcDbEntity
  8
0
 62
    18
420
        0
370
    35
100
AcDbSpline
210
0.0
220
0.0
230
1.0
 70
     8
 71
     3
 72
     8
 73
     4
 74
     0
 42
0.0000000001
 43
0.0000000001
 40
0.0
 40
0.0
 40
0.0
 40
0.0
 40
1.0
 40
1.0
 40
1.0
 40
1.0
 10
170.9511005846257
 20
113.3264711316824
 30
0.0
 10
170.9511005846257
 20
113.4368344966963
 30
0.0
 10
170.8616334001853
 20
113.5263016811361
 30
0.0
 10
170.7512700351719
 20
113.5263016811361
 30
0.0
  0
SPLINE
  5
2FF
330
70
100
AcDbEntity
  8
0
 62
    18
420
        0
370
    35
100
AcDbSpline
210
0.0
220
0.0
230
1.0
 70
     9
 71
     3
 72
    20
 73
    16
 74
     0
 42
0.0000000001
 43
0.0000000001
 40
0.0
 40
0.0
 40
0.0
 40
0.0
 40
1.0
 40
1.0
 40
1.0
 40
2.0
 40
2.0
 40
2.0
 40
3.0
 40
3.0
 40
3.0
 40
4.0
 40
4.0
 40
4.0
 40
5.0
 40
5.0
 40
5.0
 40
5.0
 10
165.3109007794923
 20
211.043609814588
 30
0.0
 10
165.3109007794923
 20
211.4574724333892
 30
0.0
 10
165.6464027211427
 20
211.7929743750399
 30
0.0
 10
166.0602653399439
 20
211.7929743750399
 30
0.0
 10
166.4741279587451
 20
211.7929743750399
 30
0.0
 10
166.8096299003961
 20
211.4574724333892
 30
0.0
 10
166.8096299003961
 20
211.043609814588
 30
0.0
 10
166.8096299003961
 20
210.6297471957868
 30
0.0
 10
166.4741279587451
 20
210.2942452541364
 30
0.0
 10
166.0602653399439
 20
210.2942452541364
 30
0.0
 10
165.6464027211427
 20
210.2942452541364
 30
0.0
 10
165.3109007794923
 20
210.6297471957868
 30
0.0
 10
165.3109007794923
 20
211.043609814588
 30
0.0
 10
165.3109007794923
 20
211.043609814588
 30
0.0
 10
165.3109007794923
 20
211.043609814588
 30
0.0
 10
165.3109007794923
 20
211.043609814588
 30
0.0
  0
SPLINE
  5
300
330
70
100
AcDbEntity
  8
0
 62
    18
420
        0
370
    35
100
AcDbSpline
210
0.0
220
0.0
230
1.0
 70
     9
 71
     3
 72
    20
 73
    16
 74
     0
 42
0.0000000001
 43
0.0000000001
 40
0.0
 40
0.0
 40
0.0
 40
0.0
 40
1.0
 40
1.0
 40
1.0
 40
2.0
 40
2.0
 40
2.0
 40
3.0
 40
3.0
 40
3.0
 40
4.0
 40
4.0
 40
4.0
 40
5.0
 40
5.0
 40
5.0
 40
5.0
 10
165.4907482740006
 20
211.043609814588
 30
0.0
 10
165.4907482740006
 20
211.358145404877
 30
0.0
 10
165.7457297496556
 20
211.6131268805313
 30
0.0
 10
166.0602653399439
 20
211.6131268805313
 30
0.0
 10
166.3748009302329
 20
211.6131268805313
 30
0.0
 10
166.6297824058872
 20
211.358145404877
 30
0.0
 10
166.6297824058872
 20
211.043609814588
 30
0.0
 10
166.6297824058872
 20
210.7290742242993
 30
0.0
 10
166.3748009302329
 20
210.4740927486447
 30
0.0
 10
166.0602653399439
 20
210.4740927486447
 30
0.0
 10
165.7457297496556
 20
210.4740927486447
 30
0.0
 10
165.4907482740006
 20
210.7290742242993
 30
0.0
 10
165.4907482740006
 20
211.043609814588
 30
0.0
 10
165.4907482740006
 20
211.043609814588
 30
0.0
 10
165.4907482740006
 20
211.043609814588
 30
0.0
 10
165.4907482740006
 20
211.043609814588
 30
0.0
  0
SPLINE
  5
301
330
70
100
AcDbEntity
  8
0
 62
    18
420
        0
370
    35
100
AcDbSpline
210
0.0
220
0.0
230
1.0
 70
     8
 71
     3
 72
     8
 73
     4
 74
     0
 42
0.0000000001
 43
0.0000000001
 40
0.0
 40
0.0
 40
0.0
 40
0.0
 40
1.0
 40
1.0
 40
1.0
 40
1.0
 10
166.1521564969149
 20
210.7210810254933
 30
0.0
 10
166.2092524866237
 20
210.7646340373148
 30
0.0
 10
166.2537636176346
 20
210.8225631342272
 30
0.0
 10
166.2811424276911
 20
210.8889500127456
 30
0.0
  0
SPLINE
  5
302
330
70
100
AcDbEntity
  8
0
 62
    18
420
        0
370
    35
100
AcDbSpline
210
0.0
220
0.0
230
1.0
 70
     8
 71
     3
 72
     8
 73
     4
 74
     0
 42
0.0000000001
 43
0.0000000001
 40
0.0
 40
0.0
 40
0.0
 40
0.0
 40
1.0
 40
1.0
 40
1.0
 40
1.0
 10
165.9948270550072
 20
211.3611762804918
 30
0.0
 10
165.9329836524504
 20
211.3172000584934
 30
0.0
 10
165.8853263189853
 20
211.2561233874355
 30
0.0
 10
165.8577053294911
 20
211.1854438608353
 30
0.0
  0
SPLINE
  5
303
330
70
100
AcDbEntity
  8
0
 62
    18
420
        0
370
    35
100
AcDbSpline
210
0.0
220
0.0
230
1.0
 70
     8
 71
     3
 72
    17
 73
    13
 74
     0
 42
0.0000000001
 43
0.0000000001
 40
0.0
 40
0.0
 40
0.0
 40
0.0
 40
1.0
 40
1.0
 40
1.0
 40
2.0
 40
2.0
 40
2.0
 40
3.0
 40
3.0
 40
3.0
 40
4.0
 40
4.0
 40
4.0
 40
4.0
 10
166.1521564968764
 20
210.721081025485
 30
0.0
 10
166.3302842284792
 20
210.6832556613519
 30
0.0
 10
166.5053488021652
 20
210.7969932026661
 30
0.0
 10
166.5431741662986
 20
210.9751209342695
 30
0.0
 10
166.5809995304313
 20
211.1532486658723
 30
0.0
 10
166.4672619891168
 20
211.3283132395582
 30
0.0
 10
166.289134257514
 20
211.3661386036916
 30
0.0
 10
166.1110065259106
 20
211.4039639678245
 30
0.0
 10
165.9359419522253
 20
211.2902264265099
 30
0.0
 10
165.8981165880919
 20
211.1120986949068
 30
0.0
 10
165.8922937412048
 20
211.0846776632446
 30
0.0
 10
165.8899915644814
 20
211.0566260040784
 30
0.0
 10
165.8912657669733
 20
211.0286225233787
 30
0.0
  0
SPLINE
  5
304
330
70
100
AcDbEntity
  8
0
 62
    18
420
        0
370
    35
100
AcDbSpline
210
0.0
220
0.0
230
1.0
 70
     8
 71
     3
 72
    17
 73
    13
 74
     0
 42
0.0000000001
 43
0.0000000001
 40
0.0
 40
0.0
 40
0.0
 40
0.0
 40
1.0
 40
1.0
 40
1.0
 40
2.0
 40
2.0
 40
2.0
 40
3.0
 40
3.0
 40
3.0
 40
4.0
 40
4.0
 40
4.0
 40
4.0
 10
165.9948270550528
 20
211.3611762804918
 30
0.0
 10
165.8194399388763
 20
211.410162058195
 30
0.0
 10
165.6375497701812
 20
211.307693527436
 30
0.0
 10
165.5885639924774
 20
211.1323064112596
 30
0.0
 10
165.5395782147737
 20
210.9569192950837
 30
0.0
 10
165.6420467455332
 20
210.7750291263879
 30
0.0
 10
165.8174338617097
 20
210.7260433486845
 30
0.0
 10
165.9928209778855
 20
210.6770575709808
 30
0.0
 10
166.1747111465813
 20
210.7795261017403
 30
0.0
 10
166.2236969242844
 20
210.9549132179165
 30
0.0
 10
166.2331135783204
 20
210.9886283056998
 30
0.0
 10
166.237101224764
 20
211.0236278515938
 30
0.0
 10
166.2355100686029
 20
211.0585971057973
 30
0.0
  0
SPLINE
  5
305
330
70
100
AcDbEntity
  8
0
 62
    18
420
        0
370
    35
100
AcDbSpline
210
0.0
220
0.0
230
1.0
 70
     8
 71
     3
 72
     8
 73
     4
 74
     0
 42
0.0000000001
 43
0.0000000001
 40
0.0
 40
0.0
 40
0.0
 40
0.0
 40
1.0
 40
1.0
 40
1.0
 40
1.0
 10
169.2525409142681
 20
206.5474224518772
 30
0.0
 10
169.3629042792821
 20
206.5474224518772
 30
0.0
 10
169.4523714637219
 20
206.6368896363182
 30
0.0
 10
169.4523714637219
 20
206.7472530013316
 30
0.0
  0
SPLINE
  5
306
330
70
100
AcDbEntity
  8
0
 62
    18
420
        0
370
    35
100
AcDbSpline
210
0.0
220
0.0
230
1.0
 70
     8
 71
     3
 72
     8
 73
     4
 74
     0
 42
0.0000000001
 43
0.0000000001
 40
0.0
 40
0.0
 40
0.0
 40
0.0
 40
1.0
 40
1.0
 40
1.0
 40
1.0
 10
167.3541506944574
 20
205.6481849793356
 30
0.0
 10
167.4645140594708
 20
205.6481849793356
 30
0.0
 10
167.5539812439112
 20
205.7376521637757
 30
0.0
 10
167.5539812439112
 20
205.8480155287894
 30
0.0
  0
SPLINE
  5
307
330
70
100
AcDbEntity
  8
0
 62
    18
420
        0
370
    35
100
AcDbSpline
210
0.0
220
0.0
230
1.0
 70
     8
 71
     3
 72
    14
 73
    10
 74
     0
 42
0.0000000001
 43
0.0000000001
 40
0.0
 40
0.0
 40
0.0
 40
0.0
 40
1.0
 40
1.0
 40
1.0
 40
2.0
 40
2.0
 40
2.0
 40
3.0
 40
3.0
 40
3.0
 40
3.0
 10
166.2811424276674
 20
210.8889500127126
 30
0.0
 10
166.366558677655
 20
210.922361611098
 30
0.0
 10
166.4087167774561
 20
211.0186906150725
 30
0.0
 10
166.3753051790707
 20
211.1041068650601
 30
0.0
 10
166.3418935806852
 20
211.1895231150478
 30
0.0
 10
166.2455645767107
 20
211.2316812148489
 30
0.0
 10
166.1601483267231
 20
211.1982696164637
 30
0.0
 10
166.1015444502765
 20
211.1753460019996
 30
0.0
 10
166.0609311252447
 20
211.1212681147926
 30
0.0
 10
166.0552521229978
 20
211.0585971057999
 30
0.0
  0
SPLINE
  5
308
330
70
100
AcDbEntity
  8
0
 62
    18
420
        0
370
    35
100
AcDbSpline
210
0.0
220
0.0
230
1.0
 70
     8
 71
     3
 72
    14
 73
    10
 74
     0
 42
0.0000000001
 43
0.0000000001
 40
0.0
 40
0.0
 40
0.0
 40
0.0
 40
1.0
 40
1.0
 40
1.0
 40
2.0
 40
2.0
 40
2.0
 40
3.0
 40
3.0
 40
3.0
 40
3.0
 10
165.857705329536
 20
211.1854438608349
 30
0.0
 10
165.7793725487872
 20
211.1586994006656
 30
0.0
 10
165.7375519519647
 20
211.0735174664922
 30
0.0
 10
165.7642964121343
 20
210.9951846857431
 30
0.0
 10
165.7910408723039
 20
210.9168519049943
 30
0.0
 10
165.876222806477
 20
210.8750313081714
 30
0.0
 10
165.9545555872259
 20
210.901775768341
 30
0.0
 10
166.0100438356993
 20
210.9207206243387
 30
0.0
 10
166.0493888020969
 20
210.9702832162649
 30
0.0
 10
166.0552521230735
 20
211.028622523379
 30
0.0
  0
SPLINE
  5
309
330
70
100
AcDbEntity
  8
0
 62
    18
420
        0
370
    35
100
AcDbSpline
210
0.0
220
0.0
230
1.0
 70
     8
 71
     3
 72
     8
 73
     4
 74
     0
 42
0.0000000001
 43
0.0000000001
 40
0.0
 40
0.0
 40
0.0
 40
0.0
 40
1.0
 40
1.0
 40
1.0
 40
1.0
 10
115.7163892844741
 20
113.5750775122375
 30
0.0
 10
116.7821551207634
 20
113.561947138116
 30
0.0
 10
117.8479182767259
 20
113.5485966276645
 30
0.0
 10
118.9136780757342
 20
113.534985037001
 30
0.0
  0
SPLINE
  5
30A
330
70
100
AcDbEntity
  8
0
 62
    18
420
        0
370
    35
100
AcDbSpline
210
0.0
220
0.0
230
1.0
 70
     8
 71
     3
 72
    26
 73
    22
 74
     0
 42
0.0000000001
 43
0.0000000001
 40
0.0
 40
0.0
 40
0.0
 40
0.0
 40
1.0
 40
1.0
 40
1.0
 40
2.0
 40
2.0
 40
2.0
 40
3.0
 40
3.0
 40
3.0
 40
4.0
 40
4.0
 40
4.0
 40
5.0
 40
5.0
 40
5.0
 40
6.0
 40
6.0
 40
6.0
 40
7.0
 40
7.0
 40
7.0
 40
7.0
 10
104.7837241190209
 20
214.230907078376
 30
0.0
 10
104.7859987498995
 20
214.2224180405357
 30
0.0
 10
104.7909292898541
 20
214.2147009077231
 30
0.0
 10
104.7967742237773
 20
214.2079978194506
 30
0.0
 10
104.8043990774329
 20
214.1992534832815
 30
0.0
 10
104.8135800298839
 20
214.1922348294118
 30
0.0
 10
104.8232639075602
 20
214.1860599064185
 30
0.0
 10
104.8357092927285
 20
214.1781241086308
 30
0.0
 10
104.8489853344837
 20
214.1715818591767
 30
0.0
 10
104.8625826383238
 20
214.165863396487
 30
0.0
 10
104.8792444780464
 20
214.1588561169618
 30
0.0
 10
104.8963887094106
 20
214.1530857958831
 30
0.0
 10
104.9137440652343
 20
214.1480776528493
 30
0.0
 10
104.9340125685114
 20
214.1422288782973
 30
0.0
 10
104.9545690203181
 20
214.1374196235052
 30
0.0
 10
104.9752650677841
 20
214.1333619497597
 30
0.0
 10
104.9984395105569
 20
214.1288183610304
 30
0.0
 10
105.0217889846187
 20
214.1252171382752
 30
0.0
 10
105.0452336482556
 20
214.1223385973899
 30
0.0
 10
105.0966508413451
 20
214.1160255832724
 30
0.0
 10
105.1485258790431
 20
214.1131885380052
 30
0.0
 10
105.2003068510713
 20
214.1131885506945
 30
0.0
  0
SPLINE
  5
30B
330
70
100
AcDbEntity
  8
0
 62
    18
420
        0
370
    35
100
AcDbSpline
210
0.0
220
0.0
230
1.0
 70
     8
 71
     3
 72
    26
 73
    22
 74
     0
 42
0.0000000001
 43
0.0000000001
 40
0.0
 40
0.0
 40
0.0
 40
0.0
 40
1.0
 40
1.0
 40
1.0
 40
2.0
 40
2.0
 40
2.0
 40
3.0
 40
3.0
 40
3.0
 40
4.0
 40
4.0
 40
4.0
 40
5.0
 40
5.0
 40
5.0
 40
6.0
 40
6.0
 40
6.0
 40
7.0
 40
7.0
 40
7.0
 40
7.0
 10
100.9769521519262
 20
214.230907078376
 30
0.0
 10
100.9792267828048
 20
214.2224180405357
 30
0.0
 10
100.984157322759
 20
214.2147009077231
 30
0.0
 10
100.9900022566829
 20
214.2079978194506
 30
0.0
 10
100.9976271103379
 20
214.1992534832815
 30
0.0
 10
101.0068080627891
 20
214.1922348294118
 30
0.0
 10
101.0164919404654
 20
214.1860599064185
 30
0.0
 10
101.0289373256338
 20
214.1781241086308
 30
0.0
 10
101.0422133673889
 20
214.1715818591767
 30
0.0
 10
101.0558106712291
 20
214.165863396487
 30
0.0
 10
101.0724725109517
 20
214.1588561169618
 30
0.0
 10
101.0896167423158
 20
214.1530857958831
 30
0.0
 10
101.1069720981395
 20
214.1480776528493
 30
0.0
 10
101.1272406014163
 20
214.1422288782973
 30
0.0
 10
101.1477970532237
 20
214.1374196235052
 30
0.0
 10
101.1684931006993
 20
214.1333619497597
 30
0.0
 10
101.1916675434843
 20
214.1288183610304
 30
0.0
 10
101.2150170175702
 20
214.1252171382752
 30
0.0
 10
101.2384616812141
 20
214.1223385973899
 30
0.0
 10
101.289878874319
 20
214.1160255832724
 30
0.0
 10
101.3417539119483
 20
214.1131885380052
 30
0.0
 10
101.3935348839765
 20
214.1131885506945
 30
0.0
  0
SPLINE
  5
30C
330
70
100
AcDbEntity
  8
0
 62
    18
420
        0
370
    35
100
AcDbSpline
210
0.0
220
0.0
230
1.0
 70
     8
 71
     3
 72
    26
 73
    22
 74
     0
 42
0.0000000001
 43
0.0000000001
 40
0.0
 40
0.0
 40
0.0
 40
0.0
 40
1.0
 40
1.0
 40
1.0
 40
2.0
 40
2.0
 40
2.0
 40
3.0
 40
3.0
 40
3.0
 40
4.0
 40
4.0
 40
4.0
 40
5.0
 40
5.0
 40
5.0
 40
6.0
 40
6.0
 40
6.0
 40
7.0
 40
7.0
 40
7.0
 40
7.0
 10
97.17018018483145
 20
214.230907078376
 30
0.0
 10
97.17245481571007
 20
214.2224180405357
 30
0.0
 10
97.17738535566429
 20
214.2147009077231
 30
0.0
 10
97.18323028958785
 20
214.2079978194506
 30
0.0
 10
97.19085514324316
 20
214.1992534832815
 30
0.0
 10
97.2000360956944
 20
214.1922348294118
 30
0.0
 10
97.20971997337068
 20
214.1860599064185
 30
0.0
 10
97.22216535853906
 20
214.1781241086308
 30
0.0
 10
97.23544140029419
 20
214.1715818591767
 30
0.0
 10
97.24903870412184
 20
214.165863396487
 30
0.0
 10
97.26570054382968
 20
214.1588561169618
 30
0.0
 10
97.28284477516012
 20
214.1530857958831
 30
0.0
 10
97.30020013096588
 20
214.1480776528625
 30
0.0
 10
97.3204686342218
 20
214.1422288783259
 30
0.0
 10
97.34102508602857
 20
214.1374196235678
 30
0.0
 10
97.36172113350477
 20
214.1333619498297
 30
0.0
 10
97.38489557628918
 20
214.1288183611084
 30
0.0
 10
97.40824505037565
 20
214.1252171383291
 30
0.0
 10
97.43168971401933
 20
214.1223385974268
 30
0.0
 10
97.48310690712418
 20
214.1160255832724
 30
0.0
 10
97.53498194475383
 20
214.1131885380052
 30
0.0
 10
97.58676291678201
 20
214.1131885506945
 30
0.0
  0
SPLINE
  5
30D
330
70
100
AcDbEntity
  8
0
 62
    18
420
        0
370
    35
100
AcDbSpline
210
0.0
220
0.0
230
1.0
 70
     8
 71
     3
 72
    26
 73
    22
 74
     0
 42
0.0000000001
 43
0.0000000001
 40
0.0
 40
0.0
 40
0.0
 40
0.0
 40
1.0
 40
1.0
 40
1.0
 40
2.0
 40
2.0
 40
2.0
 40
3.0
 40
3.0
 40
3.0
 40
4.0
 40
4.0
 40
4.0
 40
5.0
 40
5.0
 40
5.0
 40
6.0
 40
6.0
 40
6.0
 40
7.0
 40
7.0
 40
7.0
 40
7.0
 10
93.36340821773669
 20
214.230907078376
 30
0.0
 10
93.36568284861533
 20
214.2224180405357
 30
0.0
 10
93.37061338856953
 20
214.2147009077231
 30
0.0
 10
93.37645832249341
 20
214.2079978194506
 30
0.0
 10
93.3840831761484
 20
214.1992534832815
 30
0.0
 10
93.39326412859966
 20
214.1922348294118
 30
0.0
 10
93.40294800627594
 20
214.1860599064185
 30
0.0
 10
93.4153933914443
 20
214.1781241086308
 30
0.0
 10
93.42866943319945
 20
214.1715818591767
 30
0.0
 10
93.4422667370271
 20
214.165863396487
 30
0.0
 10
93.4589285767346
 20
214.1588561169618
 30
0.0
 10
93.47607280806537
 20
214.1530857958831
 30
0.0
 10
93.49342816387112
 20
214.1480776528625
 30
0.0
 10
93.51369666712706
 20
214.1422288783259
 30
0.0
 10
93.53425311893381
 20
214.1374196235678
 30
0.0
 10
93.55494916640971
 20
214.1333619498297
 30
0.0
 10
93.57812360919444
 20
214.1288183611084
 30
0.0
 10
93.60147308328089
 20
214.1252171383291
 30
0.0
 10
93.62491774692458
 20
214.1223385974268
 30
0.0
 10
93.67633494002944
 20
214.1160255832724
 30
0.0
 10
93.72820997765908
 20
214.1131885380052
 30
0.0
 10
93.77999094968727
 20
214.1131885506945
 30
0.0
  0
SPLINE
  5
30E
330
70
100
AcDbEntity
  8
0
 62
    18
420
        0
370
    35
100
AcDbSpline
210
0.0
220
0.0
230
1.0
 70
     8
 71
     3
 72
    26
 73
    22
 74
     0
 42
0.0000000001
 43
0.0000000001
 40
0.0
 40
0.0
 40
0.0
 40
0.0
 40
1.0
 40
1.0
 40
1.0
 40
2.0
 40
2.0
 40
2.0
 40
3.0
 40
3.0
 40
3.0
 40
4.0
 40
4.0
 40
4.0
 40
5.0
 40
5.0
 40
5.0
 40
6.0
 40
6.0
 40
6.0
 40
7.0
 40
7.0
 40
7.0
 40
7.0
 10
89.55663625064195
 20
214.230907078376
 30
0.0
 10
89.55891088152057
 20
214.2224180405357
 30
0.0
 10
89.5638414215181
 20
214.2147009077231
 30
0.0
 10
89.56968635545514
 20
214.2079978194506
 30
0.0
 10
89.57731120912843
 20
214.1992534832815
 30
0.0
 10
89.58649216154695
 20
214.1922348294118
 30
0.0
 10
89.59617603921618
 20
214.1860599064185
 30
0.0
 10
89.60862142437555
 20
214.1781241086308
 30
0.0
 10
89.62189746616374
 20
214.1715818591767
 30
0.0
 10
89.63549477003438
 20
214.165863396487
 30
0.0
 10
89.65215660979451
 20
214.1588561169618
 30
0.0
 10
89.66930084119201
 20
214.1530857958831
 30
0.0
 10
89.68665619704527
 20
214.1480776528499
 30
0.0
 10
89.70692470035636
 20
214.142228878298
 30
0.0
 10
89.72748115219202
 20
214.1374196235074
 30
0.0
 10
89.74817719968298
 20
214.1333619497623
 30
0.0
 10
89.77135164249979
 20
214.1288183610304
 30
0.0
 10
89.79470111660036
 20
214.125217138273
 30
0.0
 10
89.8181457802787
 20
214.1223385973764
 30
0.0
 10
89.86956297341212
 20
214.1160255832402
 30
0.0
 10
89.921438011164
 20
214.1131885379055
 30
0.0
 10
89.97321898319187
 20
214.1131885505947
 30
0.0
  0
SPLINE
  5
30F
330
70
100
AcDbEntity
  8
0
 62
    18
420
        0
370
    35
100
AcDbSpline
210
0.0
220
0.0
230
1.0
 70
     8
 71
     3
 72
    26
 73
    22
 74
     0
 42
0.0000000001
 43
0.0000000001
 40
0.0
 40
0.0
 40
0.0
 40
0.0
 40
1.0
 40
1.0
 40
1.0
 40
2.0
 40
2.0
 40
2.0
 40
3.0
 40
3.0
 40
3.0
 40
4.0
 40
4.0
 40
4.0
 40
5.0
 40
5.0
 40
5.0
 40
6.0
 40
6.0
 40
6.0
 40
7.0
 40
7.0
 40
7.0
 40
7.0
 10
85.74986428354719
 20
214.230907078376
 30
0.0
 10
85.75213891442583
 20
214.2224180405357
 30
0.0
 10
85.75706945442336
 20
214.2147009077231
 30
0.0
 10
85.7629143883607
 20
214.2079978194506
 30
0.0
 10
85.77053924203367
 20
214.1992534832815
 30
0.0
 10
85.77972019445219
 20
214.1922348294118
 30
0.0
 10
85.78940407212142
 20
214.1860599064185
 30
0.0
 10
85.80184945728049
 20
214.1781241086308
 30
0.0
 10
85.8151254990693
 20
214.1715818591767
 30
0.0
 10
85.82872280293964
 20
214.165863396487
 30
0.0
 10
85.84538464269975
 20
214.1588561169618
 30
0.0
 10
85.86252887409726
 20
214.1530857958831
 30
0.0
 10
85.87988422995083
 20
214.1480776528499
 30
0.0
 10
85.90015273326162
 20
214.142228878298
 30
0.0
 10
85.92070918509726
 20
214.1374196235074
 30
0.0
 10
85.94140523258824
 20
214.1333619497623
 30
0.0
 10
85.96457967540473
 20
214.1288183610304
 30
0.0
 10
85.98792914950562
 20
214.125217138273
 30
0.0
 10
86.01137381318395
 20
214.1223385973764
 30
0.0
 10
86.06279100631706
 20
214.1160255832402
 30
0.0
 10
86.11466604406894
 20
214.1131885379055
 30
0.0
 10
86.16644701609713
 20
214.1131885505947
 30
0.0
  0
SPLINE
  5
310
330
70
100
AcDbEntity
  8
0
 62
    18
420
        0
370
    35
100
AcDbSpline
210
0.0
220
0.0
230
1.0
 70
     8
 71
     3
 72
    26
 73
    22
 74
     0
 42
0.0000000001
 43
0.0000000001
 40
0.0
 40
0.0
 40
0.0
 40
0.0
 40
1.0
 40
1.0
 40
1.0
 40
2.0
 40
2.0
 40
2.0
 40
3.0
 40
3.0
 40
3.0
 40
4.0
 40
4.0
 40
4.0
 40
5.0
 40
5.0
 40
5.0
 40
6.0
 40
6.0
 40
6.0
 40
7.0
 40
7.0
 40
7.0
 40
7.0
 10
81.94309231645247
 20
214.230907078376
 30
0.0
 10
81.94536694733075
 20
214.2224180405357
 30
0.0
 10
81.95029748732862
 20
214.2147009077231
 30
0.0
 10
81.95614242126564
 20
214.2079978194506
 30
0.0
 10
81.96376727493893
 20
214.1992534832815
 30
0.0
 10
81.97294822735745
 20
214.1922348294118
 30
0.0
 10
81.98263210502668
 20
214.1860599064185
 30
0.0
 10
81.99507749018607
 20
214.1781241086308
 30
0.0
 10
82.00835353197424
 20
214.1715818591767
 30
0.0
 10
82.0219508358449
 20
214.165863396487
 30
0.0
 10
82.03861267560501
 20
214.1588561169618
 30
0.0
 10
82.05575690700252
 20
214.1530857958831
 30
0.0
 10
82.07311226285769
 20
214.1480776528493
 30
0.0
 10
82.09338076617106
 20
214.1422288782973
 30
0.0
 10
82.11393721801149
 20
214.1374196235052
 30
0.0
 10
82.13463326550536
 20
214.1333619497597
 30
0.0
 10
82.15780770831029
 20
214.1288183610304
 30
0.0
 10
82.18115718239644
 20
214.1252171382752
 30
0.0
 10
82.20460184604974
 20
214.1223385973799
 30
0.0
 10
82.25601903917612
 20
214.1160255832409
 30
0.0
 10
82.30789407687408
 20
214.1131885379055
 30
0.0
 10
82.35967504900237
 20
214.1131885505947
 30
0.0
  0
SPLINE
  5
311
330
70
100
AcDbEntity
  8
0
 62
    18
420
        0
370
    35
100
AcDbSpline
210
0.0
220
0.0
230
1.0
 70
     8
 71
     3
 72
    26
 73
    22
 74
     0
 42
0.0000000001
 43
0.0000000001
 40
0.0
 40
0.0
 40
0.0
 40
0.0
 40
1.0
 40
1.0
 40
1.0
 40
2.0
 40
2.0
 40
2.0
 40
3.0
 40
3.0
 40
3.0
 40
4.0
 40
4.0
 40
4.0
 40
5.0
 40
5.0
 40
5.0
 40
6.0
 40
6.0
 40
6.0
 40
7.0
 40
7.0
 40
7.0
 40
7.0
 10
78.13632034935739
 20
214.230907078376
 30
0.0
 10
78.13859498023602
 20
214.2224180405357
 30
0.0
 10
78.14352552023386
 20
214.2147009077231
 30
0.0
 10
78.14937045417058
 20
214.2079978194506
 30
0.0
 10
78.15699530784418
 20
214.1992534832815
 30
0.0
 10
78.1661762602627
 20
214.1922348294118
 30
0.0
 10
78.17586013793129
 20
214.1860599064185
 30
0.0
 10
78.188305523091
 20
214.1781241086308
 30
0.0
 10
78.20158156487917
 20
214.1715818591767
 30
0.0
 10
78.21517886873762
 20
214.165863396487
 30
0.0
 10
78.23184070848268
 20
214.1588561169618
 30
0.0
 10
78.24898493984682
 20
214.1530857958831
 30
0.0
 10
78.2663402956975
 20
214.1480776528493
 30
0.0
 10
78.28660879900508
 20
214.1422288782973
 30
0.0
 10
78.30716525087922
 20
214.1374196235052
 30
0.0
 10
78.32786129839073
 20
214.1333619497597
 30
0.0
 10
78.35103574121491
 20
214.1288183610304
 30
0.0
 10
78.37438521530137
 20
214.1252171382752
 30
0.0
 10
78.397829878955
 20
214.1223385973799
 30
0.0
 10
78.44924707208136
 20
214.1160255832409
 30
0.0
 10
78.50112210977934
 20
214.1131885379055
 30
0.0
 10
78.55290308190763
 20
214.1131885505947
 30
0.0
  0
SPLINE
  5
312
330
70
100
AcDbEntity
  8
0
 62
    18
420
        0
370
    35
100
AcDbSpline
210
0.0
220
0.0
230
1.0
 70
     8
 71
     3
 72
    26
 73
    22
 74
     0
 42
0.0000000001
 43
0.0000000001
 40
0.0
 40
0.0
 40
0.0
 40
0.0
 40
1.0
 40
1.0
 40
1.0
 40
2.0
 40
2.0
 40
2.0
 40
3.0
 40
3.0
 40
3.0
 40
4.0
 40
4.0
 40
4.0
 40
5.0
 40
5.0
 40
5.0
 40
6.0
 40
6.0
 40
6.0
 40
7.0
 40
7.0
 40
7.0
 40
7.0
 10
108.590496086116
 20
214.230907078376
 30
0.0
 10
108.5927707169943
 20
214.2224180405357
 30
0.0
 10
108.5977012569485
 20
214.2147009077231
 30
0.0
 10
108.6035461908721
 20
214.2079978194506
 30
0.0
 10
108.6111710445277
 20
214.1992534832815
 30
0.0
 10
108.6203519969789
 20
214.1922348294118
 30
0.0
 10
108.6300358746552
 20
214.1860599064185
 30
0.0
 10
108.6424812598236
 20
214.1781241086308
 30
0.0
 10
108.6557573015784
 20
214.1715818591767
 30
0.0
 10
108.6693546054186
 20
214.165863396487
 30
0.0
 10
108.6860164451408
 20
214.1588561169618
 30
0.0
 10
108.703160676505
 20
214.1530857958831
 30
0.0
 10
108.7205160323293
 20
214.1480776528493
 30
0.0
 10
108.7407845356061
 20
214.1422288782973
 30
0.0
 10
108.7613409874129
 20
214.1374196235052
 30
0.0
 10
108.7820370348888
 20
214.1333619497597
 30
0.0
 10
108.8052114776738
 20
214.1288183610304
 30
0.0
 10
108.8285609517597
 20
214.1252171382752
 30
0.0
 10
108.8520056154033
 20
214.1223385973899
 30
0.0
 10
108.9034228085085
 20
214.1160255832724
 30
0.0
 10
108.9552978461381
 20
214.1131885380052
 30
0.0
 10
109.0070788181663
 20
214.1131885506945
 30
0.0
  0
SPLINE
  5
313
330
70
100
AcDbEntity
  8
0
 62
    18
420
        0
370
    35
100
AcDbSpline
210
0.0
220
0.0
230
1.0
 70
     8
 71
     3
 72
    26
 73
    22
 74
     0
 42
0.0000000001
 43
0.0000000001
 40
0.0
 40
0.0
 40
0.0
 40
0.0
 40
1.0
 40
1.0
 40
1.0
 40
2.0
 40
2.0
 40
2.0
 40
3.0
 40
3.0
 40
3.0
 40
4.0
 40
4.0
 40
4.0
 40
5.0
 40
5.0
 40
5.0
 40
6.0
 40
6.0
 40
6.0
 40
7.0
 40
7.0
 40
7.0
 40
7.0
 10
109.0070788181663
 20
214.1131885506945
 30
0.0
 10
109.058864452541
 20
214.1131885555903
 30
0.0
 10
109.1107441110608
 20
214.1160269917296
 30
0.0
 10
109.1621658995493
 20
214.1223408463329
 30
0.0
 10
109.1856086114647
 20
214.1252192735307
 30
0.0
 10
109.20895616138
 20
214.1288200187495
 30
0.0
 10
109.2321287391047
 20
214.1333630513956
 30
0.0
 10
109.2528225660876
 20
214.13742011974
 30
0.0
 10
109.2733768520292
 20
214.1422286661853
 30
0.0
 10
109.293643059224
 20
214.1480769453941
 30
0.0
 10
109.3109959210934
 20
214.1530845119466
 30
0.0
 10
109.3281375758787
 20
214.1588543663388
 30
0.0
 10
109.3447970595779
 20
214.1658609893545
 30
0.0
 10
109.358393352873
 20
214.1715792999125
 30
0.0
 10
109.3716684878775
 20
214.1781213813428
 30
0.0
 10
109.384112538797
 20
214.1860567935185
 30
0.0
 10
109.3937971599497
 20
214.192232552611
 30
0.0
 10
109.4029784118549
 20
214.1992522213168
 30
0.0
 10
109.4106056004268
 20
214.207996627478
 30
0.0
 10
109.4164524941538
 20
214.2146999642375
 30
0.0
 10
109.4213861369013
 20
214.2224168492458
 30
0.0
 10
109.4236610869093
 20
214.230907078376
 30
0.0
  0
SPLINE
  5
314
330
70
100
AcDbEntity
  8
0
 62
    18
420
        0
370
    35
100
AcDbSpline
210
0.0
220
0.0
230
1.0
 70
     8
 71
     3
 72
    26
 73
    22
 74
     0
 42
0.0000000001
 43
0.0000000001
 40
0.0
 40
0.0
 40
0.0
 40
0.0
 40
1.0
 40
1.0
 40
1.0
 40
2.0
 40
2.0
 40
2.0
 40
3.0
 40
3.0
 40
3.0
 40
4.0
 40
4.0
 40
4.0
 40
5.0
 40
5.0
 40
5.0
 40
6.0
 40
6.0
 40
6.0
 40
7.0
 40
7.0
 40
7.0
 40
7.0
 10
78.55290308190763
 20
214.1131885505947
 30
0.0
 10
78.60468871618221
 20
214.1131885555903
 30
0.0
 10
78.65656837463818
 20
214.1160269917299
 30
0.0
 10
78.70799016307981
 20
214.1223408463721
 30
0.0
 10
78.73143287496763
 20
214.1252192735872
 30
0.0
 10
78.75478042485823
 20
214.1288200188297
 30
0.0
 10
78.77795300257391
 20
214.1333630514883
 30
0.0
 10
78.79864682953497
 20
214.1374201198414
 30
0.0
 10
78.81920111546631
 20
214.1422286662844
 30
0.0
 10
78.83946732263098
 20
214.14807694549
 30
0.0
 10
78.85682018448754
 20
214.1530845120432
 30
0.0
 10
78.87396183924394
 20
214.1588543664377
 30
0.0
 10
78.89062132293002
 20
214.1658609894537
 30
0.0
 10
78.90421761621451
 20
214.1715793000123
 30
0.0
 10
78.91749275121937
 20
214.1781213814426
 30
0.0
 10
78.92993680211512
 20
214.1860567935945
 30
0.0
 10
78.93962142324949
 20
214.1922325526687
 30
0.0
 10
78.94880267512167
 20
214.1992522213418
 30
0.0
 10
78.95642986367947
 20
214.2079966274888
 30
0.0
 10
78.96227675739521
 20
214.2146999642375
 30
0.0
 10
78.96721040014333
 20
214.2224168492458
 30
0.0
 10
78.96948535015138
 20
214.230907078376
 30
0.0
  0
SPLINE
  5
315
330
70
100
AcDbEntity
  8
0
 62
    18
420
        0
370
    35
100
AcDbSpline
210
0.0
220
0.0
230
1.0
 70
     8
 71
     3
 72
    26
 73
    22
 74
     0
 42
0.0000000001
 43
0.0000000001
 40
0.0
 40
0.0
 40
0.0
 40
0.0
 40
1.0
 40
1.0
 40
1.0
 40
2.0
 40
2.0
 40
2.0
 40
3.0
 40
3.0
 40
3.0
 40
4.0
 40
4.0
 40
4.0
 40
5.0
 40
5.0
 40
5.0
 40
6.0
 40
6.0
 40
6.0
 40
7.0
 40
7.0
 40
7.0
 40
7.0
 10
82.35967504900237
 20
214.1131885505947
 30
0.0
 10
82.41146068327696
 20
214.1131885555903
 30
0.0
 10
82.46334034173292
 20
214.1160269917299
 30
0.0
 10
82.51476213017456
 20
214.1223408463721
 30
0.0
 10
82.53820484206238
 20
214.1252192735872
 30
0.0
 10
82.56155239195299
 20
214.1288200188297
 30
0.0
 10
82.58472496966897
 20
214.1333630514883
 30
0.0
 10
82.60541879662971
 20
214.1374201198414
 30
0.0
 10
82.62597308256138
 20
214.1422286662844
 30
0.0
 10
82.64623928972573
 20
214.14807694549
 30
0.0
 10
82.6635921515823
 20
214.1530845120432
 30
0.0
 10
82.6807338063387
 20
214.1588543664377
 30
0.0
 10
82.69739329002508
 20
214.1658609894537
 30
0.0
 10
82.71098958330926
 20
214.1715793000123
 30
0.0
 10
82.72426471831412
 20
214.1781213814426
 30
0.0
 10
82.73670876920986
 20
214.1860567935945
 30
0.0
 10
82.74639339034424
 20
214.1922325526687
 30
0.0
 10
82.75557464221641
 20
214.1992522213418
 30
0.0
 10
82.76320183077421
 20
214.2079966274888
 30
0.0
 10
82.76904872448964
 20
214.2146999642375
 30
0.0
 10
82.77398236723806
 20
214.2224168492458
 30
0.0
 10
82.77625731724613
 20
214.230907078376
 30
0.0
  0
SPLINE
  5
316
330
70
100
AcDbEntity
  8
0
 62
    18
420
        0
370
    35
100
AcDbSpline
210
0.0
220
0.0
230
1.0
 70
     8
 71
     3
 72
    26
 73
    22
 74
     0
 42
0.0000000001
 43
0.0000000001
 40
0.0
 40
0.0
 40
0.0
 40
0.0
 40
1.0
 40
1.0
 40
1.0
 40
2.0
 40
2.0
 40
2.0
 40
3.0
 40
3.0
 40
3.0
 40
4.0
 40
4.0
 40
4.0
 40
5.0
 40
5.0
 40
5.0
 40
6.0
 40
6.0
 40
6.0
 40
7.0
 40
7.0
 40
7.0
 40
7.0
 10
86.16644701609713
 20
214.1131885505947
 30
0.0
 10
86.2182326503717
 20
214.1131885555903
 30
0.0
 10
86.270112308828
 20
214.1160269917299
 30
0.0
 10
86.3215340972693
 20
214.1223408463721
 30
0.0
 10
86.34497680915712
 20
214.1252192735872
 30
0.0
 10
86.36832435904773
 20
214.1288200188297
 30
0.0
 10
86.39149693676404
 20
214.1333630514883
 30
0.0
 10
86.41219076372447
 20
214.1374201198414
 30
0.0
 10
86.43274504965612
 20
214.1422286662844
 30
0.0
 10
86.45301125682047
 20
214.14807694549
 30
0.0
 10
86.47036411867704
 20
214.1530845120432
 30
0.0
 10
86.48750577343344
 20
214.1588543664377
 30
0.0
 10
86.50416525711982
 20
214.1658609894537
 30
0.0
 10
86.51776155040431
 20
214.1715793000123
 30
0.0
 10
86.53103668540886
 20
214.1781213814426
 30
0.0
 10
86.54348073630462
 20
214.1860567935945
 30
0.0
 10
86.55316535743898
 20
214.1922325526687
 30
0.0
 10
86.56234660931117
 20
214.1992522213418
 30
0.0
 10
86.56997379786897
 20
214.2079966274888
 30
0.0
 10
86.5758206915847
 20
214.2146999642375
 30
0.0
 10
86.5807543343328
 20
214.2224168492458
 30
0.0
 10
86.58302928434087
 20
214.230907078376
 30
0.0
  0
SPLINE
  5
317
330
70
100
AcDbEntity
  8
0
 62
    18
420
        0
370
    35
100
AcDbSpline
210
0.0
220
0.0
230
1.0
 70
     8
 71
     3
 72
    26
 73
    22
 74
     0
 42
0.0000000001
 43
0.0000000001
 40
0.0
 40
0.0
 40
0.0
 40
0.0
 40
1.0
 40
1.0
 40
1.0
 40
2.0
 40
2.0
 40
2.0
 40
3.0
 40
3.0
 40
3.0
 40
4.0
 40
4.0
 40
4.0
 40
5.0
 40
5.0
 40
5.0
 40
6.0
 40
6.0
 40
6.0
 40
7.0
 40
7.0
 40
7.0
 40
7.0
 10
89.97321898319187
 20
214.1131885505947
 30
0.0
 10
90.02500461746675
 20
214.1131885555903
 30
0.0
 10
90.07688427592242
 20
214.1160269917299
 30
0.0
 10
90.12830606436406
 20
214.1223408463721
 30
0.0
 10
90.15174877625186
 20
214.1252192735872
 30
0.0
 10
90.17509632614247
 20
214.1288200188297
 30
0.0
 10
90.19826890385846
 20
214.1333630514883
 30
0.0
 10
90.21896273081921
 20
214.1374201198414
 30
0.0
 10
90.23951701675086
 20
214.1422286662844
 30
0.0
 10
90.25978322391521
 20
214.14807694549
 30
0.0
 10
90.27713608577178
 20
214.1530845120432
 30
0.0
 10
90.29427774052882
 20
214.1588543664377
 30
0.0
 10
90.31093722421458
 20
214.1658609894537
 30
0.0
 10
90.32453351749905
 20
214.1715793000123
 30
0.0
 10
90.33780865250362
 20
214.1781213814426
 30
0.0
 10
90.35025270339936
 20
214.1860567935945
 30
0.0
 10
90.35993732453372
 20
214.1922325526687
 30
0.0
 10
90.36911857640591
 20
214.1992522213418
 30
0.0
 10
90.37674576496371
 20
214.2079966274888
 30
0.0
 10
90.38259265867976
 20
214.2146999642375
 30
0.0
 10
90.38752630142756
 20
214.2224168492458
 30
0.0
 10
90.38980125143595
 20
214.230907078376
 30
0.0
  0
SPLINE
  5
318
330
70
100
AcDbEntity
  8
0
 62
    18
420
        0
370
    35
100
AcDbSpline
210
0.0
220
0.0
230
1.0
 70
     8
 71
     3
 72
    26
 73
    22
 74
     0
 42
0.0000000001
 43
0.0000000001
 40
0.0
 40
0.0
 40
0.0
 40
0.0
 40
1.0
 40
1.0
 40
1.0
 40
2.0
 40
2.0
 40
2.0
 40
3.0
 40
3.0
 40
3.0
 40
4.0
 40
4.0
 40
4.0
 40
5.0
 40
5.0
 40
5.0
 40
6.0
 40
6.0
 40
6.0
 40
7.0
 40
7.0
 40
7.0
 40
7.0
 10
93.77999094968727
 20
214.1131885506945
 30
0.0
 10
93.83177658396183
 20
214.1131885555903
 30
0.0
 10
93.88365624255065
 20
214.1160269916609
 30
0.0
 10
93.93507803105999
 20
214.1223408462797
 30
0.0
 10
93.95852074298598
 20
214.1252192734845
 30
0.0
 10
93.98186829290096
 20
214.1288200187277
 30
0.0
 10
94.00504087064552
 20
214.1333630513847
 30
0.0
 10
94.02573469764638
 20
214.13742011974
 30
0.0
 10
94.04628898362133
 20
214.1422286661853
 30
0.0
 10
94.06655519083125
 20
214.1480769453941
 30
0.0
 10
94.08390805271444
 20
214.1530845119466
 30
0.0
 10
94.10104970749973
 20
214.1588543663388
 30
0.0
 10
94.11770919119893
 20
214.1658609893545
 30
0.0
 10
94.1313054844937
 20
214.1715792999125
 30
0.0
 10
94.14458061949856
 20
214.1781213813428
 30
0.0
 10
94.15702467039432
 20
214.1860567934947
 30
0.0
 10
94.166709291529
 20
214.1922325525686
 30
0.0
 10
94.17589054340087
 20
214.1992522212417
 30
0.0
 10
94.18351773199075
 20
214.2079966274208
 30
0.0
 10
94.18936462573119
 20
214.2146999641942
 30
0.0
 10
94.1942982685223
 20
214.2224168492458
 30
0.0
 10
94.19657321853037
 20
214.230907078376
 30
0.0
  0
SPLINE
  5
319
330
70
100
AcDbEntity
  8
0
 62
    18
420
        0
370
    35
100
AcDbSpline
210
0.0
220
0.0
230
1.0
 70
     8
 71
     3
 72
    26
 73
    22
 74
     0
 42
0.0000000001
 43
0.0000000001
 40
0.0
 40
0.0
 40
0.0
 40
0.0
 40
1.0
 40
1.0
 40
1.0
 40
2.0
 40
2.0
 40
2.0
 40
3.0
 40
3.0
 40
3.0
 40
4.0
 40
4.0
 40
4.0
 40
5.0
 40
5.0
 40
5.0
 40
6.0
 40
6.0
 40
6.0
 40
7.0
 40
7.0
 40
7.0
 40
7.0
 10
97.58676291678201
 20
214.1131885506945
 30
0.0
 10
97.63854855105659
 20
214.1131885555903
 30
0.0
 10
97.69042820964541
 20
214.1160269916609
 30
0.0
 10
97.74184999815505
 20
214.1223408462797
 30
0.0
 10
97.76529271008072
 20
214.1252192734845
 30
0.0
 10
97.78864025999602
 20
214.1288200187277
 30
0.0
 10
97.81181283774026
 20
214.1333630513847
 30
0.0
 10
97.83250666474145
 20
214.13742011974
 30
0.0
 10
97.85306095071609
 20
214.1422286661853
 30
0.0
 10
97.87332715792601
 20
214.1480769453941
 30
0.0
 10
97.8906800198092
 20
214.1530845119466
 30
0.0
 10
97.90782167459447
 20
214.1588543663388
 30
0.0
 10
97.92448115829369
 20
214.1658609893545
 30
0.0
 10
97.93807745158844
 20
214.1715792999125
 30
0.0
 10
97.95135258659332
 20
214.1781213813428
 30
0.0
 10
97.96379663748908
 20
214.1860567934947
 30
0.0
 10
97.97348125862342
 20
214.1922325525686
 30
0.0
 10
97.98266251049561
 20
214.1992522212417
 30
0.0
 10
97.99028969908549
 20
214.2079966274208
 30
0.0
 10
97.99613659282595
 20
214.2146999641942
 30
0.0
 10
98.00107023561738
 20
214.2224168492458
 30
0.0
 10
98.00334518562513
 20
214.230907078376
 30
0.0
  0
SPLINE
  5
31A
330
70
100
AcDbEntity
  8
0
 62
    18
420
        0
370
    35
100
AcDbSpline
210
0.0
220
0.0
230
1.0
 70
     8
 71
     3
 72
    26
 73
    22
 74
     0
 42
0.0000000001
 43
0.0000000001
 40
0.0
 40
0.0
 40
0.0
 40
0.0
 40
1.0
 40
1.0
 40
1.0
 40
2.0
 40
2.0
 40
2.0
 40
3.0
 40
3.0
 40
3.0
 40
4.0
 40
4.0
 40
4.0
 40
5.0
 40
5.0
 40
5.0
 40
6.0
 40
6.0
 40
6.0
 40
7.0
 40
7.0
 40
7.0
 40
7.0
 10
101.3935348839765
 20
214.1131885506945
 30
0.0
 10
101.4453205183509
 20
214.1131885555903
 30
0.0
 10
101.4972001768714
 20
214.1160269917296
 30
0.0
 10
101.5486219653595
 20
214.1223408463698
 30
0.0
 10
101.5720646772755
 20
214.1252192735846
 30
0.0
 10
101.5954122271905
 20
214.1288200188275
 30
0.0
 10
101.6185848049149
 20
214.1333630514652
 30
0.0
 10
101.6392786318984
 20
214.1374201198026
 30
0.0
 10
101.6598329178393
 20
214.1422286662141
 30
0.0
 10
101.6800991250342
 20
214.1480769454076
 30
0.0
 10
101.6974519869039
 20
214.1530845119466
 30
0.0
 10
101.7145936416892
 20
214.1588543663388
 30
0.0
 10
101.7312531253884
 20
214.1658609893545
 30
0.0
 10
101.7448494186835
 20
214.1715792999125
 30
0.0
 10
101.758124553688
 20
214.1781213813428
 30
0.0
 10
101.7705686046075
 20
214.1860567935185
 30
0.0
 10
101.7802532257602
 20
214.192232552611
 30
0.0
 10
101.7894344776654
 20
214.1992522213168
 30
0.0
 10
101.797061666237
 20
214.207996627478
 30
0.0
 10
101.802908559964
 20
214.2146999642375
 30
0.0
 10
101.8078422027121
 20
214.2224168492458
 30
0.0
 10
101.8101171527199
 20
214.230907078376
 30
0.0
  0
SPLINE
  5
31B
330
70
100
AcDbEntity
  8
0
 62
    18
420
        0
370
    35
100
AcDbSpline
210
0.0
220
0.0
230
1.0
 70
     8
 71
     3
 72
    26
 73
    22
 74
     0
 42
0.0000000001
 43
0.0000000001
 40
0.0
 40
0.0
 40
0.0
 40
0.0
 40
1.0
 40
1.0
 40
1.0
 40
2.0
 40
2.0
 40
2.0
 40
3.0
 40
3.0
 40
3.0
 40
4.0
 40
4.0
 40
4.0
 40
5.0
 40
5.0
 40
5.0
 40
6.0
 40
6.0
 40
6.0
 40
7.0
 40
7.0
 40
7.0
 40
7.0
 10
105.2003068510713
 20
214.1131885506945
 30
0.0
 10
105.252092485446
 20
214.1131885555903
 30
0.0
 10
105.3039721439658
 20
214.1160269917296
 30
0.0
 10
105.3553939324542
 20
214.1223408463329
 30
0.0
 10
105.3788366443703
 20
214.1252192735307
 30
0.0
 10
105.4021841942856
 20
214.1288200187495
 30
0.0
 10
105.4253567720096
 20
214.1333630513956
 30
0.0
 10
105.4460505989931
 20
214.13742011974
 30
0.0
 10
105.4666048849341
 20
214.1422286661853
 30
0.0
 10
105.4868710921289
 20
214.1480769453941
 30
0.0
 10
105.504223953999
 20
214.1530845119466
 30
0.0
 10
105.5213656087843
 20
214.1588543663388
 30
0.0
 10
105.5380250924835
 20
214.1658609893545
 30
0.0
 10
105.5516213857779
 20
214.1715792999125
 30
0.0
 10
105.5648965207831
 20
214.1781213813428
 30
0.0
 10
105.577340571702
 20
214.1860567935185
 30
0.0
 10
105.5870251928552
 20
214.192232552611
 30
0.0
 10
105.5962064447598
 20
214.1992522213168
 30
0.0
 10
105.6038336333317
 20
214.207996627478
 30
0.0
 10
105.6096805270587
 20
214.2146999642375
 30
0.0
 10
105.6146141698068
 20
214.2224168492458
 30
0.0
 10
105.6168891198149
 20
214.230907078376
 30
0.0
  0
SPLINE
  5
31C
330
70
100
AcDbEntity
  8
0
 62
    18
420
        0
370
    35
100
AcDbSpline
210
0.0
220
0.0
230
1.0
 70
     8
 71
     3
 72
    11
 73
     7
 74
     0
 42
0.0000000001
 43
0.0000000001
 40
0.0
 40
0.0
 40
0.0
 40
0.0
 40
1.0
 40
1.0
 40
1.0
 40
2.0
 40
2.0
 40
2.0
 40
2.0
 10
48.67323994272538
 20
182.1645769234972
 30
0.0
 10
48.67323994272538
 20
182.2107798845178
 30
0.0
 10
48.68902837724284
 20
182.2586460064469
 30
0.0
 10
48.7195408903866
 20
182.2952239467906
 30
0.0
 10
48.75693575129776
 20
182.3400523417878
 30
0.0
 10
48.81644607405386
 20
182.3679259679686
 30
0.0
 10
48.87307049217946
 20
182.3679259679686
 30
0.0
  0
SPLINE
  5
31D
330
70
100
AcDbEntity
  8
0
 62
    18
420
        0
370
    35
100
AcDbSpline
210
0.0
220
0.0
230
1.0
 70
     8
 71
     3
 72
    11
 73
     7
 74
     0
 42
0.0000000001
 43
0.0000000001
 40
0.0
 40
0.0
 40
0.0
 40
0.0
 40
1.0
 40
1.0
 40
1.0
 40
2.0
 40
2.0
 40
2.0
 40
2.0
 10
48.67323994272538
 20
137.6094013853365
 30
0.0
 10
48.67323994272538
 20
137.5631984243155
 30
0.0
 10
48.68902837724284
 20
137.5153323023416
 30
0.0
 10
48.7195408903866
 20
137.4787543619933
 30
0.0
 10
48.75693575129776
 20
137.4339259669906
 30
0.0
 10
48.81644607405386
 20
137.406052340865
 30
0.0
 10
48.87307049217946
 20
137.406052340865
 30
0.0
  0
LINE
  5
31E
330
70
100
AcDbEntity
  8
0
 62
    18
420
        0
370
    35
100
AcDbLine
 10
155.7639788261371
 20
181.8663482025566
 30
0.0
 11
155.5641482766833
 21
182.0627211365687
 31
0.0
  0
LINE
  5
31F
330
70
100
AcDbEntity
  8
0
 62
    18
420
        0
370
    35
100
AcDbLine
 10
172.8494908044364
 20
182.1645769234972
 30
0.0
 11
173.0493213538901
 21
182.3679259679686
 31
0.0
  0
LINE
  5
320
330
70
100
AcDbEntity
  8
0
 62
    18
420
        0
370
    35
100
AcDbLine
 10
172.8494908044364
 20
137.6094013853365
 30
0.0
 11
173.0493213538901
 21
137.406052340865
 31
0.0
  0
LINE
  5
321
330
70
100
AcDbEntity
  8
0
 62
    18
420
        0
370
    35
100
AcDbLine
 10
155.7639788261371
 20
137.9076301061766
 30
0.0
 11
155.5641482766833
 21
137.7112571721645
 31
0.0
  0
SPLINE
  5
322
330
70
100
AcDbEntity
  8
0
 62
    18
420
        0
370
    35
100
AcDbSpline
210
0.0
220
0.0
230
1.0
 70
     8
 71
     3
 72
    11
 73
     7
 74
     0
 42
0.0000000001
 43
0.0000000001
 40
0.0
 40
0.0
 40
0.0
 40
0.0
 40
1.0
 40
1.0
 40
1.0
 40
2.0
 40
2.0
 40
2.0
 40
2.0
 10
50.821371344666
 20
156.8887368982839
 30
0.0
 10
50.80982060090275
 20
156.3042520017251
 30
0.0
 10
50.80872740785823
 20
155.2939857607598
 30
0.0
 10
50.81892962966066
 20
154.6322440926813
 30
0.0
 10
50.81969234651787
 20
154.58277236631
 30
0.0
 10
50.8205078124716
 20
154.5360543530369
 30
0.0
 10
50.821371344666
 20
154.4923583334791
 30
0.0
  0
SPLINE
  5
323
330
70
100
AcDbEntity
  8
0
 62
    18
420
        0
370
    35
100
AcDbSpline
210
0.0
220
0.0
230
1.0
 70
     9
 71
     3
 72
    20
 73
    16
 74
     0
 42
0.0000000001
 43
0.0000000001
 40
0.0
 40
0.0
 40
0.0
 40
0.0
 40
1.0
 40
1.0
 40
1.0
 40
2.0
 40
2.0
 40
2.0
 40
3.0
 40
3.0
 40
3.0
 40
4.0
 40
4.0
 40
4.0
 40
5.0
 40
5.0
 40
5.0
 40
5.0
 10
163.9570313537429
 20
174.1748734403631
 30
0.0
 10
163.9570313537429
 20
174.7266902654587
 30
0.0
 10
163.2860274704415
 20
175.1740261876819
 30
0.0
 10
162.4583022328391
 20
175.1740261876819
 30
0.0
 10
161.6305769952368
 20
175.1740261876819
 30
0.0
 10
160.959573111936
 20
174.7266902654587
 30
0.0
 10
160.959573111936
 20
174.1748734403631
 30
0.0
 10
160.959573111936
 20
173.6230566152671
 30
0.0
 10
161.6305769952368
 20
173.1757206930439
 30
0.0
 10
162.4583022328391
 20
173.1757206930439
 30
0.0
 10
163.2860274704415
 20
173.1757206930439
 30
0.0
 10
163.9570313537429
 20
173.6230566152671
 30
0.0
 10
163.9570313537429
 20
174.1748734403631
 30
0.0
 10
163.9570313537429
 20
174.1748734403631
 30
0.0
 10
163.9570313537429
 20
174.1748734403631
 30
0.0
 10
163.9570313537429
 20
174.1748734403631
 30
0.0
  0
SPLINE
  5
324
330
70
100
AcDbEntity
  8
0
 62
    18
420
        0
370
    35
100
AcDbSpline
210
0.0
220
0.0
230
1.0
 70
     9
 71
     3
 72
    20
 73
    16
 74
     0
 42
0.0000000001
 43
0.0000000001
 40
0.0
 40
0.0
 40
0.0
 40
0.0
 40
1.0
 40
1.0
 40
1.0
 40
2.0
 40
2.0
 40
2.0
 40
3.0
 40
3.0
 40
3.0
 40
4.0
 40
4.0
 40
4.0
 40
5.0
 40
5.0
 40
5.0
 40
5.0
 10
163.9570313537429
 20
168.1799569567491
 30
0.0
 10
163.9570313537429
 20
168.7317737818448
 30
0.0
 10
163.2860274704415
 20
169.1791097040679
 30
0.0
 10
162.4583022328391
 20
169.1791097040679
 30
0.0
 10
161.6305769952368
 20
169.1791097040679
 30
0.0
 10
160.959573111936
 20
168.7317737818448
 30
0.0
 10
160.959573111936
 20
168.1799569567491
 30
0.0
 10
160.959573111936
 20
167.6281401316535
 30
0.0
 10
161.6305769952368
 20
167.1808042094303
 30
0.0
 10
162.4583022328391
 20
167.1808042094303
 30
0.0
 10
163.2860274704415
 20
167.1808042094303
 30
0.0
 10
163.9570313537429
 20
167.6281401316535
 30
0.0
 10
163.9570313537429
 20
168.1799569567491
 30
0.0
 10
163.9570313537429
 20
168.1799569567491
 30
0.0
 10
163.9570313537429
 20
168.1799569567491
 30
0.0
 10
163.9570313537429
 20
168.1799569567491
 30
0.0
  0
SPLINE
  5
325
330
70
100
AcDbEntity
  8
0
 62
    18
420
        0
370
    35
100
AcDbSpline
210
0.0
220
0.0
230
1.0
 70
     9
 71
     3
 72
    20
 73
    16
 74
     0
 42
0.0000000001
 43
0.0000000001
 40
0.0
 40
0.0
 40
0.0
 40
0.0
 40
1.0
 40
1.0
 40
1.0
 40
2.0
 40
2.0
 40
2.0
 40
3.0
 40
3.0
 40
3.0
 40
4.0
 40
4.0
 40
4.0
 40
5.0
 40
5.0
 40
5.0
 40
5.0
 10
163.9570313537429
 20
162.1850404731352
 30
0.0
 10
163.9570313537429
 20
162.7368572982311
 30
0.0
 10
163.2860274704415
 20
163.1841932204543
 30
0.0
 10
162.4583022328391
 20
163.1841932204543
 30
0.0
 10
161.6305769952368
 20
163.1841932204543
 30
0.0
 10
160.959573111936
 20
162.7368572982311
 30
0.0
 10
160.959573111936
 20
162.1850404731352
 30
0.0
 10
160.959573111936
 20
161.6332236480395
 30
0.0
 10
161.6305769952368
 20
161.1858877258167
 30
0.0
 10
162.4583022328391
 20
161.1858877258167
 30
0.0
 10
163.2860274704415
 20
161.1858877258167
 30
0.0
 10
163.9570313537429
 20
161.6332236480395
 30
0.0
 10
163.9570313537429
 20
162.1850404731352
 30
0.0
 10
163.9570313537429
 20
162.1850404731352
 30
0.0
 10
163.9570313537429
 20
162.1850404731352
 30
0.0
 10
163.9570313537429
 20
162.1850404731352
 30
0.0
  0
LINE
  5
327
330
70
100
AcDbEntity
  8
REDONDEOS
 62
    18
420
        0
370
    35
100
AcDbLine
 10
115.4218747462137
 20
112.0090987322067
 30
0.0
 11
113.618168515209
 21
111.9776149228695
 31
0.0
  0
LINE
  5
328
330
70
100
AcDbEntity
  8
REDONDEOS
 62
    18
420
        0
370
    35
100
AcDbLine
 10
119.1135086251886
 20
114.9750731646765
 30
0.0
 11
119.2134238999154
 21
114.9750731646765
 31
0.0
  0
LINE
  5
329
330
70
100
AcDbEntity
  8
REDONDEOS
 62
    18
420
        0
370
    35
100
AcDbLine
 10
119.1135086251886
 20
119.6927171935166
 30
0.0
 11
119.2134238999154
 21
119.6927171935166
 31
0.0
  0
LINE
  5
32A
330
70
100
AcDbEntity
  8
REDONDEOS
 62
    18
420
        0
370
    35
100
AcDbLine
 10
119.2089704709943
 20
139.6757721388966
 30
0.0
 11
119.2134238999154
 21
139.6757721388966
 31
0.0
  0
LINE
  5
32B
330
70
100
AcDbEntity
  8
REDONDEOS
 62
    18
420
        0
370
    35
100
AcDbLine
 10
115.1168976361122
 20
141.1528751431236
 30
0.0
 11
115.7163892844741
 21
141.1528751431236
 31
0.0
  0
LINE
  5
32C
330
70
100
AcDbEntity
  8
REDONDEOS
 62
    18
420
        0
370
    35
100
AcDbLine
 10
119.2134238999154
 20
141.3476414065457
 30
0.0
 11
118.918909361655
 21
141.3476414065457
 31
0.0
  0
LINE
  5
32D
330
70
100
AcDbEntity
  8
REDONDEOS
 62
    18
420
        0
370
    35
100
AcDbLine
 10
115.1637157087365
 20
144.9496555827455
 30
0.0
 11
116.1628684560053
 21
144.9496555827455
 31
0.0
  0
LINE
  5
32E
330
70
100
AcDbEntity
  8
REDONDEOS
 62
    18
420
        0
370
    35
100
AcDbLine
 10
118.918909361655
 20
141.3476414065457
 30
0.0
 11
115.7699611906416
 21
144.9496555827455
 31
0.0
  0
LINE
  5
32F
330
70
100
AcDbEntity
  8
REDONDEOS
 62
    18
420
        0
370
    35
100
AcDbLine
 10
119.1393471520624
 20
141.5449255343914
 30
0.0
 11
116.1628684560053
 21
144.9496555827455
 31
0.0
  0
LINE
  5
330
330
70
100
AcDbEntity
  8
REDONDEOS
 62
    18
420
        0
370
    35
100
AcDbLine
 10
115.4218747462137
 20
141.1528751431236
 30
0.0
 11
115.4218747462137
 21
139.6541460222197
 31
0.0
  0
LINE
  5
331
330
70
100
AcDbEntity
  8
REDONDEOS
 62
    18
420
        0
370
    35
100
AcDbLine
 10
115.4218747462137
 20
114.925115527313
 30
0.0
 11
115.4218747462137
 21
112.0090987322067
 31
0.0
  0
LINE
  5
332
330
70
100
AcDbEntity
  8
REDONDEOS
 62
    18
420
        0
370
    35
100
AcDbLine
 10
115.7163892844741
 20
141.1528751431236
 30
0.0
 11
115.7163892844741
 21
139.6541460222197
 31
0.0
  0
LINE
  5
333
330
70
100
AcDbEntity
  8
REDONDEOS
 62
    18
420
        0
370
    35
100
AcDbLine
 10
115.7163892844741
 20
114.925115527313
 30
0.0
 11
115.7163892844741
 21
112.3219510540547
 31
0.0
  0
LINE
  5
334
330
70
100
AcDbEntity
  8
REDONDEOS
 62
    18
420
        0
370
    35
100
AcDbLine
 10
118.918909361655
 20
139.6757721388966
 30
0.0
 11
118.918909361655
 21
141.3476414065457
 31
0.0
  0
LINE
  5
335
330
70
100
AcDbEntity
  8
REDONDEOS
 62
    18
420
        0
370
    35
100
AcDbLine
 10
119.2134238999154
 20
112.3698398699193
 30
0.0
 11
119.2134238999154
 21
122.2979504882738
 31
0.0
  0
LINE
  5
336
330
70
100
AcDbEntity
  8
REDONDEOS
 62
    18
420
        0
370
    35
100
AcDbLine
 10
119.2134238999154
 20
137.0705388442395
 30
0.0
 11
119.2134238999154
 21
141.3476414065457
 31
0.0
  0
SPLINE
  5
337
330
70
100
AcDbEntity
  8
REDONDEOS
 62
    18
420
        0
370
    35
100
AcDbSpline
210
0.0
220
0.0
230
1.0
 70
     8
 71
     3
 72
     8
 73
     4
 74
     0
 42
0.0000000001
 43
0.0000000001
 40
0.0
 40
0.0
 40
0.0
 40
0.0
 40
1.0
 40
1.0
 40
1.0
 40
1.0
 10
119.1146357720122
 20
136.8481347898237
 30
0.0
 10
119.177531763376
 20
136.9049657390742
 30
0.0
 10
119.2134238999154
 20
136.9857705569958
 30
0.0
 10
119.2134238999154
 20
137.0705388442395
 30
0.0
  0
SPLINE
  5
338
330
70
100
AcDbEntity
  8
REDONDEOS
 62
    18
420
        0
370
    35
100
AcDbSpline
210
0.0
220
0.0
230
1.0
 70
     8
 71
     3
 72
     8
 73
     4
 74
     0
 42
0.0000000001
 43
0.0000000001
 40
0.0
 40
0.0
 40
0.0
 40
0.0
 40
1.0
 40
1.0
 40
1.0
 40
1.0
 10
119.2134238999154
 20
122.2979504882738
 30
0.0
 10
119.2134238999154
 20
122.3827188111742
 30
0.0
 10
119.177531733288
 20
122.4635236596419
 30
0.0
 10
119.1146356960601
 20
122.5203546113174
 30
0.0
  0
SPLINE
  5
339
330
70
100
AcDbEntity
  8
REDONDEOS
 62
    18
420
        0
370
    35
100
AcDbSpline
210
0.0
220
0.0
230
1.0
 70
     8
 71
     3
 72
     8
 73
     4
 74
     0
 42
0.0000000001
 43
0.0000000001
 40
0.0
 40
0.0
 40
0.0
 40
0.0
 40
1.0
 40
1.0
 40
1.0
 40
1.0
 10
118.9189093616858
 20
112.0701396984799
 30
0.0
 10
119.0823901314537
 20
112.0729932659302
 30
0.0
 10
119.2134238999154
 20
112.2063341974461
 30
0.0
 10
119.2134238999154
 20
112.3698398699193
 30
0.0
  0
SPLINE
  5
33A
330
70
100
AcDbEntity
  8
REDONDEOS
 62
    18
420
        0
370
    35
100
AcDbSpline
210
0.0
220
0.0
230
1.0
 70
     8
 71
     3
 72
     8
 73
     4
 74
     0
 42
0.0000000001
 43
0.0000000001
 40
0.0
 40
0.0
 40
0.0
 40
0.0
 40
1.0
 40
1.0
 40
1.0
 40
1.0
 10
119.2134238999154
 20
141.3476414065457
 30
0.0
 10
119.2134238999154
 20
141.4202010943435
 30
0.0
 10
119.1871038631597
 20
141.4902976583465
 30
0.0
 10
119.139347152079
 20
141.5449255343812
 30
0.0
  0
SPLINE
  5
33B
330
70
100
AcDbEntity
  8
REDONDEOS
 62
    18
420
        0
370
    35
100
AcDbSpline
210
0.0
220
0.0
230
1.0
 70
     8
 71
     3
 72
     8
 73
     4
 74
     0
 42
0.0000000001
 43
0.0000000001
 40
0.0
 40
0.0
 40
0.0
 40
0.0
 40
1.0
 40
1.0
 40
1.0
 40
1.0
 10
115.4218747462445
 20
112.0090987322593
 30
0.0
 10
115.5383745052829
 20
112.011132243118
 30
0.0
 10
115.6431396546133
 20
112.0804934896269
 30
0.0
 10
115.6905051611405
 20
112.1869492917883
 30
0.0
  0
SPLINE
  5
33C
330
70
100
AcDbEntity
  8
REDONDEOS
 62
    18
420
        0
370
    35
100
AcDbSpline
210
0.0
220
0.0
230
1.0
 70
     8
 71
     3
 72
    11
 73
     7
 74
     0
 42
0.0000000001
 43
0.0000000001
 40
0.0
 40
0.0
 40
0.0
 40
0.0
 40
1.0
 40
1.0
 40
1.0
 40
2.0
 40
2.0
 40
2.0
 40
2.0
 10
118.918909361655
 20
141.3476414065457
 30
0.0
 10
118.9666691800054
 20
141.3894066543197
 30
0.0
 10
119.0139102267029
 20
141.4317161837533
 30
0.0
 10
119.0616665202024
 20
141.473531911481
 30
0.0
 10
119.0869856503024
 20
141.4957015099352
 30
0.0
 10
119.1124496081044
 20
141.5177323085631
 30
0.0
 10
119.1362880561871
 20
141.5414638599916
 30
0.0
  0
LINE
  5
33D
330
70
100
AcDbEntity
  8
REDONDEOS
 62
    18
420
        0
370
    35
100
AcDbLine
 10
119.1362880561871
 20
141.5414638599916
 30
0.0
 11
119.1374686904628
 21
141.542994407208
 31
0.0
  0
SPLINE
  5
33E
330
70
100
AcDbEntity
  8
REDONDEOS
 62
    18
420
        0
370
    35
100
AcDbSpline
210
0.0
220
0.0
230
1.0
 70
     8
 71
     3
 72
    11
 73
     7
 74
     0
 42
0.0000000001
 43
0.0000000001
 40
0.0
 40
0.0
 40
0.0
 40
0.0
 40
1.0
 40
1.0
 40
1.0
 40
2.0
 40
2.0
 40
2.0
 40
2.0
 10
115.6905051260941
 20
112.1869492130249
 30
0.0
 10
115.6947368054518
 20
112.1964538256877
 30
0.0
 10
115.6984082813088
 20
112.2062060094597
 30
0.0
 10
115.7015481040821
 20
112.2161426297953
 30
0.0
 10
115.711805978263
 20
112.2486058000248
 30
0.0
 10
115.7163892844741
 20
112.2830375430909
 30
0.0
 10
115.7163892844741
 20
112.3170278978496
 30
0.0
  0
LINE
  5
340
330
70
100
AcDbEntity
  8
DESMOLDEO
 62
    18
420
        0
370
    35
100
AcDbLine
 10
115.4218747462137
 20
112.0090987322067
 30
0.0
 11
118.918909361655
 21
112.0701396985267
 31
0.0
  0
LINE
  5
341
330
70
100
AcDbEntity
  8
DESMOLDEO
 62
    18
420
        0
370
    35
100
AcDbLine
 10
76.58956770142072
 20
114.925115527313
 30
0.0
 11
106.1145313832188
 21
114.925115527313
 31
0.0
  0
LINE
  5
342
330
70
100
AcDbEntity
  8
DESMOLDEO
 62
    18
420
        0
370
    35
100
AcDbLine
 10
76.61520155205424
 20
114.9507493779466
 30
0.0
 11
106.0888975324858
 21
114.9507493779466
 31
0.0
  0
LINE
  5
343
330
70
100
AcDbEntity
  8
DESMOLDEO
 62
    18
420
        0
370
    35
100
AcDbLine
 10
111.4699901085805
 20
117.0732939339409
 30
0.0
 11
106.1145313832188
 21
117.0732939339409
 31
0.0
  0
LINE
  5
344
330
70
100
AcDbEntity
  8
DESMOLDEO
 62
    18
420
        0
370
    35
100
AcDbLine
 10
76.58956770142072
 20
117.0732939339409
 30
0.0
 11
71.80362604200237
 21
117.0732939339409
 31
0.0
  0
LINE
  5
345
330
70
100
AcDbEntity
  8
DESMOLDEO
 62
    18
420
        0
370
    35
100
AcDbLine
 10
111.4443562578475
 20
117.0989277845744
 30
0.0
 11
106.0888975324858
 21
117.0989277845744
 31
0.0
  0
LINE
  5
346
330
70
100
AcDbEntity
  8
DESMOLDEO
 62
    18
420
        0
370
    35
100
AcDbLine
 10
76.61520155205424
 20
117.0989277845744
 30
0.0
 11
71.82925989263591
 21
117.0989277845744
 31
0.0
  0
LINE
  5
347
330
70
100
AcDbEntity
  8
DESMOLDEO
 62
    18
420
        0
370
    35
100
AcDbLine
 10
71.82071194095254
 20
123.9345761516835
 30
0.0
 11
71.66348282141406
 21
123.9329916458988
 31
0.0
  0
LINE
  5
348
330
70
100
AcDbEntity
  8
DESMOLDEO
 62
    18
420
        0
370
    35
100
AcDbLine
 10
111.6101333290687
 20
123.9329916458988
 30
0.0
 11
111.4529042095309
 21
123.9345761516835
 31
0.0
  0
LINE
  5
349
330
70
100
AcDbEntity
  8
DESMOLDEO
 62
    18
420
        0
370
    35
100
AcDbLine
 10
50.8214183493539
 20
139.5542307474929
 30
0.0
 11
50.8214183493539
 21
148.6964783850041
 31
0.0
  0
LINE
  5
34A
330
70
100
AcDbEntity
  8
DESMOLDEO
 62
    18
420
        0
370
    35
100
AcDbLine
 10
50.8214183493539
 20
153.6922421213493
 30
0.0
 11
50.8214183493539
 21
175.2239838249953
 31
0.0
  0
LINE
  5
34B
330
70
100
AcDbEntity
  8
DESMOLDEO
 62
    18
420
        0
370
    35
100
AcDbLine
 10
50.84705219998742
 20
139.5798645981264
 30
0.0
 11
50.84705219998742
 21
180.1941137106068
 31
0.0
  0
LINE
  5
34C
330
70
100
AcDbEntity
  8
DESMOLDEO
 62
    18
420
        0
370
    35
100
AcDbLine
 10
111.4529042095309
 20
132.8927790791046
 30
0.0
 11
111.6101333290687
 21
132.8943635848893
 31
0.0
  0
LINE
  5
34D
330
70
100
AcDbEntity
  8
DESMOLDEO
 62
    18
420
        0
370
    35
100
AcDbLine
 10
71.66348282141406
 20
132.8943635848893
 30
0.0
 11
71.82071194095254
 21
132.8927790791046
 31
0.0
  0
LINE
  5
34E
330
70
100
AcDbEntity
  8
DESMOLDEO
 62
    18
420
        0
370
    35
100
AcDbLine
 10
56.01701263515282
 20
182.3330454157714
 30
0.0
 11
56.01701263515282
 21
180.2197475613401
 31
0.0
  0
LINE
  5
34F
330
70
100
AcDbEntity
  8
DESMOLDEO
 62
    18
420
        0
370
    35
100
AcDbLine
 10
56.01701263515282
 20
139.5542307474929
 30
0.0
 11
56.01701263515282
 21
137.4409328929621
 31
0.0
  0
LINE
  5
350
330
70
100
AcDbEntity
  8
DESMOLDEO
 62
    18
420
        0
370
    35
100
AcDbLine
 10
56.04264648578602
 20
182.342292117235
 30
0.0
 11
56.04264648578602
 21
180.1941137106068
 31
0.0
  0
LINE
  5
351
330
70
100
AcDbEntity
  8
DESMOLDEO
 62
    18
420
        0
370
    35
100
AcDbLine
 10
56.04264648578602
 20
139.5798645981264
 30
0.0
 11
56.04264648578602
 21
137.4316861914985
 31
0.0
  0
LINE
  5
352
330
70
100
AcDbEntity
  8
DESMOLDEO
 62
    18
420
        0
370
    35
100
AcDbLine
 10
56.01701263515282
 20
137.406052340865
 30
0.0
 11
59.01447087695947
 21
137.406052340865
 31
0.0
  0
LINE
  5
353
330
70
100
AcDbEntity
  8
DESMOLDEO
 62
    18
420
        0
370
    35
100
AcDbLine
 10
56.04264648578602
 20
137.4316861914985
 30
0.0
 11
58.98883702622616
 21
137.4316861914985
 31
0.0
  0
LINE
  5
354
330
70
100
AcDbEntity
  8
DESMOLDEO
 62
    18
420
        0
370
    35
100
AcDbLine
 10
58.98883702622616
 20
137.4316861914985
 30
0.0
 11
58.98883702622616
 21
139.5798645981264
 31
0.0
  0
LINE
  5
355
330
70
100
AcDbEntity
  8
DESMOLDEO
 62
    18
420
        0
370
    35
100
AcDbLine
 10
58.98883702622616
 20
180.1941137106068
 30
0.0
 11
58.98883702622616
 21
182.342292117235
 31
0.0
  0
LINE
  5
356
330
70
100
AcDbEntity
  8
DESMOLDEO
 62
    18
420
        0
370
    35
100
AcDbLine
 10
59.01447087695947
 20
137.4409328929621
 30
0.0
 11
59.01447087695947
 21
139.5542307474929
 31
0.0
  0
LINE
  5
357
330
70
100
AcDbEntity
  8
DESMOLDEO
 62
    18
420
        0
370
    35
100
AcDbLine
 10
59.01447087695947
 20
180.2197475613401
 30
0.0
 11
59.01447087695947
 21
182.3330454157714
 31
0.0
  0
LINE
  5
358
330
70
100
AcDbEntity
  8
DESMOLDEO
 62
    18
420
        0
370
    35
100
AcDbLine
 10
71.67213965007302
 20
138.654993274951
 30
0.0
 11
71.81147752137436
 21
138.654993274951
 31
0.0
  0
LINE
  5
359
330
70
100
AcDbEntity
  8
DESMOLDEO
 62
    18
420
        0
370
    35
100
AcDbLine
 10
62.31167494294708
 20
139.5542307474929
 30
0.0
 11
59.01447087695947
 21
139.5542307474929
 31
0.0
  0
LINE
  5
35A
330
70
100
AcDbEntity
  8
DESMOLDEO
 62
    18
420
        0
370
    35
100
AcDbLine
 10
56.01701263515282
 20
139.5542307474929
 30
0.0
 11
50.8214183493539
 21
139.5542307474929
 31
0.0
  0
LINE
  5
35B
330
70
100
AcDbEntity
  8
DESMOLDEO
 62
    18
420
        0
370
    35
100
AcDbLine
 10
71.82925989263591
 20
139.5798645981264
 30
0.0
 11
58.98883702622616
 21
139.5798645981264
 31
0.0
  0
LINE
  5
35C
330
70
100
AcDbEntity
  8
DESMOLDEO
 62
    18
420
        0
370
    35
100
AcDbLine
 10
56.04264648578602
 20
139.5798645981264
 30
0.0
 11
50.84705219998742
 21
139.5798645981264
 31
0.0
  0
LINE
  5
35D
330
70
100
AcDbEntity
  8
DESMOLDEO
 62
    18
420
        0
370
    35
100
AcDbLine
 10
62.32876084189723
 20
180.2026616622902
 30
0.0
 11
62.32717633611251
 21
180.3598907818287
 31
0.0
  0
LINE
  5
35E
330
70
100
AcDbEntity
  8
DESMOLDEO
 62
    18
420
        0
370
    35
100
AcDbLine
 10
62.32717633611251
 20
139.4140875269046
 30
0.0
 11
62.32876084189723
 21
139.5713166464431
 31
0.0
  0
LINE
  5
35F
330
70
100
AcDbEntity
  8
DESMOLDEO
 62
    18
420
        0
370
    35
100
AcDbLine
 10
113.618168515209
 20
143.5508417365686
 30
0.0
 11
114.9170670866584
 21
143.5508417365686
 31
0.0
  0
LINE
  5
360
330
70
100
AcDbEntity
  8
DESMOLDEO
 62
    18
420
        0
370
    35
100
AcDbLine
 10
71.80362604200237
 20
117.0732939339409
 30
0.0
 11
71.80362604200237
 21
123.917490252734
 31
0.0
  0
LINE
  5
361
330
70
100
AcDbEntity
  8
DESMOLDEO
 62
    18
420
        0
370
    35
100
AcDbLine
 10
71.80362604200237
 20
132.9098649781542
 30
0.0
 11
71.80362604200237
 21
138.654993274951
 31
0.0
  0
LINE
  5
362
330
70
100
AcDbEntity
  8
DESMOLDEO
 62
    18
420
        0
370
    35
100
AcDbLine
 10
71.80362604200237
 20
181.1189850338823
 30
0.0
 11
71.80362604200237
 21
186.8641133306791
 31
0.0
  0
LINE
  5
363
330
70
100
AcDbEntity
  8
DESMOLDEO
 62
    18
420
        0
370
    35
100
AcDbLine
 10
71.80362604200237
 20
195.8564880560997
 30
0.0
 11
71.80362604200237
 21
202.7006843748924
 31
0.0
  0
LINE
  5
364
330
70
100
AcDbEntity
  8
DESMOLDEO
 62
    18
420
        0
370
    35
100
AcDbLine
 10
71.82925989263591
 20
117.0989277845744
 30
0.0
 11
71.82925989263591
 21
139.5798645981264
 31
0.0
  0
LINE
  5
365
330
70
100
AcDbEntity
  8
DESMOLDEO
 62
    18
420
        0
370
    35
100
AcDbLine
 10
71.82925989263591
 20
180.1941137106068
 30
0.0
 11
71.82925989263591
 21
202.6750505241588
 31
0.0
  0
LINE
  5
366
330
70
100
AcDbEntity
  8
DESMOLDEO
 62
    18
420
        0
370
    35
100
AcDbLine
 10
111.4699901085805
 20
154.8912254180718
 30
0.0
 11
113.5832879630118
 21
154.8912254180718
 31
0.0
  0
LINE
  5
367
330
70
100
AcDbEntity
  8
DESMOLDEO
 62
    18
420
        0
370
    35
100
AcDbLine
 10
111.4443562578475
 20
154.9168592687053
 30
0.0
 11
113.5925346644754
 21
154.9168592687053
 31
0.0
  0
LINE
  5
368
330
70
100
AcDbEntity
  8
DESMOLDEO
 62
    18
420
        0
370
    35
100
AcDbLine
 10
111.4443562578475
 20
117.0989277845744
 30
0.0
 11
111.4699901085805
 21
117.0732939339409
 31
0.0
  0
LINE
  5
369
330
70
100
AcDbEntity
  8
DESMOLDEO
 62
    18
420
        0
370
    35
100
AcDbLine
 10
75.16077927282586
 20
204.8488627815203
 30
0.0
 11
75.16077927282586
 21
202.7006843748924
 31
0.0
  0
LINE
  5
36A
330
70
100
AcDbEntity
  8
DESMOLDEO
 62
    18
420
        0
370
    35
100
AcDbLine
 10
75.1864131234597
 20
204.823228930787
 30
0.0
 11
75.1864131234597
 21
202.6750505241588
 31
0.0
  0
LINE
  5
36B
330
70
100
AcDbEntity
  8
DESMOLDEO
 62
    18
420
        0
370
    35
100
AcDbLine
 10
76.58956770142072
 20
117.0732939339409
 30
0.0
 11
76.58956770142072
 21
114.925115527313
 31
0.0
  0
LINE
  5
36C
330
70
100
AcDbEntity
  8
DESMOLDEO
 62
    18
420
        0
370
    35
100
AcDbLine
 10
76.61520155205424
 20
117.0989277845744
 30
0.0
 11
76.61520155205424
 21
114.9507493779466
 31
0.0
  0
LINE
  5
36D
330
70
100
AcDbEntity
  8
DESMOLDEO
 62
    18
420
        0
370
    35
100
AcDbLine
 10
116.9396963678264
 20
202.6750505241588
 30
0.0
 11
116.9653302185601
 21
202.7006843748924
 31
0.0
  0
LINE
  5
36E
330
70
100
AcDbEntity
  8
DESMOLDEO
 62
    18
420
        0
370
    35
100
AcDbLine
 10
113.5925346644754
 20
164.8571190400285
 30
0.0
 11
111.4443562578475
 21
164.8571190400285
 31
0.0
  0
LINE
  5
36F
330
70
100
AcDbEntity
  8
DESMOLDEO
 62
    18
420
        0
370
    35
100
AcDbLine
 10
113.5832879630118
 20
164.8827528907615
 30
0.0
 11
111.4699901085805
 21
164.8827528907615
 31
0.0
  0
LINE
  5
370
330
70
100
AcDbEntity
  8
DESMOLDEO
 62
    18
420
        0
370
    35
100
AcDbLine
 10
111.6101333290687
 20
166.3969834048307
 30
0.0
 11
111.4529042095309
 21
166.3985679106152
 31
0.0
  0
LINE
  5
371
330
70
100
AcDbEntity
  8
DESMOLDEO
 62
    18
420
        0
370
    35
100
AcDbLine
 10
115.1637157087365
 20
144.9496555827455
 30
0.0
 11
115.7163892844741
 21
144.4859073891469
 31
0.0
  0
LINE
  5
372
330
70
100
AcDbEntity
  8
DESMOLDEO
 62
    18
420
        0
370
    35
100
AcDbLine
 10
111.4529042095309
 20
175.3567708380357
 30
0.0
 11
111.6101333290687
 21
175.3583553438204
 31
0.0
  0
LINE
  5
373
330
70
100
AcDbEntity
  8
DESMOLDEO
 62
    18
420
        0
370
    35
100
AcDbLine
 10
116.9653302185601
 20
179.7701288250695
 30
0.0
 11
111.4699901085805
 21
179.7701288250695
 31
0.0
  0
LINE
  5
374
330
70
100
AcDbEntity
  8
DESMOLDEO
 62
    18
420
        0
370
    35
100
AcDbLine
 10
116.9396963678264
 20
179.7957626757027
 30
0.0
 11
111.4443562578475
 21
179.7957626757027
 31
0.0
  0
LINE
  5
375
330
70
100
AcDbEntity
  8
DESMOLDEO
 62
    18
420
        0
370
    35
100
AcDbLine
 10
50.84705219998742
 20
180.1941137106068
 30
0.0
 11
56.04264648578602
 21
180.1941137106068
 31
0.0
  0
LINE
  5
376
330
70
100
AcDbEntity
  8
DESMOLDEO
 62
    18
420
        0
370
    35
100
AcDbLine
 10
58.98883702622616
 20
180.1941137106068
 30
0.0
 11
71.82925989263591
 21
180.1941137106068
 31
0.0
  0
LINE
  5
377
330
70
100
AcDbEntity
  8
DESMOLDEO
 62
    18
420
        0
370
    35
100
AcDbLine
 10
52.61989329443802
 20
180.2197475613401
 30
0.0
 11
56.01701263515282
 21
180.2197475613401
 31
0.0
  0
LINE
  5
378
330
70
100
AcDbEntity
  8
DESMOLDEO
 62
    18
420
        0
370
    35
100
AcDbLine
 10
59.01447087695947
 20
180.2197475613401
 30
0.0
 11
62.31167494294708
 21
180.2197475613401
 31
0.0
  0
LINE
  5
379
330
70
100
AcDbEntity
  8
DESMOLDEO
 62
    18
420
        0
370
    35
100
AcDbLine
 10
71.81147752137436
 20
181.1189850338823
 30
0.0
 11
71.67213965007302
 21
181.1189850338823
 31
0.0
  0
LINE
  5
37A
330
70
100
AcDbEntity
  8
DESMOLDEO
 62
    18
420
        0
370
    35
100
AcDbLine
 10
58.98883702622616
 20
182.342292117235
 30
0.0
 11
56.04264648578602
 21
182.342292117235
 31
0.0
  0
LINE
  5
37B
330
70
100
AcDbEntity
  8
DESMOLDEO
 62
    18
420
        0
370
    35
100
AcDbLine
 10
59.01447087695947
 20
182.3679259679686
 30
0.0
 11
56.01701263515282
 21
182.3679259679686
 31
0.0
  0
LINE
  5
37C
330
70
100
AcDbEntity
  8
DESMOLDEO
 62
    18
420
        0
370
    35
100
AcDbLine
 10
111.4699901085805
 20
154.8912254180718
 30
0.0
 11
111.4443562578475
 21
154.9168592687053
 31
0.0
  0
LINE
  5
37D
330
70
100
AcDbEntity
  8
DESMOLDEO
 62
    18
420
        0
370
    35
100
AcDbLine
 10
106.0888975324858
 20
114.9507493779466
 30
0.0
 11
106.0888975324858
 21
117.0989277845744
 31
0.0
  0
LINE
  5
37E
330
70
100
AcDbEntity
  8
DESMOLDEO
 62
    18
420
        0
370
    35
100
AcDbLine
 10
71.82071194095254
 20
186.8641133306791
 30
0.0
 11
71.66348282141406
 21
186.8641133306791
 31
0.0
  0
LINE
  5
37F
330
70
100
AcDbEntity
  8
DESMOLDEO
 62
    18
420
        0
370
    35
100
AcDbLine
 10
117.1054734390483
 20
187.1294029106617
 30
0.0
 11
116.9482443195098
 21
187.1309874164465
 31
0.0
  0
LINE
  5
380
330
70
100
AcDbEntity
  8
DESMOLDEO
 62
    18
420
        0
370
    35
100
AcDbLine
 10
106.1145313832188
 20
114.925115527313
 30
0.0
 11
106.1145313832188
 21
117.0732939339409
 31
0.0
  0
LINE
  5
381
330
70
100
AcDbEntity
  8
DESMOLDEO
 62
    18
420
        0
370
    35
100
AcDbLine
 10
111.4443562578475
 20
179.7957626757027
 30
0.0
 11
111.4443562578475
 21
164.8571190400285
 31
0.0
  0
LINE
  5
382
330
70
100
AcDbEntity
  8
DESMOLDEO
 62
    18
420
        0
370
    35
100
AcDbLine
 10
111.4443562578475
 20
154.9168592687053
 30
0.0
 11
111.4443562578475
 21
117.0989277845744
 31
0.0
  0
LINE
  5
383
330
70
100
AcDbEntity
  8
DESMOLDEO
 62
    18
420
        0
370
    35
100
AcDbLine
 10
111.4699901085805
 20
179.7701288250695
 30
0.0
 11
111.4699901085805
 21
175.3738567370856
 31
0.0
  0
LINE
  5
384
330
70
100
AcDbEntity
  8
DESMOLDEO
 62
    18
420
        0
370
    35
100
AcDbLine
 10
111.4699901085805
 20
166.381482011665
 30
0.0
 11
111.4699901085805
 21
164.8827528907615
 31
0.0
  0
LINE
  5
385
330
70
100
AcDbEntity
  8
DESMOLDEO
 62
    18
420
        0
370
    35
100
AcDbLine
 10
111.4699901085805
 20
154.8912254180718
 30
0.0
 11
111.4699901085805
 21
132.9098649781542
 31
0.0
  0
LINE
  5
386
330
70
100
AcDbEntity
  8
DESMOLDEO
 62
    18
420
        0
370
    35
100
AcDbLine
 10
111.4699901085805
 20
123.917490252734
 30
0.0
 11
111.4699901085805
 21
117.0732939339409
 31
0.0
  0
LINE
  5
387
330
70
100
AcDbEntity
  8
DESMOLDEO
 62
    18
420
        0
370
    35
100
AcDbLine
 10
112.3735683128073
 20
202.6750505241588
 30
0.0
 11
112.3735683128073
 21
204.823228930787
 31
0.0
  0
LINE
  5
388
330
70
100
AcDbEntity
  8
DESMOLDEO
 62
    18
420
        0
370
    35
100
AcDbLine
 10
112.399202163541
 20
202.7006843748924
 30
0.0
 11
112.399202163541
 21
204.8488627815203
 31
0.0
  0
LINE
  5
389
330
70
100
AcDbEntity
  8
DESMOLDEO
 62
    18
420
        0
370
    35
100
AcDbLine
 10
113.5925346644754
 20
154.9168592687053
 30
0.0
 11
113.5925346644754
 21
164.8571190400285
 31
0.0
  0
LINE
  5
38A
330
70
100
AcDbEntity
  8
DESMOLDEO
 62
    18
420
        0
370
    35
100
AcDbLine
 10
113.618168515209
 20
111.9776149228695
 30
0.0
 11
113.618168515209
 21
114.925115527313
 31
0.0
  0
LINE
  5
38B
330
70
100
AcDbEntity
  8
DESMOLDEO
 62
    18
420
        0
370
    35
100
AcDbLine
 10
113.618168515209
 20
154.8912254180718
 30
0.0
 11
113.618168515209
 21
164.8827528907615
 31
0.0
  0
LINE
  5
38C
330
70
100
AcDbEntity
  8
DESMOLDEO
 62
    18
420
        0
370
    35
100
AcDbLine
 10
116.9482443195098
 20
196.0891903438669
 30
0.0
 11
117.1054734390483
 21
196.0907748496517
 31
0.0
  0
LINE
  5
38D
330
70
100
AcDbEntity
  8
DESMOLDEO
 62
    18
420
        0
370
    35
100
AcDbLine
 10
71.66348282141406
 20
195.8564880560997
 30
0.0
 11
71.82071194095254
 21
195.8564880560997
 31
0.0
  0
LINE
  5
38E
330
70
100
AcDbEntity
  8
DESMOLDEO
 62
    18
420
        0
370
    35
100
AcDbLine
 10
115.7163892844741
 20
144.4859073891469
 30
0.0
 11
115.7163892844741
 21
141.1528751431236
 31
0.0
  0
LINE
  5
38F
330
70
100
AcDbEntity
  8
DESMOLDEO
 62
    18
420
        0
370
    35
100
AcDbLine
 10
116.9396963678264
 20
202.6750505241588
 30
0.0
 11
116.9396963678264
 21
179.7957626757027
 31
0.0
  0
LINE
  5
390
330
70
100
AcDbEntity
  8
DESMOLDEO
 62
    18
420
        0
370
    35
100
AcDbLine
 10
116.9653302185601
 20
202.7006843748924
 30
0.0
 11
116.9653302185601
 21
196.1062762429169
 31
0.0
  0
LINE
  5
391
330
70
100
AcDbEntity
  8
DESMOLDEO
 62
    18
420
        0
370
    35
100
AcDbLine
 10
116.9653302185601
 20
187.1139015174963
 30
0.0
 11
116.9653302185601
 21
179.7701288250695
 31
0.0
  0
LINE
  5
392
330
70
100
AcDbEntity
  8
DESMOLDEO
 62
    18
420
        0
370
    35
100
AcDbLine
 10
114.9170670866584
 20
143.5508417365686
 30
0.0
 11
115.1637157087365
 21
144.9496555827455
 31
0.0
  0
LINE
  5
393
330
70
100
AcDbEntity
  8
DESMOLDEO
 62
    18
420
        0
370
    35
100
AcDbLine
 10
71.82925989263591
 20
202.6750505241588
 30
0.0
 11
75.1864131234597
 21
202.6750505241588
 31
0.0
  0
LINE
  5
394
330
70
100
AcDbEntity
  8
DESMOLDEO
 62
    18
420
        0
370
    35
100
AcDbLine
 10
112.3735683128073
 20
202.6750505241588
 30
0.0
 11
116.9396963678264
 21
202.6750505241588
 31
0.0
  0
LINE
  5
395
330
70
100
AcDbEntity
  8
DESMOLDEO
 62
    18
420
        0
370
    35
100
AcDbLine
 10
71.80362604200237
 20
202.7006843748924
 30
0.0
 11
75.16077927282586
 21
202.7006843748924
 31
0.0
  0
LINE
  5
396
330
70
100
AcDbEntity
  8
DESMOLDEO
 62
    18
420
        0
370
    35
100
AcDbLine
 10
112.399202163541
 20
202.7006843748924
 30
0.0
 11
116.9653302185601
 21
202.7006843748924
 31
0.0
  0
LINE
  5
397
330
70
100
AcDbEntity
  8
DESMOLDEO
 62
    18
420
        0
370
    35
100
AcDbLine
 10
112.3735683128073
 20
204.823228930787
 30
0.0
 11
75.1864131234597
 21
204.823228930787
 31
0.0
  0
LINE
  5
398
330
70
100
AcDbEntity
  8
DESMOLDEO
 62
    18
420
        0
370
    35
100
AcDbLine
 10
112.399202163541
 20
204.8488627815203
 30
0.0
 11
75.16077927282586
 21
204.8488627815203
 31
0.0
  0
LINE
  5
399
330
70
100
AcDbEntity
  8
DESMOLDEO
 62
    18
420
        0
370
    35
100
AcDbLine
 10
169.4024138263584
 20
114.9631386842716
 30
0.0
 11
171.5807590313116
 21
114.925115527313
 31
0.0
  0
LINE
  5
39A
330
70
100
AcDbEntity
  8
DESMOLDEO
 62
    18
420
        0
370
    35
100
AcDbLine
 10
171.5807590313116
 20
137.406052340865
 30
0.0
 11
171.0510158593526
 21
137.4152990423286
 31
0.0
  0
LINE
  5
39B
330
70
100
AcDbEntity
  8
DESMOLDEO
 62
    18
420
        0
370
    35
100
AcDbLine
 10
171.5807590313116
 20
182.3679259679686
 30
0.0
 11
171.0510158593526
 21
182.3586792665047
 31
0.0
  0
LINE
  5
39C
330
70
100
AcDbEntity
  8
DESMOLDEO
 62
    18
420
        0
370
    35
100
AcDbLine
 10
169.4024138263584
 20
204.8108396244616
 30
0.0
 11
171.5807590313116
 21
204.8488627815203
 31
0.0
  0
SPLINE
  5
39D
330
70
100
AcDbEntity
  8
DESMOLDEO
 62
    18
420
        0
370
    35
100
AcDbSpline
210
0.0
220
0.0
230
1.0
 70
     8
 71
     3
 72
     8
 73
     4
 74
     0
 42
0.0000000001
 43
0.0000000001
 40
0.0
 40
0.0
 40
0.0
 40
0.0
 40
1.0
 40
1.0
 40
1.0
 40
1.0
 10
157.9995004005334
 20
115.1862628162683
 30
0.0
 10
158.4422969685854
 20
114.3426972125941
 30
0.0
 10
159.0797682986497
 20
113.6168126247638
 30
0.0
 10
159.8590784472413
 20
113.0687730087847
 30
0.0
  0
SPLINE
  5
39E
330
70
100
AcDbEntity
  8
DESMOLDEO
 62
    18
420
        0
370
    35
100
AcDbSpline
210
0.0
220
0.0
230
1.0
 70
     8
 71
     3
 72
     8
 73
     4
 74
     0
 42
0.0000000001
 43
0.0000000001
 40
0.0
 40
0.0
 40
0.0
 40
0.0
 40
1.0
 40
1.0
 40
1.0
 40
1.0
 10
170.1435316547044
 20
114.4318784605981
 30
0.0
 10
170.2641138440846
 20
114.5966316078252
 30
0.0
 10
170.3762009472025
 20
114.7674371035193
 30
0.0
 10
170.4793547737936
 20
114.9436272053315
 30
0.0
  0
LINE
  5
3A0
330
70
100
AcDbEntity
  8
02___PRT_ALL_AXES
 62
    18
420
        0
370
    35
100
AcDbLine
 10
47.57417192072973
 20
154.4416066818009
 30
0.0
 11
48.67323994272538
 21
154.4416066818009
 31
0.0
  0
LINE
  5
3A1
330
70
100
AcDbEntity
  8
02___PRT_ALL_AXES
 62
    18
420
        0
370
    35
100
AcDbLine
 10
47.57417192072973
 20
156.9394885499731
 30
0.0
 11
48.67323994272538
 21
156.9394885499731
 31
0.0
  0
LINE
  5
3A3
330
70
100
AcDbEntity
  8
03__EJES
 62
    18
420
        0
370
    35
100
AcDbLine
 10
162.7580480570198
 20
140.6532987694892
 30
0.0
 11
161.758895309751
 21
140.6532987694892
 31
0.0
  0
LINE
  5
3A4
330
70
100
AcDbEntity
  8
03__EJES
 62
    18
420
        0
370
    35
100
AcDbLine
 10
161.758895309751
 20
147.1477916267375
 30
0.0
 11
162.7580480570198
 21
147.1477916267375
 31
0.0
  0
SPLINE
  5
3A5
330
70
100
AcDbEntity
  8
03__EJES
 62
    18
420
        0
370
    35
100
AcDbSpline
210
0.0
220
0.0
230
1.0
 70
     8
 71
     3
 72
    11
 73
     7
 74
     0
 42
0.0000000001
 43
0.0000000001
 40
0.0
 40
0.0
 40
0.0
 40
0.0
 40
1.0
 40
1.0
 40
1.0
 40
2.0
 40
2.0
 40
2.0
 40
2.0
 10
161.758895309751
 20
147.1477916267375
 30
0.0
 10
159.9654906282794
 20
147.1477916267375
 30
0.0
 10
158.5116488811268
 20
145.693949879585
 30
0.0
 10
158.5116488811268
 20
143.9005451981133
 30
0.0
 10
158.5116488811268
 20
142.1071405166417
 30
0.0
 10
159.9654906282794
 20
140.6532987694892
 30
0.0
 10
161.758895309751
 20
140.6532987694892
 30
0.0
  0
SPLINE
  5
3A6
330
70
100
AcDbEntity
  8
03__EJES
 62
    18
420
        0
370
    35
100
AcDbSpline
210
0.0
220
0.0
230
1.0
 70
     8
 71
     3
 72
    11
 73
     7
 74
     0
 42
0.0000000001
 43
0.0000000001
 40
0.0
 40
0.0
 40
0.0
 40
0.0
 40
1.0
 40
1.0
 40
1.0
 40
2.0
 40
2.0
 40
2.0
 40
2.0
 10
162.7580480570198
 20
140.6532987694892
 30
0.0
 10
164.5514527384914
 20
140.6532987694892
 30
0.0
 10
166.0052944856439
 20
142.1071405166417
 30
0.0
 10
166.0052944856439
 20
143.9005451981133
 30
0.0
 10
166.0052944856439
 20
145.693949879585
 30
0.0
 10
164.5514527384914
 20
147.1477916267375
 30
0.0
 10
162.7580480570198
 20
147.1477916267375
 30
0.0
  0
SPLINE
  5
3A7
330
70
100
AcDbEntity
  8
03__EJES
 62
    18
420
        0
370
    35
100
AcDbSpline
210
0.0
220
0.0
230
1.0
 70
     9
 71
     3
 72
    20
 73
    16
 74
     0
 42
0.0000000001
 43
0.0000000001
 40
0.0
 40
0.0
 40
0.0
 40
0.0
 40
1.0
 40
1.0
 40
1.0
 40
2.0
 40
2.0
 40
2.0
 40
3.0
 40
3.0
 40
3.0
 40
4.0
 40
4.0
 40
4.0
 40
5.0
 40
5.0
 40
5.0
 40
5.0
 10
161.8088529471144
 20
155.6905476158871
 30
0.0
 10
161.8088529471144
 20
156.5734545359959
 30
0.0
 10
162.5245904226357
 20
157.2891920115172
 30
0.0
 10
163.4074973427451
 20
157.2891920115172
 30
0.0
 10
164.2904042628539
 20
157.2891920115172
 30
0.0
 10
165.0061417383752
 20
156.5734545359959
 30
0.0
 10
165.0061417383752
 20
155.6905476158871
 30
0.0
 10
165.0061417383752
 20
154.8076406957778
 30
0.0
 10
164.2904042628539
 20
154.0919032202565
 30
0.0
 10
163.4074973427451
 20
154.0919032202565
 30
0.0
 10
162.5245904226357
 20
154.0919032202565
 30
0.0
 10
161.8088529471144
 20
154.8076406957778
 30
0.0
 10
161.8088529471144
 20
155.6905476158871
 30
0.0
 10
161.8088529471144
 20
155.6905476158871
 30
0.0
 10
161.8088529471144
 20
155.6905476158871
 30
0.0
 10
161.8088529471144
 20
155.6905476158871
 30
0.0
  0
SPLINE
  5
3A8
330
70
100
AcDbEntity
  8
03__EJES
 62
    18
420
        0
370
    35
100
AcDbSpline
210
0.0
220
0.0
230
1.0
 70
     8
 71
     3
 72
    14
 73
    10
 74
     0
 42
0.0000000001
 43
0.0000000001
 40
0.0
 40
0.0
 40
0.0
 40
0.0
 40
1.0
 40
1.0
 40
1.0
 40
2.0
 40
2.0
 40
2.0
 40
3.0
 40
3.0
 40
3.0
 40
3.0
 10
164.2567771779236
 20
162.1850404731352
 30
0.0
 10
164.2567771779236
 20
162.6907571230925
 30
0.0
 10
163.8464409487305
 20
163.1169669615203
 30
0.0
 10
163.3153386719928
 20
163.3300718807659
 30
0.0
 10
162.784236395096
 20
163.5431768000758
 30
0.0
 10
162.1323680705829
 20
163.5431768000758
 30
0.0
 10
161.6012657936861
 20
163.3300718807659
 30
0.0
 10
161.0701635169485
 20
163.1169669615203
 30
0.0
 10
160.6598272877554
 20
162.6907571230925
 30
0.0
 10
160.6598272877554
 20
162.1850404731352
 30
0.0
  0
SPLINE
  5
3A9
330
70
100
AcDbEntity
  8
03__EJES
 62
    18
420
        0
370
    35
100
AcDbSpline
210
0.0
220
0.0
230
1.0
 70
     8
 71
     3
 72
    14
 73
    10
 74
     0
 42
0.0000000001
 43
0.0000000001
 40
0.0
 40
0.0
 40
0.0
 40
0.0
 40
1.0
 40
1.0
 40
1.0
 40
2.0
 40
2.0
 40
2.0
 40
3.0
 40
3.0
 40
3.0
 40
3.0
 10
160.6598272877554
 20
162.1850404731352
 30
0.0
 10
160.6598272877554
 20
161.6793238231782
 30
0.0
 10
161.0701635169485
 20
161.2531139847006
 30
0.0
 10
161.6012657936861
 20
161.0400090654296
 30
0.0
 10
162.1323680705829
 20
160.8269041460954
 30
0.0
 10
162.784236395096
 20
160.8269041460954
 30
0.0
 10
163.3153386719928
 20
161.0400090654296
 30
0.0
 10
163.8464409487305
 20
161.2531139847006
 30
0.0
 10
164.2567771779236
 20
161.6793238231782
 30
0.0
 10
164.2567771779236
 20
162.1850404731352
 30
0.0
  0
SPLINE
  5
3AA
330
70
100
AcDbEntity
  8
03__EJES
 62
    18
420
        0
370
    35
100
AcDbSpline
210
0.0
220
0.0
230
1.0
 70
     8
 71
     3
 72
    14
 73
    10
 74
     0
 42
0.0000000001
 43
0.0000000001
 40
0.0
 40
0.0
 40
0.0
 40
0.0
 40
1.0
 40
1.0
 40
1.0
 40
2.0
 40
2.0
 40
2.0
 40
3.0
 40
3.0
 40
3.0
 40
3.0
 10
164.2567771779236
 20
168.1799569567491
 30
0.0
 10
164.2567771779236
 20
168.6856736067061
 30
0.0
 10
163.8464409487305
 20
169.1118834451339
 30
0.0
 10
163.3153386719928
 20
169.3249883643799
 30
0.0
 10
162.784236395096
 20
169.5380932836894
 30
0.0
 10
162.1323680705829
 20
169.5380932836894
 30
0.0
 10
161.6012657936861
 20
169.3249883643799
 30
0.0
 10
161.0701635169485
 20
169.1118834451339
 30
0.0
 10
160.6598272877554
 20
168.6856736067061
 30
0.0
 10
160.6598272877554
 20
168.1799569567491
 30
0.0
  0
SPLINE
  5
3AB
330
70
100
AcDbEntity
  8
03__EJES
 62
    18
420
        0
370
    35
100
AcDbSpline
210
0.0
220
0.0
230
1.0
 70
     8
 71
     3
 72
    14
 73
    10
 74
     0
 42
0.0000000001
 43
0.0000000001
 40
0.0
 40
0.0
 40
0.0
 40
0.0
 40
1.0
 40
1.0
 40
1.0
 40
2.0
 40
2.0
 40
2.0
 40
3.0
 40
3.0
 40
3.0
 40
3.0
 10
160.6598272877554
 20
168.1799569567491
 30
0.0
 10
160.6598272877554
 20
167.6742403067918
 30
0.0
 10
161.0701635169485
 20
167.2480304683143
 30
0.0
 10
161.6012657936861
 20
167.0349255490435
 30
0.0
 10
162.1323680705829
 20
166.8218206297084
 30
0.0
 10
162.784236395096
 20
166.8218206297084
 30
0.0
 10
163.3153386719928
 20
167.0349255490435
 30
0.0
 10
163.8464409487305
 20
167.2480304683143
 30
0.0
 10
164.2567771779236
 20
167.6742403067918
 30
0.0
 10
164.2567771779236
 20
168.1799569567491
 30
0.0
  0
SPLINE
  5
3AC
330
70
100
AcDbEntity
  8
03__EJES
 62
    18
420
        0
370
    35
100
AcDbSpline
210
0.0
220
0.0
230
1.0
 70
     8
 71
     3
 72
    14
 73
    10
 74
     0
 42
0.0000000001
 43
0.0000000001
 40
0.0
 40
0.0
 40
0.0
 40
0.0
 40
1.0
 40
1.0
 40
1.0
 40
2.0
 40
2.0
 40
2.0
 40
3.0
 40
3.0
 40
3.0
 40
3.0
 10
160.6598272877554
 20
174.1748734403631
 30
0.0
 10
160.6598272877554
 20
173.6691567904057
 30
0.0
 10
161.0701635169485
 20
173.2429469519282
 30
0.0
 10
161.6012657936861
 20
173.0298420326572
 30
0.0
 10
162.1323680705829
 20
172.8167371133226
 30
0.0
 10
162.784236395096
 20
172.8167371133226
 30
0.0
 10
163.3153386719928
 20
173.0298420326572
 30
0.0
 10
163.8464409487305
 20
173.2429469519282
 30
0.0
 10
164.2567771779236
 20
173.6691567904057
 30
0.0
 10
164.2567771779236
 20
174.1748734403631
 30
0.0
  0
SPLINE
  5
3AD
330
70
100
AcDbEntity
  8
03__EJES
 62
    18
420
        0
370
    35
100
AcDbSpline
210
0.0
220
0.0
230
1.0
 70
     8
 71
     3
 72
    14
 73
    10
 74
     0
 42
0.0000000001
 43
0.0000000001
 40
0.0
 40
0.0
 40
0.0
 40
0.0
 40
1.0
 40
1.0
 40
1.0
 40
2.0
 40
2.0
 40
2.0
 40
3.0
 40
3.0
 40
3.0
 40
3.0
 10
164.2567771779236
 20
174.1748734403631
 30
0.0
 10
164.2567771779236
 20
174.68059009032
 30
0.0
 10
163.8464409487305
 20
175.1067999287482
 30
0.0
 10
163.3153386719928
 20
175.3199048479936
 30
0.0
 10
162.784236395096
 20
175.5330097673034
 30
0.0
 10
162.1323680705829
 20
175.5330097673034
 30
0.0
 10
161.6012657936861
 20
175.3199048479936
 30
0.0
 10
161.0701635169485
 20
175.1067999287482
 30
0.0
 10
160.6598272877554
 20
174.68059009032
 30
0.0
 10
160.6598272877554
 20
174.1748734403631
 30
0.0
  0
SPLINE
  5
3AE
330
70
100
AcDbEntity
  8
03__EJES
 62
    18
420
        0
370
    35
100
AcDbSpline
210
0.0
220
0.0
230
1.0
 70
     8
 71
     3
 72
    11
 73
     7
 74
     0
 42
0.0000000001
 43
0.0000000001
 40
0.0
 40
0.0
 40
0.0
 40
0.0
 40
1.0
 40
1.0
 40
1.0
 40
2.0
 40
2.0
 40
2.0
 40
2.0
 10
50.82137240456801
 20
146.6625005019927
 30
0.0
 10
50.79474669653535
 20
145.7193682043568
 30
0.0
 10
50.78650773624894
 20
143.7182389041117
 30
0.0
 10
50.802970171714
 20
142.1928531100645
 30
0.0
 10
50.80759395315322
 20
141.7644201156048
 30
0.0
 10
50.81389407913665
 20
141.4034861415697
 30
0.0
 10
50.82137240489142
 20
141.1385898827745
 30
0.0
  0
ENDSEC
  0
SECTION
  2
OBJECTS
  0
DICTIONARY
  5
C
330
0
100
AcDbDictionary
281
     1
  3
ACAD_COLOR
350
63
  3
ACAD_DETAILVIEWSTYLE
350
6A
  3
ACAD_GROUP
350
D
  3
ACAD_LAYOUT
350
62
  3
ACAD_MATERIAL
350
10
  3
ACAD_MLEADERSTYLE
350
66
  3
ACAD_MLINESTYLE
350
5F
  3
ACAD_PLOTSETTINGS
350
61
  3
ACAD_PLOTSTYLENAME
350
E
  3
ACAD_SCALELIST
350
42
  3
ACAD_SECTIONVIEWSTYLE
350
68
  3
ACAD_TABLESTYLE
350
64
  3
ACAD_VISUALSTYLE
350
29
  3
ACDB_RECOMPOSE_DATA
350
3B8
  3
AcDbVariableDictionary
350
3AF
  0
DICTIONARY
  5
63
102
{ACAD_REACTORS
330
C
102
}
330
C
100
AcDbDictionary
281
     1
  0
DICTIONARY
  5
6A
102
{ACAD_REACTORS
330
C
102
}
330
C
100
AcDbDictionary
281
     1
  3
Imperial24
350
6B
  0
DICTIONARY
  5
D
102
{ACAD_REACTORS
330
C
102
}
330
C
100
AcDbDictionary
281
     1
  0
DICTIONARY
  5
62
102
{ACAD_REACTORS
330
C
102
}
330
C
100
AcDbDictionary
281
     1
  3
Layout1
350
6F
  3
Layout2
350
77
  3
Model
350
73
  0
DICTIONARY
  5
10
102
{ACAD_REACTORS
330
C
102
}
330
C
100
AcDbDictionary
281
     1
  3
ByBlock
350
19
  3
ByLayer
350
11
  3
Global
350
21
  0
DICTIONARY
  5
66
102
{ACAD_REACTORS
330
C
102
}
330
C
100
AcDbDictionary
281
     1
  3
Standard
350
67
  0
DICTIONARY
  5
5F
102
{ACAD_REACTORS
330
C
102
}
330
C
100
AcDbDictionary
281
     1
  3
Standard
350
60
  0
DICTIONARY
  5
61
102
{ACAD_REACTORS
330
C
102
}
330
C
100
AcDbDictionary
281
     1
  0
ACDBDICTIONARYWDFLT
  5
E
102
{ACAD_REACTORS
330
C
102
}
330
C
100
AcDbDictionary
281
     1
  3
Normal
350
F
100
AcDbDictionaryWithDefault
340
F
  0
DICTIONARY
  5
42
102
{ACAD_REACTORS
330
C
102
}
330
C
100
AcDbDictionary
281
     1
  3
A0
350
43
  3
A1
350
44
  3
A2
350
45
  3
A3
350
46
  3
A4
350
47
  3
A5
350
48
  3
A6
350
49
  3
A7
350
4A
  3
A8
350
4B
  3
A9
350
4C
  3
B0
350
4D
  3
B1
350
4E
  3
B2
350
4F
  3
B3
350
50
  3
B4
350
51
  3
B5
350
52
  3
B6
350
53
  0
DICTIONARY
  5
68
102
{ACAD_REACTORS
330
C
102
}
330
C
100
AcDbDictionary
281
     1
  3
Imperial24
350
69
  0
DICTIONARY
  5
64
102
{ACAD_REACTORS
330
C
102
}
330
C
100
AcDbDictionary
281
     1
  3
Standard
350
65
  0
DICTIONARY
  5
29
102
{ACAD_REACTORS
330
C
102
}
330
C
100
AcDbDictionary
281
     1
  3
2dWireframe
350
2F
  3
Basic
350
2E
  3
Brighten
350
35
  3
ColorChange
350
39
  3
Conceptual
350
32
  3
Dim
350
34
  3
EdgeColorOff
350
41
  3
Facepattern
350
38
  3
Flat
350
2A
  3
FlatWithEdges
350
2B
  3
Gouraud
350
2C
  3
GouraudWithEdges
350
2D
  3
Hidden
350
31
  3
JitterOff
350
3F
  3
Linepattern
350
37
  3
OverhangOff
350
40
  3
Realistic
350
33
  3
Shaded
350
3E
  3
Shaded with edges
350
3D
  3
Shades of Gray
350
3A
  3
Sketchy
350
3B
  3
Thicken
350
36
  3
Wireframe
350
30
  3
X-Ray
350
3C
  0
XRECORD
  5
3B8
102
{ACAD_REACTORS
330
C
102
}
330
C
100
AcDbXrecord
280
     1
 90
        1
330
65
  0
DICTIONARY
  5
3AF
102
{ACAD_REACTORS
330
C
102
}
330
C
100
AcDbDictionary
281
     1
  3
CANNOSCALE
350
3B4
  3
CMLEADERSTYLE
350
3B1
  3
CTABLESTYLE
350
3B0
  3
CVIEWDETAILSTYLE
350
3B2
  3
CVIEWSECTIONSTYLE
350
3B3
  0
ACDBDETAILVIEWSTYLE
  5
6B
102
{ACAD_XDICTIONARY
360
3BB
102
}
102
{ACAD_REACTORS
330
6A
102
}
330
6A
100
AcDbModelDocViewStyle
 70
     0
  3
Imperial24
290
     0
100
AcDbDetailViewStyle
 70
     0
 71
     0
 90
        3
 71
     1
340
55
 62
   256
 40
0.24
340
0
 62
   256
 40
0.24
300

 40
0.36
280
     3
 71
     2
340
5D
 90
       25
 62
   256
 71
     3
340
55
 62
   256
 40
0.24
 90
        1
 40
0.75
 90
        1
300
%<\AcVar ViewType \f "%tc1">% %<\AcVar ViewDetailId>%\PSCALE %<\AcVar ViewScale \f "%sn">%
 71
     4
340
5D
 90
       25
 62
   256
340
5D
 90
       25
 62
   256
280
     0
  0
LAYOUT
  5
6F
102
{ACAD_REACTORS
330
62
102
}
330
62
100
AcDbPlotSettings
  1

  2

  4

  6

 40
0.0
 41
0.0
 42
0.0
 43
0.0
 44
0.0
 45
0.0
 46
0.0
 47
0.0
 48
0.0
 49
0.0
140
0.0
141
0.0
142
1.0
143
1.0
 70
   688
 72
     0
 73
     0
 74
     5
  7

 75
    16
147
1.0
 76
     0
 77
     2
 78
   300
148
0.0
149
0.0
100
AcDbLayout
  1
Layout1
 70
     1
 71
     1
 10
0.0
 20
0.0
 11
12.0
 21
9.0
 12
0.0
 22
0.0
 32
0.0
 14
0.0
 24
0.0
 34
0.0
 15
0.0
 25
0.0
 35
0.0
146
0.0
 13
0.0
 23
0.0
 33
0.0
 16
1.0
 26
0.0
 36
0.0
 17
0.0
 27
1.0
 37
0.0
 76
     0
330
6C
  0
LAYOUT
  5
77
102
{ACAD_REACTORS
330
62
102
}
330
62
100
AcDbPlotSettings
  1

  2

  4

  6

 40
0.0
 41
0.0
 42
0.0
 43
0.0
 44
0.0
 45
0.0
 46
0.0
 47
0.0
 48
0.0
 49
0.0
140
0.0
141
0.0
142
1.0
143
1.0
 70
   688
 72
     0
 73
     0
 74
     5
  7

 75
    16
147
1.0
 76
     0
 77
     2
 78
   300
148
0.0
149
0.0
100
AcDbLayout
  1
Layout2
 70
     1
 71
     2
 10
0.0
 20
0.0
 11
12.0
 21
9.0
 12
0.0
 22
0.0
 32
0.0
 14
0.0
 24
0.0
 34
0.0
 15
0.0
 25
0.0
 35
0.0
146
0.0
 13
0.0
 23
0.0
 33
0.0
 16
1.0
 26
0.0
 36
0.0
 17
0.0
 27
1.0
 37
0.0
 76
     0
330
74
  0
LAYOUT
  5
73
102
{ACAD_REACTORS
330
62
102
}
330
62
100
AcDbPlotSettings
  1

  2

  4

  6

 40
0.0
 41
0.0
 42
0.0
 43
0.0
 44
0.0
 45
0.0
 46
0.0
 47
0.0
 48
0.0
 49
0.0
140
0.0
141
0.0
142
1.0
143
1.0
 70
  1712
 72
     0
 73
     0
 74
     0
  7

 75
     0
147
1.0
 76
     0
 77
     2
 78
   300
148
0.0
149
0.0
100
AcDbLayout
  1
Model
 70
     1
 71
     0
 10
0.0
 20
0.0
 11
12.0
 21
9.0
 12
0.0
 22
0.0
 32
0.0
 14
0.0
 24
0.0
 34
0.0
 15
0.0
 25
0.0
 35
0.0
146
0.0
 13
0.0
 23
0.0
 33
0.0
 16
1.0
 26
0.0
 36
0.0
 17
0.0
 27
1.0
 37
0.0
 76
     0
330
70
  0
MATERIAL
  5
19
102
{ACAD_XDICTIONARY
360
1A
102
}
102
{ACAD_REACTORS
330
10
102
}
330
10
100
AcDbMaterial
  1
ByBlock
 72
     0
 43
0.0208333333333333
 43
0.0
 43
0.0
 43
0.0
 43
0.0
 43
0.0208333333333333
 43
0.0
 43
0.0
 43
0.0
 43
0.0
 43
1.0
 43
0.0
 43
0.0
 43
0.0
 43
0.0
 43
1.0
 77
     0
 47
0.0208333333333333
 47
0.0
 47
0.0
 47
0.0
 47
0.0
 47
0.0208333333333333
 47
0.0
 47
0.0
 47
0.0
 47
0.0
 47
1.0
 47
0.0
 47
0.0
 47
0.0
 47
0.0
 47
1.0
171
     0
 49
0.0208333333333333
 49
0.0
 49
0.0
 49
0.0
 49
0.0
 49
0.0208333333333333
 49
0.0
 49
0.0
 49
0.0
 49
0.0
 49
1.0
 49
0.0
 49
0.0
 49
0.0
 49
0.0
 49
1.0
175
     0
142
0.0208333333333333
142
0.0
142
0.0
142
0.0
142
0.0
142
0.0208333333333333
142
0.0
142
0.0
142
0.0
142
0.0
142
1.0
142
0.0
142
0.0
142
0.0
142
0.0
142
1.0
179
     0
144
0.0208333333333333
144
0.0
144
0.0
144
0.0
144
0.0
144
0.0208333333333333
144
0.0
144
0.0
144
0.0
144
0.0
144
1.0
144
0.0
144
0.0
144
0.0
144
0.0
144
1.0
147
0.0208333333333333
147
0.0
147
0.0
147
0.0
147
0.0
147
0.0208333333333333
147
0.0
147
0.0
147
0.0
147
0.0
147
1.0
147
0.0
147
0.0
147
0.0
147
0.0
147
1.0
  0
MATERIAL
  5
11
102
{ACAD_XDICTIONARY
360
12
102
}
102
{ACAD_REACTORS
330
10
102
}
330
10
100
AcDbMaterial
  1
ByLayer
 72
     0
 43
0.0208333333333333
 43
0.0
 43
0.0
 43
0.0
 43
0.0
 43
0.0208333333333333
 43
0.0
 43
0.0
 43
0.0
 43
0.0
 43
1.0
 43
0.0
 43
0.0
 43
0.0
 43
0.0
 43
1.0
 77
     0
 47
0.0208333333333333
 47
0.0
 47
0.0
 47
0.0
 47
0.0
 47
0.0208333333333333
 47
0.0
 47
0.0
 47
0.0
 47
0.0
 47
1.0
 47
0.0
 47
0.0
 47
0.0
 47
0.0
 47
1.0
171
     0
 49
0.0208333333333333
 49
0.0
 49
0.0
 49
0.0
 49
0.0
 49
0.0208333333333333
 49
0.0
 49
0.0
 49
0.0
 49
0.0
 49
1.0
 49
0.0
 49
0.0
 49
0.0
 49
0.0
 49
1.0
175
     0
142
0.0208333333333333
142
0.0
142
0.0
142
0.0
142
0.0
142
0.0208333333333333
142
0.0
142
0.0
142
0.0
142
0.0
142
1.0
142
0.0
142
0.0
142
0.0
142
0.0
142
1.0
179
     0
144
0.0208333333333333
144
0.0
144
0.0
144
0.0
144
0.0
144
0.0208333333333333
144
0.0
144
0.0
144
0.0
144
0.0
144
1.0
144
0.0
144
0.0
144
0.0
144
0.0
144
1.0
147
0.0208333333333333
147
0.0
147
0.0
147
0.0
147
0.0
147
0.0208333333333333
147
0.0
147
0.0
147
0.0
147
0.0
147
1.0
147
0.0
147
0.0
147
0.0
147
0.0
147
1.0
  0
MATERIAL
  5
21
102
{ACAD_XDICTIONARY
360
22
102
}
102
{ACAD_REACTORS
330
10
102
}
330
10
100
AcDbMaterial
  1
Global
 72
     0
 43
0.0208333333333333
 43
0.0
 43
0.0
 43
0.0
 43
0.0
 43
0.0208333333333333
 43
0.0
 43
0.0
 43
0.0
 43
0.0
 43
1.0
 43
0.0
 43
0.0
 43
0.0
 43
0.0
 43
1.0
 77
     0
 47
0.0208333333333333
 47
0.0
 47
0.0
 47
0.0
 47
0.0
 47
0.0208333333333333
 47
0.0
 47
0.0
 47
0.0
 47
0.0
 47
1.0
 47
0.0
 47
0.0
 47
0.0
 47
0.0
 47
1.0
171
     0
 49
0.0208333333333333
 49
0.0
 49
0.0
 49
0.0
 49
0.0
 49
0.0208333333333333
 49
0.0
 49
0.0
 49
0.0
 49
0.0
 49
1.0
 49
0.0
 49
0.0
 49
0.0
 49
0.0
 49
1.0
175
     0
142
0.0208333333333333
142
0.0
142
0.0
142
0.0
142
0.0
142
0.0208333333333333
142
0.0
142
0.0
142
0.0
142
0.0
142
1.0
142
0.0
142
0.0
142
0.0
142
0.0
142
1.0
179
     0
144
0.0208333333333333
144
0.0
144
0.0
144
0.0
144
0.0
144
0.0208333333333333
144
0.0
144
0.0
144
0.0
144
0.0
144
1.0
144
0.0
144
0.0
144
0.0
144
0.0
144
1.0
147
0.0208333333333333
147
0.0
147
0.0
147
0.0
147
0.0
147
0.0208333333333333
147
0.0
147
0.0
147
0.0
147
0.0
147
1.0
147
0.0
147
0.0
147
0.0
147
0.0
147
1.0
  0
MLEADERSTYLE
  5
67
102
{ACAD_REACTORS
330
66
102
}
330
66
100
AcDbMLeaderStyle
179
     2
170
     2
171
     1
172
     0
 90
        2
 40
0.0
 41
0.0
173
     1
 91
-1056964608
340
5B
 92
       -2
290
     1
 42
0.09
291
     1
 43
0.36
  3
Standard
 44
0.18
300

342
55
174
     1
178
     6
175
     1
176
     0
 93
-1056964608
 45
0.18
292
     0
297
     0
 46
0.18
 94
-1056964608
 47
1.0
 49
1.0
140
1.0
293
     1
141
0.0
294
     1
177
     0
142
1.0
295
     0
296
     0
143
0.125
271
     0
272
     9
273
     9
298
     1
  0
MLINESTYLE
  5
60
102
{ACAD_REACTORS
330
5F
102
}
330
5F
100
AcDbMlineStyle
  2
STANDARD
 70
     0
  3

 62
   256
 51
90.0
 52
90.0
 71
     2
 49
0.5
 62
   256
  6
BYLAYER
 49
-0.5
 62
   256
  6
BYLAYER
  0
ACDBPLACEHOLDER
  5
F
102
{ACAD_REACTORS
330
E
102
}
330
E
  0
SCALE
  5
43
102
{ACAD_REACTORS
330
42
102
}
330
42
100
AcDbScale
 70
     0
300
1:1
140
1.0
141
1.0
290
     1
  0
SCALE
  5
44
102
{ACAD_REACTORS
330
42
102
}
330
42
100
AcDbScale
 70
     0
300
1/128" = 1'-0"
140
0.0078125
141
12.0
290
     0
  0
SCALE
  5
45
102
{ACAD_REACTORS
330
42
102
}
330
42
100
AcDbScale
 70
     0
300
1/64" = 1'-0"
140
0.015625
141
12.0
290
     0
  0
SCALE
  5
46
102
{ACAD_REACTORS
330
42
102
}
330
42
100
AcDbScale
 70
     0
300
1/32" = 1'-0"
140
0.03125
141
12.0
290
     0
  0
SCALE
  5
47
102
{ACAD_REACTORS
330
42
102
}
330
42
100
AcDbScale
 70
     0
300
1/16" = 1'-0"
140
0.0625
141
12.0
290
     0
  0
SCALE
  5
48
102
{ACAD_REACTORS
330
42
102
}
330
42
100
AcDbScale
 70
     0
300
3/32" = 1'-0"
140
0.09375
141
12.0
290
     0
  0
SCALE
  5
49
102
{ACAD_REACTORS
330
42
102
}
330
42
100
AcDbScale
 70
     0
300
1/8" = 1'-0"
140
0.125
141
12.0
290
     0
  0
SCALE
  5
4A
102
{ACAD_REACTORS
330
42
102
}
330
42
100
AcDbScale
 70
     0
300
3/16" = 1'-0"
140
0.1875
141
12.0
290
     0
  0
SCALE
  5
4B
102
{ACAD_REACTORS
330
42
102
}
330
42
100
AcDbScale
 70
     0
300
1/4" = 1'-0"
140
0.25
141
12.0
290
     0
  0
SCALE
  5
4C
102
{ACAD_REACTORS
330
42
102
}
330
42
100
AcDbScale
 70
     0
300
3/8" = 1'-0"
140
0.375
141
12.0
290
     0
  0
SCALE
  5
4D
102
{ACAD_REACTORS
330
42
102
}
330
42
100
AcDbScale
 70
     0
300
1/2" = 1'-0"
140
0.5
141
12.0
290
     0
  0
SCALE
  5
4E
102
{ACAD_REACTORS
330
42
102
}
330
42
100
AcDbScale
 70
     0
300
3/4" = 1'-0"
140
0.75
141
12.0
290
     0
  0
SCALE
  5
4F
102
{ACAD_REACTORS
330
42
102
}
330
42
100
AcDbScale
 70
     0
300
1" = 1'-0"
140
1.0
141
12.0
290
     0
  0
SCALE
  5
50
102
{ACAD_REACTORS
330
42
102
}
330
42
100
AcDbScale
 70
     0
300
1-1/2" = 1'-0"
140
1.5
141
12.0
290
     0
  0
SCALE
  5
51
102
{ACAD_REACTORS
330
42
102
}
330
42
100
AcDbScale
 70
     0
300
3" = 1'-0"
140
3.0
141
12.0
290
     0
  0
SCALE
  5
52
102
{ACAD_REACTORS
330
42
102
}
330
42
100
AcDbScale
 70
     0
300
6" = 1'-0"
140
6.0
141
12.0
290
     0
  0
SCALE
  5
53
102
{ACAD_REACTORS
330
42
102
}
330
42
100
AcDbScale
 70
     0
300
1'-0" = 1'-0"
140
12.0
141
12.0
290
     0
  0
ACDBSECTIONVIEWSTYLE
  5
69
102
{ACAD_XDICTIONARY
360
3B9
102
}
102
{ACAD_REACTORS
330
68
102
}
330
68
100
AcDbModelDocViewStyle
 70
     0
  3
Imperial24
290
     0
100
AcDbSectionViewStyle
 70
     0
 71
     0
 90
       78
 71
     1
340
55
 62
   256
 40
0.24
340
0
340
0
 62
   256
 40
0.24
300
I, O, Q, S, X, Z
 40
0.48
 90
        3
 40
0.18
 90
        1
 71
     2
340
5D
 90
       25
 62
   256
340
5D
 90
       50
 62
   256
 40
0.24
 40
0.0
 40
0.24
 71
     3
340
55
 62
   256
 40
0.24
 90
        1
 40
0.75
 90
        1
300
%<\AcVar ViewType \f "%tc1">% %<\AcVar ViewSectionStartId>%-%<\AcVar ViewSectionEndId>%\PSCALE %<\AcVar ViewScale \f "%sn">%
 71
     4
 62
   256
 62
   257
300
ANSI31
 40
1.0
 90
        0
290
     0
290
     0
 90
        6
 40
0.0
 40
1.570796326794896
 40
0.2617993877991494
 40
1.308996938995747
 40
-0.2617993877991494
 40
1.832595714594046
  0
TABLESTYLE
  5
65
102
{ACAD_XDICTIONARY
360
3B5
102
}
102
{ACAD_REACTORS
330
64
102
}
330
64
100
AcDbTableStyle
280
     0
  3
Standard
 70
     0
 71
     0
 40
0.06
 41
0.06
280
     0
281
     0
  7
Standard
140
0.18
170
     2
 62
     0
 63
     7
283
     0
 90
      512
 91
        0
  1

274
    -2
284
     1
 64
     0
275
    -2
285
     1
 65
     0
276
    -2
286
     1
 66
     0
277
    -2
287
     1
 67
     0
278
    -2
288
     1
 68
     0
279
    -2
289
     1
 69
     0
  7
Standard
140
0.25
170
     5
 62
     0
 63
     7
283
     0
 90
      512
 91
        0
  1

274
    -2
284
     1
 64
     0
275
    -2
285
     1
 65
     0
276
    -2
286
     1
 66
     0
277
    -2
287
     1
 67
     0
278
    -2
288
     1
 68
     0
279
    -2
289
     1
 69
     0
  7
Standard
140
0.18
170
     5
 62
     0
 63
     7
283
     0
 90
      512
 91
        0
  1

274
    -2
284
     1
 64
     0
275
    -2
285
     1
 65
     0
276
    -2
286
     1
 66
     0
277
    -2
287
     1
 67
     0
278
    -2
288
     1
 68
     0
279
    -2
289
     1
 69
     0
  0
VISUALSTYLE
  5
2F
102
{ACAD_REACTORS
330
29
102
}
330
29
100
AcDbVisualStyle
  2
2dWireframe
 70
     4
177
     3
291
     0
 70
    58
 90
        0
176
     1
 90
        2
176
     1
 90
        0
176
     1
 90
        0
176
     1
 40
0.6
176
     1
 40
30.0
176
     1
 62
     7
420
 16777215
176
     1
 90
        1
176
     1
 90
        4
176
     1
 62
     7
176
     1
 62
   257
176
     1
 90
        1
176
     1
 90
        1
176
     1
 40
1.0
176
     1
 90
        0
176
     1
 62
   257
176
     1
 40
1.0
176
     1
 90
        1
176
     1
 90
        6
176
     1
 90
        2
176
     1
 62
     7
176
     1
 90
        5
176
     1
 90
        0
176
     1
 90
        0
176
     1
290
     0
176
     1
 90
        1
176
     1
 40
0.0
176
     1
 90
        0
176
     1
290
     1
176
     1
290
     1
176
     1
290
     0
176
     1
290
     0
176
     1
290
     0
176
     1
290
     0
176
     1
290
     0
176
     1
290
     0
176
     1
290
     0
176
     1
 90
       50
176
     1
 40
0.0
176
     1
 40
1.0
176
     1
 90
        0
176
     1
 62
    18
420
        0
176
     1
 90
       50
176
     1
 90
        3
176
     1
 62
     5
420
      255
176
     1
290
     0
176
     1
 90
       50
176
     1
 90
       50
176
     1
 90
       50
176
     1
290
     0
176
     1
 90
       50
176
     1
 62
   256
176
     0
 40
1.0
176
     0
 90
        2
176
     1
  1
strokes_ogs.tif
176
     1
290
     0
176
     1
 40
1.0
176
     1
 40
1.0
176
     1
1001
ACAD
1000
AcDbSavedByObjectVersion
1070
     0
  0
VISUALSTYLE
  5
2E
102
{ACAD_REACTORS
330
29
102
}
330
29
100
AcDbVisualStyle
  2
Basic
 70
     7
177
     3
291
     1
 70
    58
 90
        1
176
     1
 90
        0
176
     1
 90
        1
176
     1
 90
        0
176
     1
 40
0.6
176
     1
 40
30.0
176
     1
 62
     7
420
 16777215
176
     1
 90
        0
176
     1
 90
        4
176
     1
 62
     7
176
     1
 62
   257
176
     1
 90
        1
176
     1
 90
        1
176
     1
 40
1.0
176
     1
 90
        8
176
     1
 62
     7
176
     1
 40
1.0
176
     1
 90
        1
176
     1
 90
        6
176
     1
 90
        2
176
     1
 62
     7
176
     1
 90
        5
176
     1
 90
        0
176
     1
 90
        0
176
     1
290
     0
176
     1
 90
        1
176
     1
 40
0.0
176
     1
 90
        0
176
     1
290
     0
176
     1
290
     1
176
     1
290
     1
176
     1
290
     0
176
     1
290
     0
176
     1
290
     0
176
     1
290
     0
176
     1
290
     0
176
     1
290
     0
176
     1
 90
       50
176
     1
 40
0.0
176
     1
 40
1.0
176
     1
 90
        0
176
     1
 62
    18
420
        0
176
     1
 90
       50
176
     1
 90
        3
176
     1
 62
     5
420
      255
176
     1
290
     0
176
     1
 90
       50
176
     1
 90
       50
176
     1
 90
       50
176
     1
290
     0
176
     1
 90
       50
176
     1
 62
   256
176
     0
 40
1.0
176
     0
 90
        2
176
     1
  1
strokes_ogs.tif
176
     1
290
     0
176
     1
 40
1.0
176
     1
 40
1.0
176
     1
1001
ACAD
1000
AcDbSavedByObjectVersion
1070
     0
  0
VISUALSTYLE
  5
35
102
{ACAD_REACTORS
330
29
102
}
330
29
100
AcDbVisualStyle
  2
Brighten
 70
    12
177
     3
291
     1
 70
    58
 90
        2
176
     1
 90
        2
176
     1
 90
        0
176
     1
 90
        0
176
     1
 40
0.6
176
     1
 40
30.0
176
     1
 62
     7
420
 16777215
176
     1
 90
        1
176
     1
 90
        4
176
     1
 62
     7
176
     1
 62
   257
176
     1
 90
        1
176
     1
 90
        1
176
     1
 40
1.0
176
     1
 90
        8
176
     1
 62
     7
176
     1
 40
1.0
176
     1
 90
        1
176
     1
 90
        6
176
     1
 90
        2
176
     1
 62
     7
176
     1
 90
        5
176
     1
 90
        0
176
     1
 90
        0
176
     1
290
     0
176
     1
 90
        1
176
     1
 40
50.0
176
     1
 90
        0
176
     1
290
     0
176
     1
290
     1
176
     1
290
     1
176
     1
290
     0
176
     1
290
     0
176
     1
290
     0
176
     1
290
     0
176
     1
290
     0
176
     1
290
     0
176
     1
 90
       50
176
     1
 40
0.0
176
     1
 40
1.0
176
     1
 90
        0
176
     1
 62
    18
420
        0
176
     1
 90
       50
176
     1
 90
        3
176
     1
 62
     5
420
      255
176
     1
290
     0
176
     1
 90
       50
176
     1
 90
       50
176
     1
 90
       50
176
     1
290
     0
176
     1
 90
       50
176
     1
 62
   256
176
     0
 40
1.0
176
     0
 90
        2
176
     1
  1
strokes_ogs.tif
176
     1
290
     0
176
     1
 40
1.0
176
     1
 40
1.0
176
     1
1001
ACAD
1000
AcDbSavedByObjectVersion
1070
     0
  0
VISUALSTYLE
  5
39
102
{ACAD_REACTORS
330
29
102
}
330
29
100
AcDbVisualStyle
  2
ColorChange
 70
    16
177
     3
291
     1
 70
    58
 90
        2
176
     1
 90
        2
176
     1
 90
        3
176
     1
 90
        0
176
     1
 40
0.6
176
     1
 40
30.0
176
     1
 62
     8
420
  8421504
176
     1
 90
        1
176
     1
 90
        4
176
     1
 62
     7
176
     1
 62
   257
176
     1
 90
        1
176
     1
 90
        1
176
     1
 40
1.0
176
     1
 90
        8
176
     1
 62
     8
420
  8421504
176
     1
 40
1.0
176
     1
 90
        1
176
     1
 90
        6
176
     1
 90
        2
176
     1
 62
     7
176
     1
 90
        5
176
     1
 90
        0
176
     1
 90
        0
176
     1
290
     0
176
     1
 90
        1
176
     1
 40
0.0
176
     1
 90
        0
176
     1
290
     0
176
     1
290
     1
176
     1
290
     1
176
     1
290
     0
176
     1
290
     0
176
     1
290
     0
176
     1
290
     0
176
     1
290
     0
176
     1
290
     0
176
     1
 90
       50
176
     1
 40
0.0
176
     1
 40
1.0
176
     1
 90
        0
176
     1
 62
    18
420
        0
176
     1
 90
       50
176
     1
 90
        3
176
     1
 62
     5
420
      255
176
     1
290
     0
176
     1
 90
       50
176
     1
 90
       50
176
     1
 90
       50
176
     1
290
     0
176
     1
 90
       50
176
     1
 62
   256
176
     0
 40
1.0
176
     0
 90
        2
176
     1
  1
strokes_ogs.tif
176
     1
290
     0
176
     1
 40
1.0
176
     1
 40
1.0
176
     1
1001
ACAD
1000
AcDbSavedByObjectVersion
1070
     0
  0
VISUALSTYLE
  5
32
102
{ACAD_REACTORS
330
29
102
}
330
29
100
AcDbVisualStyle
  2
Conceptual
 70
     9
177
     3
291
     0
 70
    58
 90
        3
176
     1
 90
        2
176
     1
 90
        0
176
     1
 90
        0
176
     1
 40
0.6
176
     1
 40
30.0
176
     1
 62
     7
420
 16777215
176
     1
 90
        2
176
     1
 90
        2
176
     1
 62
     7
176
     1
 62
   257
176
     1
 90
        1
176
     1
 90
        1
176
     1
 40
179.0
176
     1
 90
        8
176
     1
 62
     7
176
     1
 40
1.0
176
     1
 90
        1
176
     1
 90
        6
176
     1
 90
        2
176
     1
 62
     7
176
     1
 90
        3
176
     1
 90
        0
176
     1
 90
        0
176
     1
290
     0
176
     1
 90
        1
176
     1
 40
0.0
176
     1
 90
        0
176
     1
290
     0
176
     1
290
     1
176
     1
290
     1
176
     1
290
     0
176
     1
290
     0
176
     1
290
     0
176
     1
290
     0
176
     1
290
     0
176
     1
290
     0
176
     1
 90
       50
176
     1
 40
0.0
176
     1
 40
1.0
176
     1
 90
        0
176
     1
 62
    18
420
        0
176
     1
 90
       50
176
     1
 90
        3
176
     1
 62
     5
420
      255
176
     1
290
     0
176
     1
 90
       50
176
     1
 90
       50
176
     1
 90
       50
176
     1
290
     0
176
     1
 90
       50
176
     1
 62
   256
176
     0
 40
1.0
176
     0
 90
        2
176
     1
  1
strokes_ogs.tif
176
     1
290
     0
176
     1
 40
1.0
176
     1
 40
1.0
176
     1
1001
ACAD
1000
AcDbSavedByObjectVersion
1070
     0
  0
VISUALSTYLE
  5
34
102
{ACAD_REACTORS
330
29
102
}
330
29
100
AcDbVisualStyle
  2
Dim
 70
    11
177
     3
291
     1
 70
    58
 90
        2
176
     1
 90
        2
176
     1
 90
        0
176
     1
 90
        0
176
     1
 40
0.6
176
     1
 40
30.0
176
     1
 62
     7
420
 16777215
176
     1
 90
        1
176
     1
 90
        4
176
     1
 62
     7
176
     1
 62
   257
176
     1
 90
        1
176
     1
 90
        1
176
     1
 40
1.0
176
     1
 90
        8
176
     1
 62
     7
176
     1
 40
1.0
176
     1
 90
        1
176
     1
 90
        6
176
     1
 90
        2
176
     1
 62
     7
176
     1
 90
        5
176
     1
 90
        0
176
     1
 90
        0
176
     1
290
     0
176
     1
 90
        1
176
     1
 40
-50.0
176
     1
 90
        0
176
     1
290
     0
176
     1
290
     1
176
     1
290
     1
176
     1
290
     0
176
     1
290
     0
176
     1
290
     0
176
     1
290
     0
176
     1
290
     0
176
     1
290
     0
176
     1
 90
       50
176
     1
 40
0.0
176
     1
 40
1.0
176
     1
 90
        0
176
     1
 62
    18
420
        0
176
     1
 90
       50
176
     1
 90
        3
176
     1
 62
     5
420
      255
176
     1
290
     0
176
     1
 90
       50
176
     1
 90
       50
176
     1
 90
       50
176
     1
290
     0
176
     1
 90
       50
176
     1
 62
   256
176
     0
 40
1.0
176
     0
 90
        2
176
     1
  1
strokes_ogs.tif
176
     1
290
     0
176
     1
 40
1.0
176
     1
 40
1.0
176
     1
1001
ACAD
1000
AcDbSavedByObjectVersion
1070
     0
  0
VISUALSTYLE
  5
41
102
{ACAD_REACTORS
330
29
102
}
330
29
100
AcDbVisualStyle
  2
EdgeColorOff
 70
    22
177
     3
291
     1
 70
    58
 90
        2
176
     0
 90
        2
176
     0
 90
        0
176
     0
 90
        0
176
     0
 40
0.6
176
     0
 40
30.0
176
     0
 62
     7
420
 16777215
176
     0
 90
        1
176
     0
 90
        4
176
     0
 62
     7
176
     0
 62
   257
176
     0
 90
        1
176
     0
 90
        1
176
     0
 40
1.0
176
     0
 90
        8
176
     2
 62
     7
176
     0
 40
1.0
176
     0
 90
        1
176
     0
 90
        6
176
     0
 90
        2
176
     0
 62
     7
176
     0
 90
        5
176
     0
 90
        0
176
     0
 90
        0
176
     0
290
     0
176
     0
 90
        1
176
     0
 40
0.0
176
     0
 90
        0
176
     0
290
     0
176
     0
290
     1
176
     0
290
     1
176
     0
290
     0
176
     0
290
     0
176
     0
290
     0
176
     0
290
     0
176
     0
290
     0
176
     0
290
     0
176
     0
 90
       50
176
     0
 40
0.0
176
     0
 40
1.0
176
     0
 90
        0
176
     0
 62
    18
420
        0
176
     0
 90
       50
176
     0
 90
        3
176
     0
 62
     5
420
      255
176
     0
290
     0
176
     0
 90
       50
176
     0
 90
       50
176
     0
 90
       50
176
     0
290
     0
176
     0
 90
       50
176
     0
 62
   256
176
     0
 40
1.0
176
     0
 90
        2
176
     0
  1
strokes_ogs.tif
176
     0
290
     0
176
     0
 40
1.0
176
     0
 40
1.0
176
     0
1001
ACAD
1000
AcDbSavedByObjectVersion
1070
     0
  0
VISUALSTYLE
  5
38
102
{ACAD_REACTORS
330
29
102
}
330
29
100
AcDbVisualStyle
  2
Facepattern
 70
    15
177
     3
291
     1
 70
    58
 90
        2
176
     1
 90
        2
176
     1
 90
        0
176
     1
 90
        0
176
     1
 40
0.6
176
     1
 40
30.0
176
     1
 62
     7
420
 16777215
176
     1
 90
        1
176
     1
 90
        4
176
     1
 62
     7
176
     1
 62
   257
176
     1
 90
        1
176
     1
 90
        1
176
     1
 40
1.0
176
     1
 90
        8
176
     1
 62
     7
176
     1
 40
1.0
176
     1
 90
        1
176
     1
 90
        6
176
     1
 90
        2
176
     1
 62
     7
176
     1
 90
        5
176
     1
 90
        0
176
     1
 90
        0
176
     1
290
     0
176
     1
 90
        1
176
     1
 40
0.0
176
     1
 90
        0
176
     1
290
     0
176
     1
290
     1
176
     1
290
     1
176
     1
290
     0
176
     1
290
     0
176
     1
290
     0
176
     1
290
     0
176
     1
290
     0
176
     1
290
     0
176
     1
 90
       50
176
     1
 40
0.0
176
     1
 40
1.0
176
     1
 90
        0
176
     1
 62
    18
420
        0
176
     1
 90
       50
176
     1
 90
        3
176
     1
 62
     5
420
      255
176
     1
290
     0
176
     1
 90
       50
176
     1
 90
       50
176
     1
 90
       50
176
     1
290
     0
176
     1
 90
       50
176
     1
 62
   256
176
     0
 40
1.0
176
     0
 90
        2
176
     1
  1
strokes_ogs.tif
176
     1
290
     0
176
     1
 40
1.0
176
     1
 40
1.0
176
     1
1001
ACAD
1000
AcDbSavedByObjectVersion
1070
     0
  0
VISUALSTYLE
  5
2A
102
{ACAD_REACTORS
330
29
102
}
330
29
100
AcDbVisualStyle
  2
Flat
 70
     0
177
     3
291
     1
 70
    58
 90
        2
176
     1
 90
        1
176
     1
 90
        1
176
     1
 90
        2
176
     1
 40
0.6
176
     1
 40
30.0
176
     1
 62
     7
420
 16777215
176
     1
 90
        0
176
     1
 90
        0
176
     1
 62
     7
176
     1
 62
   257
176
     1
 90
        1
176
     1
 90
        1
176
     1
 40
1.0
176
     1
 90
        8
176
     1
 62
     7
176
     1
 40
1.0
176
     1
 90
        1
176
     1
 90
        6
176
     1
 90
        2
176
     1
 62
     7
176
     1
 90
        5
176
     1
 90
        0
176
     1
 90
        0
176
     1
290
     0
176
     1
 90
       13
176
     1
 40
0.0
176
     1
 90
        0
176
     1
290
     0
176
     1
290
     1
176
     1
290
     1
176
     1
290
     0
176
     1
290
     0
176
     1
290
     0
176
     1
290
     0
176
     1
290
     0
176
     1
290
     0
176
     1
 90
       50
176
     1
 40
0.0
176
     1
 40
1.0
176
     1
 90
        0
176
     1
 62
    18
420
        0
176
     1
 90
       50
176
     1
 90
        3
176
     1
 62
     5
420
      255
176
     1
290
     0
176
     1
 90
       50
176
     1
 90
       50
176
     1
 90
       50
176
     1
290
     0
176
     1
 90
       50
176
     1
 62
   256
176
     0
 40
1.0
176
     0
 90
        2
176
     1
  1
strokes_ogs.tif
176
     1
290
     0
176
     1
 40
1.0
176
     1
 40
1.0
176
     1
1001
ACAD
1000
AcDbSavedByObjectVersion
1070
     0
  0
VISUALSTYLE
  5
2B
102
{ACAD_REACTORS
330
29
102
}
330
29
100
AcDbVisualStyle
  2
FlatWithEdges
 70
     1
177
     3
291
     1
 70
    58
 90
        2
176
     1
 90
        1
176
     1
 90
        1
176
     1
 90
        2
176
     1
 40
0.6
176
     1
 40
30.0
176
     1
 62
     7
420
 16777215
176
     1
 90
        1
176
     1
 90
        0
176
     1
 62
     7
176
     1
 62
   257
176
     1
 90
        1
176
     1
 90
        1
176
     1
 40
1.0
176
     1
 90
        0
176
     1
 62
   257
176
     1
 40
1.0
176
     1
 90
        1
176
     1
 90
        6
176
     1
 90
        2
176
     1
 62
     7
176
     1
 90
        5
176
     1
 90
        0
176
     1
 90
        0
176
     1
290
     0
176
     1
 90
       13
176
     1
 40
0.0
176
     1
 90
        0
176
     1
290
     0
176
     1
290
     1
176
     1
290
     1
176
     1
290
     0
176
     1
290
     0
176
     1
290
     0
176
     1
290
     0
176
     1
290
     0
176
     1
290
     0
176
     1
 90
       50
176
     1
 40
0.0
176
     1
 40
1.0
176
     1
 90
        0
176
     1
 62
    18
420
        0
176
     1
 90
       50
176
     1
 90
        3
176
     1
 62
     5
420
      255
176
     1
290
     0
176
     1
 90
       50
176
     1
 90
       50
176
     1
 90
       50
176
     1
290
     0
176
     1
 90
       50
176
     1
 62
   256
176
     0
 40
1.0
176
     0
 90
        2
176
     1
  1
strokes_ogs.tif
176
     1
290
     0
176
     1
 40
1.0
176
     1
 40
1.0
176
     1
1001
ACAD
1000
AcDbSavedByObjectVersion
1070
     0
  0
VISUALSTYLE
  5
2C
102
{ACAD_REACTORS
330
29
102
}
330
29
100
AcDbVisualStyle
  2
Gouraud
 70
     2
177
     3
291
     1
 70
    58
 90
        2
176
     1
 90
        2
176
     1
 90
        1
176
     1
 90
        2
176
     1
 40
0.6
176
     1
 40
30.0
176
     1
 62
     7
420
 16777215
176
     1
 90
        0
176
     1
 90
        0
176
     1
 62
     7
176
     1
 62
   257
176
     1
 90
        1
176
     1
 90
        1
176
     1
 40
1.0
176
     1
 90
        0
176
     1
 62
     7
176
     1
 40
1.0
176
     1
 90
        1
176
     1
 90
        6
176
     1
 90
        2
176
     1
 62
     7
176
     1
 90
        5
176
     1
 90
        0
176
     1
 90
        0
176
     1
290
     0
176
     1
 90
       13
176
     1
 40
0.0
176
     1
 90
        0
176
     1
290
     0
176
     1
290
     1
176
     1
290
     1
176
     1
290
     0
176
     1
290
     0
176
     1
290
     0
176
     1
290
     0
176
     1
290
     0
176
     1
290
     0
176
     1
 90
       50
176
     1
 40
0.0
176
     1
 40
1.0
176
     1
 90
        0
176
     1
 62
    18
420
        0
176
     1
 90
       50
176
     1
 90
        3
176
     1
 62
     5
420
      255
176
     1
290
     0
176
     1
 90
       50
176
     1
 90
       50
176
     1
 90
       50
176
     1
290
     0
176
     1
 90
       50
176
     1
 62
   256
176
     0
 40
1.0
176
     0
 90
        2
176
     1
  1
strokes_ogs.tif
176
     1
290
     0
176
     1
 40
1.0
176
     1
 40
1.0
176
     1
1001
ACAD
1000
AcDbSavedByObjectVersion
1070
     0
  0
VISUALSTYLE
  5
2D
102
{ACAD_REACTORS
330
29
102
}
330
29
100
AcDbVisualStyle
  2
GouraudWithEdges
 70
     3
177
     3
291
     1
 70
    58
 90
        2
176
     1
 90
        2
176
     1
 90
        1
176
     1
 90
        2
176
     1
 40
0.6
176
     1
 40
30.0
176
     1
 62
     7
420
 16777215
176
     1
 90
        1
176
     1
 90
        0
176
     1
 62
     7
176
     1
 62
   257
176
     1
 90
        1
176
     1
 90
        1
176
     1
 40
1.0
176
     1
 90
        0
176
     1
 62
   257
176
     1
 40
1.0
176
     1
 90
        1
176
     1
 90
        6
176
     1
 90
        2
176
     1
 62
     7
176
     1
 90
        5
176
     1
 90
        0
176
     1
 90
        0
176
     1
290
     0
176
     1
 90
       13
176
     1
 40
0.0
176
     1
 90
        0
176
     1
290
     0
176
     1
290
     1
176
     1
290
     1
176
     1
290
     0
176
     1
290
     0
176
     1
290
     0
176
     1
290
     0
176
     1
290
     0
176
     1
290
     0
176
     1
 90
       50
176
     1
 40
0.0
176
     1
 40
1.0
176
     1
 90
        0
176
     1
 62
    18
420
        0
176
     1
 90
       50
176
     1
 90
        3
176
     1
 62
     5
420
      255
176
     1
290
     0
176
     1
 90
       50
176
     1
 90
       50
176
     1
 90
       50
176
     1
290
     0
176
     1
 90
       50
176
     1
 62
   256
176
     0
 40
1.0
176
     0
 90
        2
176
     1
  1
strokes_ogs.tif
176
     1
290
     0
176
     1
 40
1.0
176
     1
 40
1.0
176
     1
1001
ACAD
1000
AcDbSavedByObjectVersion
1070
     0
  0
VISUALSTYLE
  5
31
102
{ACAD_REACTORS
330
29
102
}
330
29
100
AcDbVisualStyle
  2
Hidden
 70
     6
177
     3
291
     0
 70
    58
 90
        1
176
     1
 90
        2
176
     1
 90
        2
176
     1
 90
        0
176
     1
 40
0.6
176
     1
 40
30.0
176
     1
 62
     7
420
 16777215
176
     1
 90
        2
176
     1
 90
        2
176
     1
 62
     7
176
     1
 62
   257
176
     1
 90
        2
176
     1
 90
        1
176
     1
 40
40.0
176
     1
 90
        0
176
     1
 62
   257
176
     1
 40
1.0
176
     1
 90
        1
176
     1
 90
        6
176
     1
 90
        2
176
     1
 62
     7
176
     1
 90
        3
176
     1
 90
        0
176
     1
 90
        0
176
     1
290
     0
176
     1
 90
        1
176
     1
 40
0.0
176
     1
 90
        0
176
     1
290
     0
176
     1
290
     1
176
     1
290
     1
176
     1
290
     0
176
     1
290
     0
176
     1
290
     0
176
     1
290
     0
176
     1
290
     0
176
     1
290
     0
176
     1
 90
       50
176
     1
 40
0.0
176
     1
 40
1.0
176
     1
 90
        0
176
     1
 62
    18
420
        0
176
     1
 90
       50
176
     1
 90
        3
176
     1
 62
     5
420
      255
176
     1
290
     0
176
     1
 90
       50
176
     1
 90
       50
176
     1
 90
       50
176
     1
290
     0
176
     1
 90
       50
176
     1
 62
   256
176
     0
 40
1.0
176
     0
 90
        2
176
     1
  1
strokes_ogs.tif
176
     1
290
     0
176
     1
 40
1.0
176
     1
 40
1.0
176
     1
1001
ACAD
1000
AcDbSavedByObjectVersion
1070
     0
  0
VISUALSTYLE
  5
3F
102
{ACAD_REACTORS
330
29
102
}
330
29
100
AcDbVisualStyle
  2
JitterOff
 70
    20
177
     3
291
     1
 70
    58
 90
        2
176
     0
 90
        2
176
     0
 90
        0
176
     0
 90
        0
176
     0
 40
0.6
176
     0
 40
30.0
176
     0
 62
     7
420
 16777215
176
     0
 90
        1
176
     0
 90
        4
176
     0
 62
     7
176
     0
 62
   257
176
     0
 90
        1
176
     0
 90
        1
176
     0
 40
1.0
176
     0
 90
       10
176
     2
 62
     7
176
     0
 40
1.0
176
     0
 90
        1
176
     0
 90
        6
176
     0
 90
        2
176
     0
 62
     7
176
     0
 90
        5
176
     0
 90
        0
176
     0
 90
        0
176
     0
290
     0
176
     0
 90
        1
176
     0
 40
0.0
176
     0
 90
        0
176
     0
290
     0
176
     0
290
     1
176
     0
290
     1
176
     0
290
     0
176
     0
290
     0
176
     0
290
     0
176
     0
290
     0
176
     0
290
     0
176
     0
290
     0
176
     0
 90
       50
176
     0
 40
0.0
176
     0
 40
1.0
176
     0
 90
        0
176
     0
 62
    18
420
        0
176
     0
 90
       50
176
     0
 90
        3
176
     0
 62
     5
420
      255
176
     0
290
     0
176
     0
 90
       50
176
     0
 90
       50
176
     0
 90
       50
176
     0
290
     0
176
     0
 90
       50
176
     0
 62
   256
176
     0
 40
1.0
176
     0
 90
        2
176
     0
  1
strokes_ogs.tif
176
     0
290
     0
176
     0
 40
1.0
176
     0
 40
1.0
176
     0
1001
ACAD
1000
AcDbSavedByObjectVersion
1070
     0
  0
VISUALSTYLE
  5
37
102
{ACAD_REACTORS
330
29
102
}
330
29
100
AcDbVisualStyle
  2
Linepattern
 70
    14
177
     3
291
     1
 70
    58
 90
        2
176
     1
 90
        2
176
     1
 90
        0
176
     1
 90
        0
176
     1
 40
0.6
176
     1
 40
30.0
176
     1
 62
     7
420
 16777215
176
     1
 90
        1
176
     1
 90
        4
176
     1
 62
     7
176
     1
 62
   257
176
     1
 90
        7
176
     1
 90
        7
176
     1
 40
1.0
176
     1
 90
        8
176
     1
 62
     7
176
     1
 40
1.0
176
     1
 90
        1
176
     1
 90
        6
176
     1
 90
        2
176
     1
 62
     7
176
     1
 90
        5
176
     1
 90
        0
176
     1
 90
        0
176
     1
290
     0
176
     1
 90
        1
176
     1
 40
0.0
176
     1
 90
        0
176
     1
290
     0
176
     1
290
     1
176
     1
290
     1
176
     1
290
     0
176
     1
290
     0
176
     1
290
     0
176
     1
290
     0
176
     1
290
     0
176
     1
290
     0
176
     1
 90
       50
176
     1
 40
0.0
176
     1
 40
1.0
176
     1
 90
        0
176
     1
 62
    18
420
        0
176
     1
 90
       50
176
     1
 90
        3
176
     1
 62
     5
420
      255
176
     1
290
     0
176
     1
 90
       50
176
     1
 90
       50
176
     1
 90
       50
176
     1
290
     0
176
     1
 90
       50
176
     1
 62
   256
176
     0
 40
1.0
176
     0
 90
        2
176
     1
  1
strokes_ogs.tif
176
     1
290
     0
176
     1
 40
1.0
176
     1
 40
1.0
176
     1
1001
ACAD
1000
AcDbSavedByObjectVersion
1070
     0
  0
VISUALSTYLE
  5
40
102
{ACAD_REACTORS
330
29
102
}
330
29
100
AcDbVisualStyle
  2
OverhangOff
 70
    21
177
     3
291
     1
 70
    58
 90
        2
176
     0
 90
        2
176
     0
 90
        0
176
     0
 90
        0
176
     0
 40
0.6
176
     0
 40
30.0
176
     0
 62
     7
420
 16777215
176
     0
 90
        1
176
     0
 90
        4
176
     0
 62
     7
176
     0
 62
   257
176
     0
 90
        1
176
     0
 90
        1
176
     0
 40
1.0
176
     0
 90
        9
176
     2
 62
     7
176
     0
 40
1.0
176
     0
 90
        1
176
     0
 90
        6
176
     0
 90
        2
176
     0
 62
     7
176
     0
 90
        5
176
     0
 90
        0
176
     0
 90
        0
176
     0
290
     0
176
     0
 90
        1
176
     0
 40
0.0
176
     0
 90
        0
176
     0
290
     0
176
     0
290
     1
176
     0
290
     1
176
     0
290
     0
176
     0
290
     0
176
     0
290
     0
176
     0
290
     0
176
     0
290
     0
176
     0
290
     0
176
     0
 90
       50
176
     0
 40
0.0
176
     0
 40
1.0
176
     0
 90
        0
176
     0
 62
    18
420
        0
176
     0
 90
       50
176
     0
 90
        3
176
     0
 62
     5
420
      255
176
     0
290
     0
176
     0
 90
       50
176
     0
 90
       50
176
     0
 90
       50
176
     0
290
     0
176
     0
 90
       50
176
     0
 62
   256
176
     0
 40
1.0
176
     0
 90
        2
176
     0
  1
strokes_ogs.tif
176
     0
290
     0
176
     0
 40
1.0
176
     0
 40
1.0
176
     0
1001
ACAD
1000
AcDbSavedByObjectVersion
1070
     0
  0
VISUALSTYLE
  5
33
102
{ACAD_REACTORS
330
29
102
}
330
29
100
AcDbVisualStyle
  2
Realistic
 70
     8
177
     3
291
     0
 70
    58
 90
        2
176
     1
 90
        3
176
     1
 90
        0
176
     1
 90
        2
176
     1
 40
0.6
176
     1
 40
30.0
176
     1
 62
     7
420
 16777215
176
     1
 90
        0
176
     1
 90
        0
176
     1
 62
     7
176
     1
 62
   257
176
     1
 90
        1
176
     1
 90
        1
176
     1
 40
1.0
176
     1
 90
        8
176
     1
 62
   257
176
     1
 40
1.0
176
     1
 90
        1
176
     1
 90
        6
176
     1
 90
        2
176
     1
 62
     7
176
     1
 90
        3
176
     1
 90
        0
176
     1
 90
        0
176
     1
290
     0
176
     1
 90
       13
176
     1
 40
0.0
176
     1
 90
        0
176
     1
290
     0
176
     1
290
     1
176
     1
290
     1
176
     1
290
     0
176
     1
290
     0
176
     1
290
     0
176
     1
290
     0
176
     1
290
     0
176
     1
290
     0
176
     1
 90
       50
176
     1
 40
0.0
176
     1
 40
1.0
176
     1
 90
        0
176
     1
 62
    18
420
        0
176
     1
 90
       50
176
     1
 90
        3
176
     1
 62
     5
420
      255
176
     1
290
     0
176
     1
 90
       50
176
     1
 90
       50
176
     1
 90
       50
176
     1
290
     0
176
     1
 90
       50
176
     1
 62
   256
176
     0
 40
1.0
176
     0
 90
        2
176
     1
  1
strokes_ogs.tif
176
     1
290
     0
176
     1
 40
1.0
176
     1
 40
1.0
176
     1
1001
ACAD
1000
AcDbSavedByObjectVersion
1070
     0
  0
VISUALSTYLE
  5
3E
102
{ACAD_REACTORS
330
29
102
}
330
29
100
AcDbVisualStyle
  2
Shaded
 70
    27
177
     3
291
     0
 70
    58
 90
        2
176
     1
 90
        2
176
     1
 90
        1
176
     1
 90
        2
176
     1
 40
0.6
176
     1
 40
30.0
176
     1
 62
     7
420
 16777215
176
     1
 90
        0
176
     1
 90
        4
176
     1
 62
     7
176
     1
 62
   257
176
     1
 90
        1
176
     1
 90
        1
176
     1
 40
1.0
176
     1
 90
        8
176
     1
 62
   257
176
     1
 40
1.0
176
     1
 90
        1
176
     1
 90
        6
176
     1
 90
        2
176
     1
 62
     8
420
  7895160
176
     1
 90
        3
176
     1
 90
        0
176
     1
 90
        0
176
     1
290
     0
176
     1
 90
        5
176
     1
 40
0.0
176
     1
 90
        0
176
     1
290
     0
176
     1
290
     1
176
     1
290
     1
176
     1
290
     0
176
     1
290
     0
176
     1
290
     0
176
     1
290
     0
176
     1
290
     0
176
     1
290
     0
176
     1
 90
       50
176
     1
 40
0.0
176
     1
 40
1.0
176
     1
 90
        0
176
     1
 62
    18
420
        0
176
     1
 90
       50
176
     1
 90
        3
176
     1
 62
     5
420
      255
176
     1
290
     0
176
     1
 90
       50
176
     1
 90
       50
176
     1
 90
       50
176
     1
290
     0
176
     1
 90
       50
176
     1
 62
   256
176
     0
 40
1.0
176
     0
 90
        2
176
     1
  1
strokes_ogs.tif
176
     1
290
     0
176
     1
 40
1.0
176
     1
 40
1.0
176
     1
1001
ACAD
1000
AcDbSavedByObjectVersion
1070
     0
  0
VISUALSTYLE
  5
3D
102
{ACAD_REACTORS
330
29
102
}
330
29
100
AcDbVisualStyle
  2
Shaded with edges
 70
    26
177
     3
291
     0
 70
    58
 90
        2
176
     1
 90
        2
176
     1
 90
        1
176
     1
 90
        2
176
     1
 40
0.6
176
     1
 40
30.0
176
     1
 62
     7
420
 16777215
176
     1
 90
        1
176
     1
 90
        2
176
     1
 62
     7
176
     1
 62
   257
176
     1
 90
        2
176
     1
 90
        1
176
     1
 40
1.0
176
     1
 90
        8
176
     1
 62
   257
176
     1
 40
1.0
176
     1
 90
        1
176
     1
 90
        6
176
     1
 90
        2
176
     1
 62
     7
176
     1
 90
        3
176
     1
 90
        0
176
     1
 90
        0
176
     1
290
     0
176
     1
 90
        5
176
     1
 40
0.0
176
     1
 90
        0
176
     1
290
     0
176
     1
290
     1
176
     1
290
     1
176
     1
290
     0
176
     1
290
     0
176
     1
290
     0
176
     1
290
     0
176
     1
290
     0
176
     1
290
     0
176
     1
 90
       50
176
     1
 40
0.0
176
     1
 40
1.0
176
     1
 90
        0
176
     1
 62
    18
420
        0
176
     1
 90
       50
176
     1
 90
        3
176
     1
 62
     5
420
      255
176
     1
290
     0
176
     1
 90
       50
176
     1
 90
       50
176
     1
 90
       50
176
     1
290
     0
176
     1
 90
       50
176
     1
 62
   256
176
     0
 40
1.0
176
     0
 90
        2
176
     1
  1
strokes_ogs.tif
176
     1
290
     0
176
     1
 40
1.0
176
     1
 40
1.0
176
     1
1001
ACAD
1000
AcDbSavedByObjectVersion
1070
     0
  0
VISUALSTYLE
  5
3A
102
{ACAD_REACTORS
330
29
102
}
330
29
100
AcDbVisualStyle
  2
Shades of Gray
 70
    23
177
     3
291
     0
 70
    58
 90
        2
176
     1
 90
        2
176
     1
 90
        3
176
     1
 90
        0
176
     1
 40
0.6
176
     1
 40
30.0
176
     1
 62
     7
420
 16777215
176
     1
 90
        2
176
     1
 90
        2
176
     1
 62
     7
176
     1
 62
     7
176
     1
 90
        1
176
     1
 90
        1
176
     1
 40
40.0
176
     1
 90
        8
176
     1
 62
     7
176
     1
 40
1.0
176
     1
 90
        1
176
     1
 90
        6
176
     1
 90
        2
176
     1
 62
     7
176
     1
 90
        3
176
     1
 90
        0
176
     1
 90
        0
176
     1
290
     0
176
     1
 90
        1
176
     1
 40
0.0
176
     1
 90
        0
176
     1
290
     0
176
     1
290
     1
176
     1
290
     1
176
     1
290
     0
176
     1
290
     0
176
     1
290
     0
176
     1
290
     0
176
     1
290
     0
176
     1
290
     0
176
     1
 90
       50
176
     1
 40
0.0
176
     1
 40
1.0
176
     1
 90
        0
176
     1
 62
    18
420
        0
176
     1
 90
       50
176
     1
 90
        3
176
     1
 62
     5
420
      255
176
     1
290
     0
176
     1
 90
       50
176
     1
 90
       50
176
     1
 90
       50
176
     1
290
     0
176
     1
 90
       50
176
     1
 62
   256
176
     0
 40
1.0
176
     0
 90
        2
176
     1
  1
strokes_ogs.tif
176
     1
290
     0
176
     1
 40
1.0
176
     1
 40
1.0
176
     1
1001
ACAD
1000
AcDbSavedByObjectVersion
1070
     0
  0
VISUALSTYLE
  5
3B
102
{ACAD_REACTORS
330
29
102
}
330
29
100
AcDbVisualStyle
  2
Sketchy
 70
    24
177
     3
291
     0
 70
    58
 90
        1
176
     1
 90
        2
176
     1
 90
        2
176
     1
 90
        0
176
     1
 40
0.6
176
     1
 40
30.0
176
     1
 62
     7
420
 16777215
176
     1
 90
        2
176
     1
 90
        2
176
     1
 62
     7
176
     1
 62
     7
176
     1
 90
        1
176
     1
 90
        1
176
     1
 40
40.0
176
     1
 90
       11
176
     1
 62
     7
176
     1
 40
1.0
176
     1
 90
        1
176
     1
 90
        6
176
     1
 90
        2
176
     1
 62
     7
176
     1
 90
        6
176
     1
 90
        0
176
     1
 90
        0
176
     1
290
     0
176
     1
 90
        1
176
     1
 40
0.0
176
     1
 90
        0
176
     1
290
     0
176
     1
290
     1
176
     1
290
     1
176
     1
290
     0
176
     1
290
     0
176
     1
290
     0
176
     1
290
     0
176
     1
290
     0
176
     1
290
     0
176
     1
 90
       50
176
     1
 40
0.0
176
     1
 40
1.0
176
     1
 90
        0
176
     1
 62
    18
420
        0
176
     1
 90
       50
176
     1
 90
        3
176
     1
 62
     5
420
      255
176
     1
290
     0
176
     1
 90
       50
176
     1
 90
       50
176
     1
 90
       50
176
     1
290
     0
176
     1
 90
       50
176
     1
 62
   256
176
     0
 40
1.0
176
     0
 90
        2
176
     1
  1
strokes_ogs.tif
176
     1
290
     0
176
     1
 40
1.0
176
     1
 40
1.0
176
     1
1001
ACAD
1000
AcDbSavedByObjectVersion
1070
     0
  0
VISUALSTYLE
  5
36
102
{ACAD_REACTORS
330
29
102
}
330
29
100
AcDbVisualStyle
  2
Thicken
 70
    13
177
     3
291
     1
 70
    58
 90
        2
176
     1
 90
        2
176
     1
 90
        0
176
     1
 90
        0
176
     1
 40
0.6
176
     1
 40
30.0
176
     1
 62
     7
420
 16777215
176
     1
 90
        1
176
     1
 90
        4
176
     1
 62
     7
176
     1
 62
   257
176
     1
 90
        1
176
     1
 90
        1
176
     1
 40
1.0
176
     1
 90
       12
176
     1
 62
     7
176
     1
 40
1.0
176
     1
 90
        1
176
     1
 90
        6
176
     1
 90
        2
176
     1
 62
     7
176
     1
 90
        5
176
     1
 90
        0
176
     1
 90
        0
176
     1
290
     0
176
     1
 90
        1
176
     1
 40
0.0
176
     1
 90
        0
176
     1
290
     0
176
     1
290
     1
176
     1
290
     1
176
     1
290
     0
176
     1
290
     0
176
     1
290
     0
176
     1
290
     0
176
     1
290
     0
176
     1
290
     0
176
     1
 90
       50
176
     1
 40
0.0
176
     1
 40
1.0
176
     1
 90
        0
176
     1
 62
    18
420
        0
176
     1
 90
       50
176
     1
 90
        3
176
     1
 62
     5
420
      255
176
     1
290
     0
176
     1
 90
       50
176
     1
 90
       50
176
     1
 90
       50
176
     1
290
     0
176
     1
 90
       50
176
     1
 62
   256
176
     0
 40
1.0
176
     0
 90
        2
176
     1
  1
strokes_ogs.tif
176
     1
290
     0
176
     1
 40
1.0
176
     1
 40
1.0
176
     1
1001
ACAD
1000
AcDbSavedByObjectVersion
1070
     0
  0
VISUALSTYLE
  5
30
102
{ACAD_REACTORS
330
29
102
}
330
29
100
AcDbVisualStyle
  2
Wireframe
 70
     5
177
     3
291
     0
 70
    58
 90
        0
176
     1
 90
        2
176
     1
 90
        0
176
     1
 90
        0
176
     1
 40
0.6
176
     1
 40
30.0
176
     1
 62
     7
420
 16777215
176
     1
 90
        1
176
     1
 90
        4
176
     1
 62
     7
176
     1
 62
   257
176
     1
 90
        1
176
     1
 90
        1
176
     1
 40
1.0
176
     1
 90
        0
176
     1
 62
   257
176
     1
 40
1.0
176
     1
 90
        1
176
     1
 90
        6
176
     1
 90
        2
176
     1
 62
     7
176
     1
 90
        3
176
     1
 90
        0
176
     1
 90
        0
176
     1
290
     0
176
     1
 90
        1
176
     1
 40
0.0
176
     1
 90
        0
176
     1
290
     0
176
     1
290
     1
176
     1
290
     1
176
     1
290
     0
176
     1
290
     0
176
     1
290
     0
176
     1
290
     0
176
     1
290
     0
176
     1
290
     0
176
     1
 90
       50
176
     1
 40
0.0
176
     1
 40
1.0
176
     1
 90
        0
176
     1
 62
    18
420
        0
176
     1
 90
       50
176
     1
 90
        3
176
     1
 62
     5
420
      255
176
     1
290
     0
176
     1
 90
       50
176
     1
 90
       50
176
     1
 90
       50
176
     1
290
     0
176
     1
 90
       50
176
     1
 62
   256
176
     0
 40
1.0
176
     0
 90
        2
176
     1
  1
strokes_ogs.tif
176
     1
290
     0
176
     1
 40
1.0
176
     1
 40
1.0
176
     1
1001
ACAD
1000
AcDbSavedByObjectVersion
1070
     0
  0
VISUALSTYLE
  5
3C
102
{ACAD_REACTORS
330
29
102
}
330
29
100
AcDbVisualStyle
  2
X-Ray
 70
    25
177
     3
291
     0
 70
    58
 90
        2
176
     1
 90
        2
176
     1
 90
        1
176
     1
 90
        1
176
     1
 40
0.5
176
     1
 40
30.0
176
     1
 62
     7
420
 16777215
176
     1
 90
        1
176
     1
 90
        0
176
     1
 62
     7
176
     1
 62
   257
176
     1
 90
        1
176
     1
 90
        1
176
     1
 40
1.0
176
     1
 90
        8
176
     1
 62
     7
176
     1
 40
1.0
176
     1
 90
        1
176
     1
 90
        6
176
     1
 90
        2
176
     1
 62
     7
176
     1
 90
        3
176
     1
 90
        0
176
     1
 90
        0
176
     1
290
     0
176
     1
 90
       13
176
     1
 40
0.0
176
     1
 90
        0
176
     1
290
     0
176
     1
290
     1
176
     1
290
     1
176
     1
290
     0
176
     1
290
     0
176
     1
290
     0
176
     1
290
     0
176
     1
290
     0
176
     1
290
     0
176
     1
 90
       50
176
     1
 40
0.0
176
     1
 40
1.0
176
     1
 90
        0
176
     1
 62
    18
420
        0
176
     1
 90
       50
176
     1
 90
        3
176
     1
 62
     5
420
      255
176
     1
290
     0
176
     1
 90
       50
176
     1
 90
       50
176
     1
 90
       50
176
     1
290
     0
176
     1
 90
       50
176
     1
 62
   256
176
     0
 40
1.0
176
     0
 90
        2
176
     1
  1
strokes_ogs.tif
176
     1
290
     0
176
     1
 40
1.0
176
     1
 40
1.0
176
     1
1001
ACAD
1000
AcDbSavedByObjectVersion
1070
     0
  0
DICTIONARYVAR
  5
3B4
102
{ACAD_REACTORS
330
3AF
102
}
330
3AF
100
DictionaryVariables
280
     0
  1
1:1
  0
DICTIONARYVAR
  5
3B1
102
{ACAD_REACTORS
330
3AF
102
}
330
3AF
100
DictionaryVariables
280
     0
  1
STANDARD
  0
DICTIONARYVAR
  5
3B0
102
{ACAD_REACTORS
330
3AF
102
}
330
3AF
100
DictionaryVariables
280
     0
  1
STANDARD
  0
DICTIONARYVAR
  5
3B2
102
{ACAD_REACTORS
330
3AF
102
}
330
3AF
100
DictionaryVariables
280
     0
  1
Imperial24
  0
DICTIONARYVAR
  5
3B3
102
{ACAD_REACTORS
330
3AF
102
}
330
3AF
100
DictionaryVariables
280
     0
  1
Imperial24
  0
DICTIONARY
  5
3BB
330
6B
100
AcDbDictionary
280
     1
281
     1
  3
ACAD_XREC_ROUNDTRIP
360
3BC
  0
DICTIONARY
  5
1A
330
19
100
AcDbDictionary
280
     1
281
     1
  3
BUMPTILE
360
1C
  3
DIFFUSETILE
360
1B
  3
OPACITYTILE
360
1F
  3
REFLECTIONTILE
360
1E
  3
REFRACTIONTILE
360
20
  3
SPECULARTILE
360
1D
  0
DICTIONARY
  5
12
330
11
100
AcDbDictionary
280
     1
281
     1
  3
BUMPTILE
360
14
  3
DIFFUSETILE
360
13
  3
OPACITYTILE
360
17
  3
REFLECTIONTILE
360
16
  3
REFRACTIONTILE
360
18
  3
SPECULARTILE
360
15
  0
DICTIONARY
  5
22
330
21
100
AcDbDictionary
280
     1
281
     1
  3
BUMPTILE
360
24
  3
DIFFUSETILE
360
23
  3
OPACITYTILE
360
27
  3
REFLECTIONTILE
360
26
  3
REFRACTIONTILE
360
28
  3
SPECULARTILE
360
25
  0
DICTIONARY
  5
3B9
330
69
100
AcDbDictionary
280
     1
281
     1
  3
ACAD_XREC_ROUNDTRIP
360
3BA
  0
DICTIONARY
  5
3B5
330
65
100
AcDbDictionary
280
     1
281
     1
  3
ACAD_ROUNDTRIP_2008_TABLESTYLE_CELLSTYLEMAP
360
3B6
  0
XRECORD
  5
3BC
102
{ACAD_REACTORS
330
3BB
102
}
330
3BB
100
AcDbXrecord
280
     1
102
DISPLAYNAME
  1
Imperial24
102
FLAGS
 90
        0
  0
XRECORD
  5
1C
102
{ACAD_REACTORS
330
1A
102
}
330
1A
100
AcDbXrecord
280
     1
270
     1
271
     1
  0
XRECORD
  5
1B
102
{ACAD_REACTORS
330
1A
102
}
330
1A
100
AcDbXrecord
280
     1
270
     1
271
     1
  0
XRECORD
  5
1F
102
{ACAD_REACTORS
330
1A
102
}
330
1A
100
AcDbXrecord
280
     1
270
     1
271
     1
  0
XRECORD
  5
1E
102
{ACAD_REACTORS
330
1A
102
}
330
1A
100
AcDbXrecord
280
     1
270
     1
271
     1
  0
XRECORD
  5
20
102
{ACAD_REACTORS
330
1A
102
}
330
1A
100
AcDbXrecord
280
     1
270
     1
271
     1
  0
XRECORD
  5
1D
102
{ACAD_REACTORS
330
1A
102
}
330
1A
100
AcDbXrecord
280
     1
270
     1
271
     1
  0
XRECORD
  5
14
102
{ACAD_REACTORS
330
12
102
}
330
12
100
AcDbXrecord
280
     1
270
     1
271
     1
  0
XRECORD
  5
13
102
{ACAD_REACTORS
330
12
102
}
330
12
100
AcDbXrecord
280
     1
270
     1
271
     1
  0
XRECORD
  5
17
102
{ACAD_REACTORS
330
12
102
}
330
12
100
AcDbXrecord
280
     1
270
     1
271
     1
  0
XRECORD
  5
16
102
{ACAD_REACTORS
330
12
102
}
330
12
100
AcDbXrecord
280
     1
270
     1
271
     1
  0
XRECORD
  5
18
102
{ACAD_REACTORS
330
12
102
}
330
12
100
AcDbXrecord
280
     1
270
     1
271
     1
  0
XRECORD
  5
15
102
{ACAD_REACTORS
330
12
102
}
330
12
100
AcDbXrecord
280
     1
270
     1
271
     1
  0
XRECORD
  5
24
102
{ACAD_REACTORS
330
22
102
}
330
22
100
AcDbXrecord
280
     1
270
     1
271
     1
  0
XRECORD
  5
23
102
{ACAD_REACTORS
330
22
102
}
330
22
100
AcDbXrecord
280
     1
270
     1
271
     1
  0
XRECORD
  5
27
102
{ACAD_REACTORS
330
22
102
}
330
22
100
AcDbXrecord
280
     1
270
     1
271
     1
  0
XRECORD
  5
26
102
{ACAD_REACTORS
330
22
102
}
330
22
100
AcDbXrecord
280
     1
270
     1
271
     1
  0
XRECORD
  5
28
102
{ACAD_REACTORS
330
22
102
}
330
22
100
AcDbXrecord
280
     1
270
     1
271
     1
  0
XRECORD
  5
25
102
{ACAD_REACTORS
330
22
102
}
330
22
100
AcDbXrecord
280
     1
270
     1
271
     1
  0
XRECORD
  5
3BA
102
{ACAD_REACTORS
330
3B9
102
}
330
3B9
100
AcDbXrecord
280
     1
102
DISPLAYNAME
  1
Imperial24
102
FLAGS
 90
        0
  0
CELLSTYLEMAP
  5
3B6
102
{ACAD_REACTORS
330
3B5
102
}
330
3B5
100
AcDbCellStyleMap
 90
        3
300
CELLSTYLE
  1
TABLEFORMAT_BEGIN
 90
        5
170
     1
 91
        0
 92
    32768
 62
   257
 93
        1
300
CONTENTFORMAT
  1
CONTENTFORMAT_BEGIN
 90
        0
 91
        0
 92
      512
 93
        0
300

 40
0.0
140
1.0
 94
        5
 62
     0
340
55
144
0.25
309
CONTENTFORMAT_END
171
     0
 94
        0
309
TABLEFORMAT_END
  1
CELLSTYLE_BEGIN
 90
        1
 91
        1
300
_TITLE
309
CELLSTYLE_END
300
CELLSTYLE
  1
TABLEFORMAT_BEGIN
 90
        5
170
     1
 91
        0
 92
        0
 62
   257
 93
        1
300
CONTENTFORMAT
  1
CONTENTFORMAT_BEGIN
 90
        0
 91
        0
 92
      512
 93
        0
300

 40
0.0
140
1.0
 94
        5
 62
     0
340
55
144
0.18
309
CONTENTFORMAT_END
171
     0
 94
        0
309
TABLEFORMAT_END
  1
CELLSTYLE_BEGIN
 90
        2
 91
        1
300
_HEADER
309
CELLSTYLE_END
300
CELLSTYLE
  1
TABLEFORMAT_BEGIN
 90
        5
170
     1
 91
        0
 92
        0
 62
   257
 93
        1
300
CONTENTFORMAT
  1
CONTENTFORMAT_BEGIN
 90
        0
 91
        0
 92
      512
 93
        0
300

 40
0.0
140
1.0
 94
        2
 62
     0
340
55
144
0.18
309
CONTENTFORMAT_END
171
     0
 94
        0
309
TABLEFORMAT_END
  1
CELLSTYLE_BEGIN
 90
        3
 91
        2
300
_DATA
309
CELLSTYLE_END
  0
ENDSEC
  0
EOF
