  0
SECTION
  2
HEADER
  9
$ACADVER
  1
AC1018
  9
$ACADMAINTVER
 70
     0
  9
$DWGCODEPAGE
  3
ANSI_1252
  9
$INSBASE
 10
0.0
 20
0.0
 30
0.0
  9
$EXTMIN
 10
1.000000000000000E+20
 20
1.000000000000000E+20
 30
1.000000000000000E+20
  9
$EXTMAX
 10
-1.000000000000000E+20
 20
-1.000000000000000E+20
 30
-1.000000000000000E+20
  9
$LIMMIN
 10
0.0
 20
0.0
  9
$LIMMAX
 10
12.0
 20
9.0
  9
$ORTHOMODE
 70
     0
  9
$REGENMODE
 70
     1
  9
$FILLMODE
 70
     1
  9
$QTEXTMODE
 70
     0
  9
$MIRRTEXT
 70
     1
  9
$LTSCALE
 40
1.0
  9
$ATTMODE
 70
     1
  9
$TEXTSIZE
 40
0.2
  9
$TRACEWID
 40
0.05
  9
$TEXTSTYLE
  7
Standard
  9
$CLAYER
  8
0
  9
$CELTYPE
  6
ByLayer
  9
$CECOLOR
 62
   256
  9
$CELTSCALE
 40
1.0
  9
$DISPSILH
 70
     0
  9
$DIMSCALE
 40
1.0
  9
$DIMASZ
 40
0.18
  9
$DIMEXO
 40
0.0625
  9
$DIMDLI
 40
0.38
  9
$DIMRND
 40
0.0
  9
$DIMDLE
 40
0.0
  9
$DIMEXE
 40
0.18
  9
$DIMTP
 40
0.0
  9
$DIMTM
 40
0.0
  9
$DIMTXT
 40
0.18
  9
$DIMCEN
 40
0.09
  9
$DIMTSZ
 40
0.0
  9
$DIMTOL
 70
     0
  9
$DIMLIM
 70
     0
  9
$DIMTIH
 70
     1
  9
$DIMTOH
 70
     1
  9
$DIMSE1
 70
     0
  9
$DIMSE2
 70
     0
  9
$DIMTAD
 70
     0
  9
$DIMZIN
 70
     0
  9
$DIMBLK
  1

  9
$DIMASO
 70
     1
  9
$DIMSHO
 70
     1
  9
$DIMPOST
  1

  9
$DIMAPOST
  1

  9
$DIMALT
 70
     0
  9
$DIMALTD
 70
     2
  9
$DIMALTF
 40
25.4
  9
$DIMLFAC
 40
1.0
  9
$DIMTOFL
 70
     0
  9
$DIMTVP
 40
0.0
  9
$DIMTIX
 70
     0
  9
$DIMSOXD
 70
     0
  9
$DIMSAH
 70
     0
  9
$DIMBLK1
  1

  9
$DIMBLK2
  1

  9
$DIMSTYLE
  2
Standard
  9
$DIMCLRD
 70
     0
  9
$DIMCLRE
 70
     0
  9
$DIMCLRT
 70
     0
  9
$DIMTFAC
 40
1.0
  9
$DIMGAP
 40
0.09
  9
$DIMJUST
 70
     0
  9
$DIMSD1
 70
     0
  9
$DIMSD2
 70
     0
  9
$DIMTOLJ
 70
     1
  9
$DIMTZIN
 70
     0
  9
$DIMALTZ
 70
     0
  9
$DIMALTTZ
 70
     0
  9
$DIMUPT
 70
     0
  9
$DIMDEC
 70
     4
  9
$DIMTDEC
 70
     4
  9
$DIMALTU
 70
     2
  9
$DIMALTTD
 70
     2
  9
$DIMTXSTY
  7
Standard
  9
$DIMAUNIT
 70
     0
  9
$DIMADEC
 70
     0
  9
$DIMALTRND
 40
0.0
  9
$DIMAZIN
 70
     0
  9
$DIMDSEP
 70
    46
  9
$DIMATFIT
 70
     3
  9
$DIMFRAC
 70
     0
  9
$DIMLDRBLK
  1

  9
$DIMLUNIT
 70
     2
  9
$DIMLWD
 70
    -2
  9
$DIMLWE
 70
    -2
  9
$DIMTMOVE
 70
     0
  9
$LUNITS
 70
     2
  9
$LUPREC
 70
     4
  9
$SKETCHINC
 40
0.1
  9
$FILLETRAD
 40
0.5
  9
$AUNITS
 70
     0
  9
$AUPREC
 70
     0
  9
$MENU
  1
.
  9
$ELEVATION
 40
0.0
  9
$PELEVATION
 40
0.0
  9
$THICKNESS
 40
0.0
  9
$LIMCHECK
 70
     0
  9
$CHAMFERA
 40
0.5
  9
$CHAMFERB
 40
0.5
  9
$CHAMFERC
 40
1.0
  9
$CHAMFERD
 40
0.0
  9
$SKPOLY
 70
     0
  9
$TDCREATE
 40
2458444.385189143
  9
$TDUCREATE
 40
2458444.343522477
  9
$TDUPDATE
 40
2458444.385189155
  9
$TDUUPDATE
 40
2458444.343522489
  9
$TDINDWG
 40
0.0000000116
  9
$TDUSRTIMER
 40
0.0000000116
  9
$USRTIMER
 70
     1
  9
$ANGBASE
 50
0.0
  9
$ANGDIR
 70
     0
  9
$PDMODE
 70
     0
  9
$PDSIZE
 40
0.0
  9
$PLINEWID
 40
0.0
  9
$SPLFRAME
 70
     0
  9
$SPLINETYPE
 70
     6
  9
$SPLINESEGS
 70
     8
  9
$HANDSEED
  5
285
  9
$SURFTAB1
 70
     6
  9
$SURFTAB2
 70
     6
  9
$SURFTYPE
 70
     6
  9
$SURFU
 70
     6
  9
$SURFV
 70
     6
  9
$UCSBASE
  2

  9
$UCSNAME
  2

  9
$UCSORG
 10
0.0
 20
0.0
 30
0.0
  9
$UCSXDIR
 10
1.0
 20
0.0
 30
0.0
  9
$UCSYDIR
 10
0.0
 20
1.0
 30
0.0
  9
$UCSORTHOREF
  2

  9
$UCSORTHOVIEW
 70
     0
  9
$UCSORGTOP
 10
0.0
 20
0.0
 30
0.0
  9
$UCSORGBOTTOM
 10
0.0
 20
0.0
 30
0.0
  9
$UCSORGLEFT
 10
0.0
 20
0.0
 30
0.0
  9
$UCSORGRIGHT
 10
0.0
 20
0.0
 30
0.0
  9
$UCSORGFRONT
 10
0.0
 20
0.0
 30
0.0
  9
$UCSORGBACK
 10
0.0
 20
0.0
 30
0.0
  9
$PUCSBASE
  2

  9
$PUCSNAME
  2

  9
$PUCSORG
 10
0.0
 20
0.0
 30
0.0
  9
$PUCSXDIR
 10
1.0
 20
0.0
 30
0.0
  9
$PUCSYDIR
 10
0.0
 20
1.0
 30
0.0
  9
$PUCSORTHOREF
  2

  9
$PUCSORTHOVIEW
 70
     0
  9
$PUCSORGTOP
 10
0.0
 20
0.0
 30
0.0
  9
$PUCSORGBOTTOM
 10
0.0
 20
0.0
 30
0.0
  9
$PUCSORGLEFT
 10
0.0
 20
0.0
 30
0.0
  9
$PUCSORGRIGHT
 10
0.0
 20
0.0
 30
0.0
  9
$PUCSORGFRONT
 10
0.0
 20
0.0
 30
0.0
  9
$PUCSORGBACK
 10
0.0
 20
0.0
 30
0.0
  9
$USERI1
 70
     0
  9
$USERI2
 70
     0
  9
$USERI3
 70
     0
  9
$USERI4
 70
     0
  9
$USERI5
 70
     0
  9
$USERR1
 40
0.0
  9
$USERR2
 40
0.0
  9
$USERR3
 40
0.0
  9
$USERR4
 40
0.0
  9
$USERR5
 40
0.0
  9
$WORLDVIEW
 70
     1
  9
$SHADEDGE
 70
     3
  9
$SHADEDIF
 70
    70
  9
$TILEMODE
 70
     1
  9
$MAXACTVP
 70
    64
  9
$PINSBASE
 10
0.0
 20
0.0
 30
0.0
  9
$PLIMCHECK
 70
     0
  9
$PEXTMIN
 10
1.000000000000000E+20
 20
1.000000000000000E+20
 30
1.000000000000000E+20
  9
$PEXTMAX
 10
-1.000000000000000E+20
 20
-1.000000000000000E+20
 30
-1.000000000000000E+20
  9
$PLIMMIN
 10
0.0
 20
0.0
  9
$PLIMMAX
 10
12.0
 20
9.0
  9
$UNITMODE
 70
     0
  9
$VISRETAIN
 70
     1
  9
$PLINEGEN
 70
     0
  9
$PSLTSCALE
 70
     1
  9
$TREEDEPTH
 70
  3020
  9
$CMLSTYLE
  2
Standard
  9
$CMLJUST
 70
     0
  9
$CMLSCALE
 40
1.0
  9
$PROXYGRAPHICS
 70
     1
  9
$MEASUREMENT
 70
     0
  9
$CELWEIGHT
370
    -1
  9
$ENDCAPS
280
     0
  9
$JOINSTYLE
280
     0
  9
$LWDISPLAY
290
     1
  9
$INSUNITS
 70
     1
  9
$HYPERLINKBASE
  1

  9
$STYLESHEET
  1

  9
$XEDIT
290
     1
  9
$CEPSNTYPE
380
     0
  9
$PSTYLEMODE
290
     1
  9
$FINGERPRINTGUID
  2
{32CD21BA-AF29-4244-88FE-1471952E9689}
  9
$VERSIONGUID
  2
{FAEB1C32-E019-11D5-929B-00C0DF256EC4}
  9
$EXTNAMES
290
     1
  9
$PSVPSCALE
 40
0.0
  9
$OLESTARTUP
290
     0
  9
$SORTENTS
280
   127
  9
$INDEXCTL
280
     0
  9
$HIDETEXT
280
     1
  9
$XCLIPFRAME
290
     0
  9
$HALOGAP
280
     0
  9
$OBSCOLOR
 70
   257
  9
$OBSLTYPE
280
     0
  9
$INTERSECTIONDISPLAY
280
     0
  9
$INTERSECTIONCOLOR
 70
   257
  9
$DIMASSOC
280
     2
  9
$PROJECTNAME
  1

  0
ENDSEC
  0
SECTION
  2
CLASSES
  0
CLASS
  1
ACDBDICTIONARYWDFLT
  2
AcDbDictionaryWithDefault
  3
ObjectDBX Classes
 90
        0
 91
        3
280
     0
281
     0
  0
CLASS
  1
VISUALSTYLE
  2
AcDbVisualStyle
  3
ObjectDBX Classes
 90
     4095
 91
        3
280
     0
281
     0
  0
ENDSEC
  0
SECTION
  2
TABLES
  0
TABLE
  2
VPORT
  5
8
330
0
100
AcDbSymbolTable
 70
     1
  0
VPORT
  5
29
330
8
100
AcDbSymbolTableRecord
100
AcDbViewportTableRecord
  2
*Active
 70
     0
 10
0.0
 20
0.0
 11
1.0
 21
1.0
 12
0.0
 22
0.0
 13
0.0
 23
0.0
 14
0.5
 24
0.5
 15
0.5
 25
0.5
 16
0.0
 26
0.0
 36
1.0
 17
103.0111110853583
 27
150.9888888511417
 37
0.0
 40
52.21111109805832
 41
1.513513513513514
 42
50.0
 43
0.0
 44
0.0
 50
0.0
 51
0.0
 71
     0
 72
   100
 73
     1
 74
     3
 75
     0
 76
     0
 77
     0
 78
     0
281
     0
 65
     1
110
0.0
120
0.0
130
0.0
111
1.0
121
0.0
131
0.0
112
0.0
122
1.0
132
0.0
 79
     0
146
0.0
  0
ENDTAB
  0
TABLE
  2
LTYPE
  5
5
330
0
100
AcDbSymbolTable
 70
     1
  0
LTYPE
  5
14
330
5
100
AcDbSymbolTableRecord
100
AcDbLinetypeTableRecord
  2
ByBlock
 70
     0
  3

 72
    65
 73
     0
 40
0.0
  0
LTYPE
  5
15
330
5
100
AcDbSymbolTableRecord
100
AcDbLinetypeTableRecord
  2
ByLayer
 70
     0
  3

 72
    65
 73
     0
 40
0.0
  0
LTYPE
  5
16
330
5
100
AcDbSymbolTableRecord
100
AcDbLinetypeTableRecord
  2
Continuous
 70
     0
  3
Solid line
 72
    65
 73
     0
 40
0.0
  0
ENDTAB
  0
TABLE
  2
LAYER
  5
2
330
0
100
AcDbSymbolTable
 70
     2
  0
LAYER
  5
10
330
2
100
AcDbSymbolTableRecord
100
AcDbLayerTableRecord
  2
0
 70
     0
 62
     7
  6
Continuous
370
    -3
390
F
  0
LAYER
  5
3B
330
2
100
AcDbSymbolTableRecord
100
AcDbLayerTableRecord
  2
Capa 1
 70
     0
 62
     7
  6
Continuous
370
    -3
390
F
  0
ENDTAB
  0
TABLE
  2
STYLE
  5
3
330
0
100
AcDbSymbolTable
 70
     1
  0
STYLE
  5
11
330
3
100
AcDbSymbolTableRecord
100
AcDbTextStyleTableRecord
  2
Standard
 70
     0
 40
0.0
 41
1.0
 50
0.0
 71
     0
 42
0.2
  3
txt
  4

  0
ENDTAB
  0
TABLE
  2
VIEW
  5
6
330
0
100
AcDbSymbolTable
 70
     0
  0
ENDTAB
  0
TABLE
  2
UCS
  5
7
330
0
100
AcDbSymbolTable
 70
     0
  0
ENDTAB
  0
TABLE
  2
APPID
  5
9
330
0
100
AcDbSymbolTable
 70
     1
  0
APPID
  5
12
330
9
100
AcDbSymbolTableRecord
100
AcDbRegAppTableRecord
  2
ACAD
 70
     0
  0
ENDTAB
  0
TABLE
  2
DIMSTYLE
  5
A
330
0
100
AcDbSymbolTable
 70
     1
100
AcDbDimStyleTable
  0
DIMSTYLE
105
27
330
A
100
AcDbSymbolTableRecord
100
AcDbDimStyleTableRecord
  2
Standard
 70
     0
340
11
  0
ENDTAB
  0
TABLE
  2
BLOCK_RECORD
  5
1
330
0
100
AcDbSymbolTable
 70
     1
  0
BLOCK_RECORD
  5
1F
330
1
100
AcDbSymbolTableRecord
100
AcDbBlockTableRecord
  2
*Model_Space
340
22
  0
BLOCK_RECORD
  5
1B
330
1
100
AcDbSymbolTableRecord
100
AcDbBlockTableRecord
  2
*Paper_Space
340
1E
  0
BLOCK_RECORD
  5
23
330
1
100
AcDbSymbolTableRecord
100
AcDbBlockTableRecord
  2
*Paper_Space0
340
26
  0
ENDTAB
  0
ENDSEC
  0
SECTION
  2
BLOCKS
  0
BLOCK
  5
20
330
1F
100
AcDbEntity
  8
0
100
AcDbBlockBegin
  2
*Model_Space
 70
     0
 71
     0
 10
0.0
 20
0.0
 30
0.0
  3
*Model_Space
  1

  0
ENDBLK
  5
21
330
1F
100
AcDbEntity
  8
0
100
AcDbBlockEnd
  0
BLOCK
  5
1C
330
1B
100
AcDbEntity
 67
     1
  8
0
100
AcDbBlockBegin
  2
*Paper_Space
 70
     0
 71
     0
 10
0.0
 20
0.0
 30
0.0
  3
*Paper_Space
  1

  0
ENDBLK
  5
1D
330
1B
100
AcDbEntity
 67
     1
  8
0
100
AcDbBlockEnd
  0
BLOCK
  5
24
330
23
100
AcDbEntity
  8
0
100
AcDbBlockBegin
  2
*Paper_Space0
 70
     0
 71
     0
 10
0.0
 20
0.0
 30
0.0
  3
*Paper_Space0
  1

  0
ENDBLK
  5
25
330
23
100
AcDbEntity
  8
0
100
AcDbBlockEnd
  0
ENDSEC
  0
SECTION
  2
ENTITIES
  0
POLYLINE
  5
3C
330
1F
100
AcDbEntity
  8
Capa 1
 62
   250
420
  1842203
370
    13
100
AcDb2dPolyline
 66
     1
 10
0.0
 20
0.0
 30
0.0
  0
VERTEX
  5
3D
330
3C
100
AcDbEntity
  8
Capa 1
 62
   250
420
  1842203
370
    13
100
AcDbVertex
100
AcDb2dVertex
 10
106.1048068311127
 20
164.0101440019662
 30
0.0
  0
VERTEX
  5
3E
330
3C
100
AcDbEntity
  8
Capa 1
 62
   250
420
  1842203
370
    13
100
AcDbVertex
100
AcDb2dVertex
 10
105.8030164666048
 20
164.0101440019662
 30
0.0
  0
VERTEX
  5
3F
330
3C
100
AcDbEntity
  8
Capa 1
 62
   250
420
  1842203
370
    13
100
AcDbVertex
100
AcDb2dVertex
 10
105.8030164666048
 20
165.038332749539
 30
0.0
  0
VERTEX
  5
40
330
3C
100
AcDbEntity
  8
Capa 1
 62
   250
420
  1842203
370
    13
100
AcDbVertex
100
AcDb2dVertex
 10
94.71876625236197
 20
165.038332749539
 30
0.0
  0
VERTEX
  5
41
330
3C
100
AcDbEntity
  8
Capa 1
 62
   250
420
  1842203
370
    13
100
AcDbVertex
100
AcDb2dVertex
 10
94.71876625236197
 20
164.0101440019662
 30
0.0
  0
VERTEX
  5
42
330
3C
100
AcDbEntity
  8
Capa 1
 62
   250
420
  1842203
370
    13
100
AcDbVertex
100
AcDb2dVertex
 10
94.46761879148727
 20
164.0101440019662
 30
0.0
  0
VERTEX
  5
43
330
3C
100
AcDbEntity
  8
Capa 1
 62
   250
420
  1842203
370
    13
100
AcDbVertex
100
AcDb2dVertex
 10
94.46761879148727
 20
136.7461750960218
 30
0.0
  0
VERTEX
  5
44
330
3C
100
AcDbEntity
  8
Capa 1
 62
   250
420
  1842203
370
    13
100
AcDbVertex
100
AcDb2dVertex
 10
106.1048068311127
 20
136.7461750960218
 30
0.0
  0
VERTEX
  5
45
330
3C
100
AcDbEntity
  8
Capa 1
 62
   250
420
  1842203
370
    13
100
AcDbVertex
100
AcDb2dVertex
 10
106.1048068311127
 20
164.0101440019662
 30
0.0
  0
SEQEND
  5
46
330
3C
100
AcDbEntity
  8
Capa 1
370
    13
  0
POLYLINE
  5
47
330
1F
100
AcDbEntity
  8
Capa 1
 62
   250
420
  1842203
370
    13
100
AcDb2dPolyline
 66
     1
 10
0.0
 20
0.0
 30
0.0
  0
VERTEX
  5
48
330
47
100
AcDbEntity
  8
Capa 1
 62
   250
420
  1842203
370
    13
100
AcDbVertex
100
AcDb2dVertex
 10
95.2215779384342
 20
157.6535983221318
 30
0.0
  0
VERTEX
  5
49
330
47
100
AcDbEntity
  8
Capa 1
 62
   250
420
  1842203
370
    13
100
AcDbVertex
100
AcDb2dVertex
 10
95.2215779384342
 20
160.6449747319742
 30
0.0
  0
VERTEX
  5
4A
330
47
100
AcDbEntity
  8
Capa 1
 62
   250
420
  1842203
370
    13
100
AcDbVertex
100
AcDb2dVertex
 10
105.2249294441799
 20
160.6449747319742
 30
0.0
  0
VERTEX
  5
4B
330
47
100
AcDbEntity
  8
Capa 1
 62
   250
420
  1842203
370
    13
100
AcDbVertex
100
AcDb2dVertex
 10
105.2249294441799
 20
157.6535983221318
 30
0.0
  0
VERTEX
  5
4C
330
47
100
AcDbEntity
  8
Capa 1
 62
   250
420
  1842203
370
    13
100
AcDbVertex
100
AcDb2dVertex
 10
95.2215779384342
 20
157.6535983221318
 30
0.0
  0
VERTEX
  5
4D
330
47
100
AcDbEntity
  8
Capa 1
 62
   250
420
  1842203
370
    13
100
AcDbVertex
100
AcDb2dVertex
 10
95.2215779384342
 20
157.6535983221318
 30
0.0
  0
SEQEND
  5
4E
330
47
100
AcDbEntity
  8
Capa 1
370
    13
  0
POLYLINE
  5
4F
330
1F
100
AcDbEntity
  8
Capa 1
 62
   250
420
  1842203
370
    13
100
AcDb2dPolyline
 66
     1
 10
0.0
 20
0.0
 30
0.0
  0
VERTEX
  5
50
330
4F
100
AcDbEntity
  8
Capa 1
 62
   250
420
  1842203
370
    13
100
AcDbVertex
100
AcDb2dVertex
 10
96.42805037736869
 20
160.6449747319742
 30
0.0
  0
VERTEX
  5
51
330
4F
100
AcDbEntity
  8
Capa 1
 62
   250
420
  1842203
370
    13
100
AcDbVertex
100
AcDb2dVertex
 10
96.42805037736869
 20
157.6535983221318
 30
0.0
  0
SEQEND
  5
52
330
4F
100
AcDbEntity
  8
Capa 1
370
    13
  0
POLYLINE
  5
53
330
1F
100
AcDbEntity
  8
Capa 1
 62
   250
420
  1842203
370
    13
100
AcDb2dPolyline
 66
     1
 10
0.0
 20
0.0
 30
0.0
  0
VERTEX
  5
54
330
53
100
AcDbEntity
  8
Capa 1
 62
   250
420
  1842203
370
    13
100
AcDbVertex
100
AcDb2dVertex
 10
97.65949975857124
 20
157.6535983221318
 30
0.0
  0
VERTEX
  5
55
330
53
100
AcDbEntity
  8
Capa 1
 62
   250
420
  1842203
370
    13
100
AcDbVertex
100
AcDb2dVertex
 10
97.65949975857124
 20
160.6449747319742
 30
0.0
  0
SEQEND
  5
56
330
53
100
AcDbEntity
  8
Capa 1
370
    13
  0
POLYLINE
  5
57
330
1F
100
AcDbEntity
  8
Capa 1
 62
   250
420
  1842203
370
    13
100
AcDb2dPolyline
 66
     1
 10
0.0
 20
0.0
 30
0.0
  0
VERTEX
  5
58
330
57
100
AcDbEntity
  8
Capa 1
 62
   250
420
  1842203
370
    13
100
AcDbVertex
100
AcDb2dVertex
 10
99.01686737975967
 20
160.6449747319742
 30
0.0
  0
VERTEX
  5
59
330
57
100
AcDbEntity
  8
Capa 1
 62
   250
420
  1842203
370
    13
100
AcDbVertex
100
AcDb2dVertex
 10
99.01686737975967
 20
157.6535983221318
 30
0.0
  0
SEQEND
  5
5A
330
57
100
AcDbEntity
  8
Capa 1
370
    13
  0
POLYLINE
  5
5B
330
1F
100
AcDbEntity
  8
Capa 1
 62
   250
420
  1842203
370
    13
100
AcDb2dPolyline
 66
     1
 10
0.0
 20
0.0
 30
0.0
  0
VERTEX
  5
5C
330
5B
100
AcDbEntity
  8
Capa 1
 62
   250
420
  1842203
370
    13
100
AcDbVertex
100
AcDb2dVertex
 10
100.2736382127788
 20
160.6449747319742
 30
0.0
  0
VERTEX
  5
5D
330
5B
100
AcDbEntity
  8
Capa 1
 62
   250
420
  1842203
370
    13
100
AcDbVertex
100
AcDb2dVertex
 10
100.2736382127788
 20
157.6535983221318
 30
0.0
  0
SEQEND
  5
5E
330
5B
100
AcDbEntity
  8
Capa 1
370
    13
  0
POLYLINE
  5
5F
330
1F
100
AcDbEntity
  8
Capa 1
 62
   250
420
  1842203
370
    13
100
AcDb2dPolyline
 66
     1
 10
0.0
 20
0.0
 30
0.0
  0
VERTEX
  5
60
330
5F
100
AcDbEntity
  8
Capa 1
 62
   250
420
  1842203
370
    13
100
AcDbVertex
100
AcDb2dVertex
 10
101.4547891998967
 20
160.6449747319742
 30
0.0
  0
VERTEX
  5
61
330
5F
100
AcDbEntity
  8
Capa 1
 62
   250
420
  1842203
370
    13
100
AcDbVertex
100
AcDb2dVertex
 10
101.4547891998967
 20
157.6535983221318
 30
0.0
  0
SEQEND
  5
62
330
5F
100
AcDbEntity
  8
Capa 1
370
    13
  0
POLYLINE
  5
63
330
1F
100
AcDbEntity
  8
Capa 1
 62
   250
420
  1842203
370
    13
100
AcDb2dPolyline
 66
     1
 10
0.0
 20
0.0
 30
0.0
  0
VERTEX
  5
64
330
63
100
AcDbEntity
  8
Capa 1
 62
   250
420
  1842203
370
    13
100
AcDbVertex
100
AcDb2dVertex
 10
102.7115600329159
 20
160.6449747319742
 30
0.0
  0
VERTEX
  5
65
330
63
100
AcDbEntity
  8
Capa 1
 62
   250
420
  1842203
370
    13
100
AcDbVertex
100
AcDb2dVertex
 10
102.7115600329159
 20
157.6535983221318
 30
0.0
  0
SEQEND
  5
66
330
63
100
AcDbEntity
  8
Capa 1
370
    13
  0
POLYLINE
  5
67
330
1F
100
AcDbEntity
  8
Capa 1
 62
   250
420
  1842203
370
    13
100
AcDb2dPolyline
 66
     1
 10
0.0
 20
0.0
 30
0.0
  0
VERTEX
  5
68
330
67
100
AcDbEntity
  8
Capa 1
 62
   250
420
  1842203
370
    13
100
AcDbVertex
100
AcDb2dVertex
 10
105.2249294441799
 20
157.6535983221318
 30
0.0
  0
VERTEX
  5
69
330
67
100
AcDbEntity
  8
Capa 1
 62
   250
420
  1842203
370
    13
100
AcDbVertex
100
AcDb2dVertex
 10
104.06875539933
 20
160.6449747319742
 30
0.0
  0
VERTEX
  5
6A
330
67
100
AcDbEntity
  8
Capa 1
 62
   250
420
  1842203
370
    13
100
AcDbVertex
100
AcDb2dVertex
 10
104.06875539933
 20
157.6535983221318
 30
0.0
  0
VERTEX
  5
6B
330
67
100
AcDbEntity
  8
Capa 1
 62
   250
420
  1842203
370
    13
100
AcDbVertex
100
AcDb2dVertex
 10
105.2249294441799
 20
160.6449747319742
 30
0.0
  0
SEQEND
  5
6C
330
67
100
AcDbEntity
  8
Capa 1
370
    13
  0
POLYLINE
  5
6D
330
1F
100
AcDbEntity
  8
Capa 1
 62
   250
420
  1842203
370
    13
100
AcDb2dPolyline
 66
     1
 10
0.0
 20
0.0
 30
0.0
  0
VERTEX
  5
6E
330
6D
100
AcDbEntity
  8
Capa 1
 62
   250
420
  1842203
370
    13
100
AcDbVertex
100
AcDb2dVertex
 10
102.7115600329159
 20
160.6449747319742
 30
0.0
  0
VERTEX
  5
6F
330
6D
100
AcDbEntity
  8
Capa 1
 62
   250
420
  1842203
370
    13
100
AcDbVertex
100
AcDb2dVertex
 10
104.0184570052454
 20
157.6535983221318
 30
0.0
  0
SEQEND
  5
70
330
6D
100
AcDbEntity
  8
Capa 1
370
    13
  0
POLYLINE
  5
71
330
1F
100
AcDbEntity
  8
Capa 1
 62
   250
420
  1842203
370
    13
100
AcDb2dPolyline
 66
     1
 10
0.0
 20
0.0
 30
0.0
  0
VERTEX
  5
72
330
71
100
AcDbEntity
  8
Capa 1
 62
   250
420
  1842203
370
    13
100
AcDbVertex
100
AcDb2dVertex
 10
104.06875539933
 20
160.6449747319742
 30
0.0
  0
VERTEX
  5
73
330
71
100
AcDbEntity
  8
Capa 1
 62
   250
420
  1842203
370
    13
100
AcDbVertex
100
AcDb2dVertex
 10
102.7115600329159
 20
157.6535983221318
 30
0.0
  0
VERTEX
  5
74
330
71
100
AcDbEntity
  8
Capa 1
 62
   250
420
  1842203
370
    13
100
AcDbVertex
100
AcDb2dVertex
 10
101.4547891998967
 20
160.6449747319742
 30
0.0
  0
SEQEND
  5
75
330
71
100
AcDbEntity
  8
Capa 1
370
    13
  0
POLYLINE
  5
76
330
1F
100
AcDbEntity
  8
Capa 1
 62
   250
420
  1842203
370
    13
100
AcDb2dPolyline
 66
     1
 10
0.0
 20
0.0
 30
0.0
  0
VERTEX
  5
77
330
76
100
AcDbEntity
  8
Capa 1
 62
   250
420
  1842203
370
    13
100
AcDbVertex
100
AcDb2dVertex
 10
102.7115600329159
 20
160.6449747319742
 30
0.0
  0
VERTEX
  5
78
330
76
100
AcDbEntity
  8
Capa 1
 62
   250
420
  1842203
370
    13
100
AcDbVertex
100
AcDb2dVertex
 10
101.4547891998967
 20
157.6535983221318
 30
0.0
  0
VERTEX
  5
79
330
76
100
AcDbEntity
  8
Capa 1
 62
   250
420
  1842203
370
    13
100
AcDbVertex
100
AcDb2dVertex
 10
100.2736382127788
 20
160.6449747319742
 30
0.0
  0
SEQEND
  5
7A
330
76
100
AcDbEntity
  8
Capa 1
370
    13
  0
POLYLINE
  5
7B
330
1F
100
AcDbEntity
  8
Capa 1
 62
   250
420
  1842203
370
    13
100
AcDb2dPolyline
 66
     1
 10
0.0
 20
0.0
 30
0.0
  0
VERTEX
  5
7C
330
7B
100
AcDbEntity
  8
Capa 1
 62
   250
420
  1842203
370
    13
100
AcDbVertex
100
AcDb2dVertex
 10
100.2736382127788
 20
157.6535983221318
 30
0.0
  0
VERTEX
  5
7D
330
7B
100
AcDbEntity
  8
Capa 1
 62
   250
420
  1842203
370
    13
100
AcDbVertex
100
AcDb2dVertex
 10
101.4547891998967
 20
160.6449747319742
 30
0.0
  0
SEQEND
  5
7E
330
7B
100
AcDbEntity
  8
Capa 1
370
    13
  0
POLYLINE
  5
7F
330
1F
100
AcDbEntity
  8
Capa 1
 62
   250
420
  1842203
370
    13
100
AcDb2dPolyline
 66
     1
 10
0.0
 20
0.0
 30
0.0
  0
VERTEX
  5
80
330
7F
100
AcDbEntity
  8
Capa 1
 62
   250
420
  1842203
370
    13
100
AcDbVertex
100
AcDb2dVertex
 10
100.2736382127788
 20
157.6535983221318
 30
0.0
  0
VERTEX
  5
81
330
7F
100
AcDbEntity
  8
Capa 1
 62
   250
420
  1842203
370
    13
100
AcDbVertex
100
AcDb2dVertex
 10
99.01686737975967
 20
160.6449747319742
 30
0.0
  0
SEQEND
  5
82
330
7F
100
AcDbEntity
  8
Capa 1
370
    13
  0
POLYLINE
  5
83
330
1F
100
AcDbEntity
  8
Capa 1
 62
   250
420
  1842203
370
    13
100
AcDb2dPolyline
 66
     1
 10
0.0
 20
0.0
 30
0.0
  0
VERTEX
  5
84
330
83
100
AcDbEntity
  8
Capa 1
 62
   250
420
  1842203
370
    13
100
AcDbVertex
100
AcDb2dVertex
 10
99.01686737975967
 20
157.6535983221318
 30
0.0
  0
VERTEX
  5
85
330
83
100
AcDbEntity
  8
Capa 1
 62
   250
420
  1842203
370
    13
100
AcDbVertex
100
AcDb2dVertex
 10
100.2736382127788
 20
160.6449747319742
 30
0.0
  0
SEQEND
  5
86
330
83
100
AcDbEntity
  8
Capa 1
370
    13
  0
POLYLINE
  5
87
330
1F
100
AcDbEntity
  8
Capa 1
 62
   250
420
  1842203
370
    13
100
AcDb2dPolyline
 66
     1
 10
0.0
 20
0.0
 30
0.0
  0
VERTEX
  5
88
330
87
100
AcDbEntity
  8
Capa 1
 62
   250
420
  1842203
370
    13
100
AcDbVertex
100
AcDb2dVertex
 10
99.01686737975967
 20
157.6535983221318
 30
0.0
  0
VERTEX
  5
89
330
87
100
AcDbEntity
  8
Capa 1
 62
   250
420
  1842203
370
    13
100
AcDbVertex
100
AcDb2dVertex
 10
97.65949975857124
 20
160.6449747319742
 30
0.0
  0
SEQEND
  5
8A
330
87
100
AcDbEntity
  8
Capa 1
370
    13
  0
POLYLINE
  5
8B
330
1F
100
AcDbEntity
  8
Capa 1
 62
   250
420
  1842203
370
    13
100
AcDb2dPolyline
 66
     1
 10
0.0
 20
0.0
 30
0.0
  0
VERTEX
  5
8C
330
8B
100
AcDbEntity
  8
Capa 1
 62
   250
420
  1842203
370
    13
100
AcDbVertex
100
AcDb2dVertex
 10
99.01686737975967
 20
160.6449747319742
 30
0.0
  0
VERTEX
  5
8D
330
8B
100
AcDbEntity
  8
Capa 1
 62
   250
420
  1842203
370
    13
100
AcDbVertex
100
AcDb2dVertex
 10
97.65949975857124
 20
157.6535983221318
 30
0.0
  0
VERTEX
  5
8E
330
8B
100
AcDbEntity
  8
Capa 1
 62
   250
420
  1842203
370
    13
100
AcDbVertex
100
AcDb2dVertex
 10
96.42805037736869
 20
160.6449747319742
 30
0.0
  0
SEQEND
  5
8F
330
8B
100
AcDbEntity
  8
Capa 1
370
    13
  0
POLYLINE
  5
90
330
1F
100
AcDbEntity
  8
Capa 1
 62
   250
420
  1842203
370
    13
100
AcDb2dPolyline
 66
     1
 10
0.0
 20
0.0
 30
0.0
  0
VERTEX
  5
91
330
90
100
AcDbEntity
  8
Capa 1
 62
   250
420
  1842203
370
    13
100
AcDbVertex
100
AcDb2dVertex
 10
97.65949975857124
 20
160.6449747319742
 30
0.0
  0
VERTEX
  5
92
330
90
100
AcDbEntity
  8
Capa 1
 62
   250
420
  1842203
370
    13
100
AcDbVertex
100
AcDb2dVertex
 10
96.42805037736869
 20
157.6535983221318
 30
0.0
  0
VERTEX
  5
93
330
90
100
AcDbEntity
  8
Capa 1
 62
   250
420
  1842203
370
    13
100
AcDbVertex
100
AcDb2dVertex
 10
95.2215779384342
 20
160.6449747319742
 30
0.0
  0
SEQEND
  5
94
330
90
100
AcDbEntity
  8
Capa 1
370
    13
  0
POLYLINE
  5
95
330
1F
100
AcDbEntity
  8
Capa 1
 62
   250
420
  1842203
370
    13
100
AcDb2dPolyline
 66
     1
 10
0.0
 20
0.0
 30
0.0
  0
VERTEX
  5
96
330
95
100
AcDbEntity
  8
Capa 1
 62
   250
420
  1842203
370
    13
100
AcDbVertex
100
AcDb2dVertex
 10
96.42805037736869
 20
160.6449747319742
 30
0.0
  0
VERTEX
  5
97
330
95
100
AcDbEntity
  8
Capa 1
 62
   250
420
  1842203
370
    13
100
AcDbVertex
100
AcDb2dVertex
 10
95.2215779384342
 20
157.6535983221318
 30
0.0
  0
SEQEND
  5
98
330
95
100
AcDbEntity
  8
Capa 1
370
    13
  0
SPLINE
  5
99
330
1F
100
AcDbEntity
  8
Capa 1
 62
   250
420
  1842203
370
    13
100
AcDbSpline
210
0.0
220
0.0
230
1.0
 70
    11
 71
     3
 72
    20
 73
    16
 74
     0
 42
0.0000000001
 43
0.0000000001
 40
0.0
 40
0.0
 40
0.0
 40
0.0
 40
1.0
 40
1.0
 40
1.0
 40
2.0
 40
2.0
 40
2.0
 40
3.0
 40
3.0
 40
3.0
 40
4.0
 40
4.0
 40
4.0
 40
5.0
 40
5.0
 40
5.0
 40
5.0
 10
96.3274535891994
 20
164.6333617752479
 30
0.0
 10
96.40290118032637
 20
164.6333617752479
 30
0.0
 10
96.45319957441102
 20
164.4774712045404
 30
0.0
 10
96.45319957441102
 20
164.3215806338328
 30
0.0
 10
96.45319957441102
 20
164.1658623178995
 30
0.0
 10
96.40290118032637
 20
164.0101440019662
 30
0.0
 10
96.3274535891994
 20
164.0101440019662
 30
0.0
 10
96.25200599807242
 20
164.0101440019662
 30
0.0
 10
96.20187985876204
 20
164.1658623178995
 30
0.0
 10
96.20187985876204
 20
164.3215806338328
 30
0.0
 10
96.20187985876204
 20
164.4774712045404
 30
0.0
 10
96.25200599807242
 20
164.6333617752479
 30
0.0
 10
96.3274535891994
 20
164.6333617752479
 30
0.0
 10
96.3274535891994
 20
164.6333617752479
 30
0.0
 10
96.3274535891994
 20
164.6333617752479
 30
0.0
 10
96.3274535891994
 20
164.6333617752479
 30
0.0
  0
POLYLINE
  5
9A
330
1F
100
AcDbEntity
  8
Capa 1
 62
   250
420
  1842203
370
    13
100
AcDb2dPolyline
 66
     1
 10
0.0
 20
0.0
 30
0.0
  0
VERTEX
  5
9B
330
9A
100
AcDbEntity
  8
Capa 1
 62
   250
420
  1842203
370
    13
100
AcDbVertex
100
AcDb2dVertex
 10
97.68482121038782
 20
136.7461750960218
 30
0.0
  0
VERTEX
  5
9C
330
9A
100
AcDbEntity
  8
Capa 1
 62
   250
420
  1842203
370
    13
100
AcDbVertex
100
AcDb2dVertex
 10
97.68482121038782
 20
138.7712022222516
 30
0.0
  0
VERTEX
  5
9D
330
9A
100
AcDbEntity
  8
Capa 1
 62
   250
420
  1842203
370
    13
100
AcDbVertex
100
AcDb2dVertex
 10
102.8119845663109
 20
138.7712022222516
 30
0.0
  0
VERTEX
  5
9E
330
9A
100
AcDbEntity
  8
Capa 1
 62
   250
420
  1842203
370
    13
100
AcDbVertex
100
AcDb2dVertex
 10
102.8119845663109
 20
136.7461750960218
 30
0.0
  0
SEQEND
  5
9F
330
9A
100
AcDbEntity
  8
Capa 1
370
    13
  0
POLYLINE
  5
A0
330
1F
100
AcDbEntity
  8
Capa 1
 62
   250
420
  1842203
370
    13
100
AcDb2dPolyline
 66
     1
 10
0.0
 20
0.0
 30
0.0
  0
VERTEX
  5
A1
330
A0
100
AcDbEntity
  8
Capa 1
 62
   250
420
  1842203
370
    13
100
AcDbVertex
100
AcDb2dVertex
 10
97.68482121038782
 20
137.961604783218
 30
0.0
  0
VERTEX
  5
A2
330
A0
100
AcDbEntity
  8
Capa 1
 62
   250
420
  1842203
370
    13
100
AcDbVertex
100
AcDb2dVertex
 10
94.46761879148727
 20
137.961604783218
 30
0.0
  0
SEQEND
  5
A3
330
A0
100
AcDbEntity
  8
Capa 1
370
    13
  0
POLYLINE
  5
A4
330
1F
100
AcDbEntity
  8
Capa 1
 62
   250
420
  1842203
370
    13
100
AcDb2dPolyline
 66
     1
 10
0.0
 20
0.0
 30
0.0
  0
VERTEX
  5
A5
330
A4
100
AcDbEntity
  8
Capa 1
 62
   250
420
  1842203
370
    13
100
AcDbVertex
100
AcDb2dVertex
 10
102.8119845663109
 20
137.961604783218
 30
0.0
  0
VERTEX
  5
A6
330
A4
100
AcDbEntity
  8
Capa 1
 62
   250
420
  1842203
370
    13
100
AcDbVertex
100
AcDb2dVertex
 10
106.1048068311127
 20
137.961604783218
 30
0.0
  0
SEQEND
  5
A7
330
A4
100
AcDbEntity
  8
Capa 1
370
    13
  0
POLYLINE
  5
A8
330
1F
100
AcDbEntity
  8
Capa 1
 62
   250
420
  1842203
370
    13
100
AcDb2dPolyline
 66
     1
 10
0.0
 20
0.0
 30
0.0
  0
VERTEX
  5
A9
330
A8
100
AcDbEntity
  8
Capa 1
 62
   250
420
  1842203
370
    13
100
AcDbVertex
100
AcDb2dVertex
 10
99.72052813262195
 20
138.7712022222516
 30
0.0
  0
VERTEX
  5
AA
330
A8
100
AcDbEntity
  8
Capa 1
 62
   250
420
  1842203
370
    13
100
AcDbVertex
100
AcDb2dVertex
 10
99.72052813262195
 20
142.9466579503745
 30
0.0
  0
VERTEX
  5
AB
330
A8
100
AcDbEntity
  8
Capa 1
 62
   250
420
  1842203
370
    13
100
AcDbVertex
100
AcDb2dVertex
 10
100.9521497685988
 20
142.9466579503745
 30
0.0
  0
VERTEX
  5
AC
330
A8
100
AcDbEntity
  8
Capa 1
 62
   250
420
  1842203
370
    13
100
AcDbVertex
100
AcDb2dVertex
 10
100.9521497685988
 20
138.7712022222516
 30
0.0
  0
SEQEND
  5
AD
330
A8
100
AcDbEntity
  8
Capa 1
370
    13
  0
POLYLINE
  5
AE
330
1F
100
AcDbEntity
  8
Capa 1
 62
   250
420
  1842203
370
     9
100
AcDb2dPolyline
 66
     1
 10
0.0
 20
0.0
 30
0.0
  0
VERTEX
  5
AF
330
AE
100
AcDbEntity
  8
Capa 1
 62
   250
420
  1842203
370
     9
100
AcDbVertex
100
AcDb2dVertex
 10
94.46761879148727
 20
135.6251410251215
 30
0.0
  0
VERTEX
  5
B0
330
AE
100
AcDbEntity
  8
Capa 1
 62
   250
420
  1842203
370
     9
100
AcDbVertex
100
AcDb2dVertex
 10
94.46761879148727
 20
132.349544237746
 30
0.0
  0
SEQEND
  5
B1
330
AE
100
AcDbEntity
  8
Capa 1
370
     9
  0
POLYLINE
  5
B2
330
1F
100
AcDbEntity
  8
Capa 1
 62
   250
420
  1842203
370
     9
100
AcDb2dPolyline
 66
     1
 10
0.0
 20
0.0
 30
0.0
  0
VERTEX
  5
B3
330
B2
100
AcDbEntity
  8
Capa 1
 62
   250
420
  1842203
370
     9
100
AcDbVertex
100
AcDb2dVertex
 10
106.1048068311127
 20
135.6251410251215
 30
0.0
  0
VERTEX
  5
B4
330
B2
100
AcDbEntity
  8
Capa 1
 62
   250
420
  1842203
370
     9
100
AcDbVertex
100
AcDb2dVertex
 10
106.1048068311127
 20
132.349544237746
 30
0.0
  0
SEQEND
  5
B5
330
B2
100
AcDbEntity
  8
Capa 1
370
     9
  0
POLYLINE
  5
B6
330
1F
100
AcDbEntity
  8
Capa 1
 62
   250
420
  1842203
370
     9
100
AcDb2dPolyline
 66
     1
 10
0.0
 20
0.0
 30
0.0
  0
VERTEX
  5
B7
330
B6
100
AcDbEntity
  8
Capa 1
 62
   250
420
  1842203
370
     9
100
AcDbVertex
100
AcDb2dVertex
 10
101.5696831343298
 20
132.8511501403983
 30
0.0
  0
VERTEX
  5
B8
330
B6
100
AcDbEntity
  8
Capa 1
 62
   250
420
  1842203
370
     9
100
AcDbVertex
100
AcDb2dVertex
 10
105.1935790752641
 20
132.8511501403983
 30
0.0
  0
SEQEND
  5
B9
330
B6
100
AcDbEntity
  8
Capa 1
370
     9
  0
POLYLINE
  5
BA
330
1F
100
AcDbEntity
  8
Capa 1
370
     0
100
AcDb2dPolyline
 66
     1
 10
0.0
 20
0.0
 30
0.0
  0
VERTEX
  5
BB
330
BA
100
AcDbEntity
  8
Capa 1
370
     0
100
AcDbVertex
100
AcDb2dVertex
 10
106.1030842833701
 20
132.8511501403983
 30
0.0
  0
VERTEX
  5
BC
330
BA
100
AcDbEntity
  8
Capa 1
370
     0
100
AcDbVertex
100
AcDb2dVertex
 10
105.1815212410657
 20
133.3121039163248
 30
0.0
  0
VERTEX
  5
BD
330
BA
100
AcDbEntity
  8
Capa 1
370
     0
100
AcDbVertex
100
AcDb2dVertex
 10
105.1815212410657
 20
132.3901963644719
 30
0.0
  0
VERTEX
  5
BE
330
BA
100
AcDbEntity
  8
Capa 1
370
     0
100
AcDbVertex
100
AcDb2dVertex
 10
106.1030842833701
 20
132.8511501403983
 30
0.0
  0
VERTEX
  5
BF
330
BA
100
AcDbEntity
  8
Capa 1
370
     0
100
AcDbVertex
100
AcDb2dVertex
 10
106.1030842833701
 20
132.8511501403983
 30
0.0
  0
SEQEND
  5
C0
330
BA
100
AcDbEntity
  8
Capa 1
370
     0
  0
HATCH
  5
C1
330
1F
100
AcDbEntity
  8
Capa 1
 62
   250
420
  1842203
100
AcDbHatch
 10
0.0
 20
0.0
 30
0.0
210
0.0
220
0.0
230
1.0
  2
SOLID
 70
     1
 71
     0
 91
        1
 92
        1
 93
        3
 72
     1
 10
106.1030842833701
 20
132.8511501403983
 11
105.1815212410657
 21
133.3121039163248
 72
     1
 10
105.1815212410657
 20
133.3121039163248
 11
105.1815212410657
 21
132.3901963644719
 72
     1
 10
105.1815212410657
 20
132.3901963644719
 11
106.1030842833701
 21
132.8511501403983
 97
        0
 75
     0
 76
     1
 98
        0
  0
POLYLINE
  5
C2
330
1F
100
AcDbEntity
  8
Capa 1
 62
   250
420
  1842203
370
    13
100
AcDb2dPolyline
 66
     1
 10
0.0
 20
0.0
 30
0.0
  0
VERTEX
  5
C3
330
C2
100
AcDbEntity
  8
Capa 1
 62
   250
420
  1842203
370
    13
100
AcDbVertex
100
AcDb2dVertex
 10
123.7550645306932
 20
136.6586696706964
 30
0.0
  0
VERTEX
  5
C4
330
C2
100
AcDbEntity
  8
Capa 1
 62
   250
420
  1842203
370
    13
100
AcDbVertex
100
AcDb2dVertex
 10
128.9836859486569
 20
136.6586696706964
 30
0.0
  0
SEQEND
  5
C5
330
C2
100
AcDbEntity
  8
Capa 1
370
    13
  0
POLYLINE
  5
C6
330
1F
100
AcDbEntity
  8
Capa 1
 62
   250
420
  1842203
370
    13
100
AcDb2dPolyline
 66
     1
 10
0.0
 20
0.0
 30
0.0
  0
VERTEX
  5
C7
330
C6
100
AcDbEntity
  8
Capa 1
 62
   250
420
  1842203
370
    13
100
AcDbVertex
100
AcDb2dVertex
 10
109.6656575246669
 20
157.5092488212998
 30
0.0
  0
VERTEX
  5
C8
330
C6
100
AcDbEntity
  8
Capa 1
 62
   250
420
  1842203
370
    13
100
AcDbVertex
100
AcDb2dVertex
 10
129.0315727759018
 20
157.5092488212998
 30
0.0
  0
SEQEND
  5
C9
330
C6
100
AcDbEntity
  8
Capa 1
370
    13
  0
POLYLINE
  5
CA
330
1F
100
AcDbEntity
  8
Capa 1
 62
   250
420
  1842203
370
    13
100
AcDb2dPolyline
 66
     1
 10
0.0
 20
0.0
 30
0.0
  0
VERTEX
  5
CB
330
CA
100
AcDbEntity
  8
Capa 1
 62
   250
420
  1842203
370
    13
100
AcDbVertex
100
AcDb2dVertex
 10
114.058498777909
 20
157.5092488212998
 30
0.0
  0
VERTEX
  5
CC
330
CA
100
AcDbEntity
  8
Capa 1
 62
   250
420
  1842203
370
    13
100
AcDbVertex
100
AcDb2dVertex
 10
111.7278916821375
 20
162.745449449331
 30
0.0
  0
VERTEX
  5
CD
330
CA
100
AcDbEntity
  8
Capa 1
 62
   250
420
  1842203
370
    13
100
AcDbVertex
100
AcDb2dVertex
 10
109.7993272294946
 20
162.745449449331
 30
0.0
  0
VERTEX
  5
CE
330
CA
100
AcDbEntity
  8
Capa 1
 62
   250
420
  1842203
370
    13
100
AcDbVertex
100
AcDb2dVertex
 10
109.7993272294946
 20
157.5092488212998
 30
0.0
  0
VERTEX
  5
CF
330
CA
100
AcDbEntity
  8
Capa 1
 62
   250
420
  1842203
370
    13
100
AcDbVertex
100
AcDb2dVertex
 10
109.7993272294946
 20
136.7199923703339
 30
0.0
  0
SEQEND
  5
D0
330
CA
100
AcDbEntity
  8
Capa 1
370
    13
  0
POLYLINE
  5
D1
330
1F
100
AcDbEntity
  8
Capa 1
 62
   250
420
  1842203
370
    13
100
AcDb2dPolyline
 66
     1
 10
0.0
 20
0.0
 30
0.0
  0
VERTEX
  5
D2
330
D1
100
AcDbEntity
  8
Capa 1
 62
   250
420
  1842203
370
    13
100
AcDbVertex
100
AcDb2dVertex
 10
123.9424777250908
 20
157.509421076074
 30
0.0
  0
VERTEX
  5
D3
330
D1
100
AcDbEntity
  8
Capa 1
 62
   250
420
  1842203
370
    13
100
AcDbVertex
100
AcDb2dVertex
 10
126.5407687400662
 20
162.745449449331
 30
0.0
  0
VERTEX
  5
D4
330
D1
100
AcDbEntity
  8
Capa 1
 62
   250
420
  1842203
370
    13
100
AcDbVertex
100
AcDb2dVertex
 10
128.8972140519771
 20
162.745449449331
 30
0.0
  0
VERTEX
  5
D5
330
D1
100
AcDbEntity
  8
Capa 1
 62
   250
420
  1842203
370
    13
100
AcDbVertex
100
AcDb2dVertex
 10
128.8979030710742
 20
136.6579806515994
 30
0.0
  0
SEQEND
  5
D6
330
D1
100
AcDbEntity
  8
Capa 1
370
    13
  0
POLYLINE
  5
D7
330
1F
100
AcDbEntity
  8
Capa 1
 62
   250
420
  1842203
370
    13
100
AcDb2dPolyline
 66
     1
 10
0.0
 20
0.0
 30
0.0
  0
VERTEX
  5
D8
330
D7
100
AcDbEntity
  8
Capa 1
 62
   250
420
  1842203
370
    13
100
AcDbVertex
100
AcDb2dVertex
 10
118.5316107559574
 20
157.5092488212998
 30
0.0
  0
VERTEX
  5
D9
330
D7
100
AcDbEntity
  8
Capa 1
 62
   250
420
  1842203
370
    13
100
AcDbVertex
100
AcDb2dVertex
 10
118.5316107559574
 20
158.8106336408529
 30
0.0
  0
VERTEX
  5
DA
330
D7
100
AcDbEntity
  8
Capa 1
 62
   250
420
  1842203
370
    13
100
AcDbVertex
100
AcDb2dVertex
 10
120.0853488198051
 20
158.8106336408529
 30
0.0
  0
VERTEX
  5
DB
330
D7
100
AcDbEntity
  8
Capa 1
 62
   250
420
  1842203
370
    13
100
AcDbVertex
100
AcDb2dVertex
 10
120.0853488198051
 20
157.5092488212998
 30
0.0
  0
SEQEND
  5
DC
330
D7
100
AcDbEntity
  8
Capa 1
370
    13
  0
POLYLINE
  5
DD
330
1F
100
AcDbEntity
  8
Capa 1
 62
   250
420
  1842203
370
    13
100
AcDb2dPolyline
 66
     1
 10
0.0
 20
0.0
 30
0.0
  0
VERTEX
  5
DE
330
DD
100
AcDbEntity
  8
Capa 1
 62
   250
420
  1842203
370
    13
100
AcDbVertex
100
AcDb2dVertex
 10
120.0853488198051
 20
158.4387355832202
 30
0.0
  0
VERTEX
  5
DF
330
DD
100
AcDbEntity
  8
Capa 1
 62
   250
420
  1842203
370
    13
100
AcDbVertex
100
AcDb2dVertex
 10
118.5316107559574
 20
158.4387355832202
 30
0.0
  0
SEQEND
  5
E0
330
DD
100
AcDbEntity
  8
Capa 1
370
    13
  0
SPLINE
  5
E1
330
1F
100
AcDbEntity
  8
Capa 1
 62
   250
420
  1842203
370
    13
100
AcDbSpline
210
0.0
220
0.0
230
1.0
 70
    11
 71
     3
 72
    20
 73
    16
 74
     0
 42
0.0000000001
 43
0.0000000001
 40
0.0
 40
0.0
 40
0.0
 40
0.0
 40
1.0
 40
1.0
 40
1.0
 40
2.0
 40
2.0
 40
2.0
 40
3.0
 40
3.0
 40
3.0
 40
4.0
 40
4.0
 40
4.0
 40
5.0
 40
5.0
 40
5.0
 40
5.0
 10
127.9336208447527
 20
163.4268893363134
 30
0.0
 10
128.1747775287202
 20
163.4268893363134
 30
0.0
 10
128.3621907231178
 20
163.6439303518842
 30
0.0
 10
128.3621907231178
 20
163.9228108314151
 30
0.0
 10
128.3621907231178
 20
164.2015190561719
 30
0.0
 10
128.1747775287202
 20
164.4183878169683
 30
0.0
 10
127.9336208447527
 20
164.4183878169683
 30
0.0
 10
127.6924641607852
 20
164.4183878169683
 30
0.0
 10
127.5050509663876
 20
164.2015190561719
 30
0.0
 10
127.5050509663876
 20
163.9228108314151
 30
0.0
 10
127.5050509663876
 20
163.6439303518842
 30
0.0
 10
127.6924641607852
 20
163.4268893363134
 30
0.0
 10
127.9336208447527
 20
163.4268893363134
 30
0.0
 10
127.9336208447527
 20
163.4268893363134
 30
0.0
 10
127.9336208447527
 20
163.4268893363134
 30
0.0
 10
127.9336208447527
 20
163.4268893363134
 30
0.0
  0
SPLINE
  5
E2
330
1F
100
AcDbEntity
  8
Capa 1
 62
   250
420
  1842203
370
    13
100
AcDbSpline
210
0.0
220
0.0
230
1.0
 70
    11
 71
     3
 72
    20
 73
    16
 74
     0
 42
0.0000000001
 43
0.0000000001
 40
0.0
 40
0.0
 40
0.0
 40
0.0
 40
1.0
 40
1.0
 40
1.0
 40
2.0
 40
2.0
 40
2.0
 40
3.0
 40
3.0
 40
3.0
 40
4.0
 40
4.0
 40
4.0
 40
5.0
 40
5.0
 40
5.0
 40
5.0
 10
110.7636094558161
 20
163.3340440129859
 30
0.0
 10
111.0047661397835
 20
163.3340440129859
 30
0.0
 10
111.1925238437296
 20
163.5509127737824
 30
0.0
 10
111.1925238437296
 20
163.8297932533134
 30
0.0
 10
111.1925238437296
 20
164.1086737328444
 30
0.0
 10
111.0047661397835
 20
164.3255424936409
 30
0.0
 10
110.7636094558161
 20
164.3255424936409
 30
0.0
 10
110.5227972813971
 20
164.3255424936409
 30
0.0
 10
110.335039577451
 20
164.1086737328444
 30
0.0
 10
110.335039577451
 20
163.8297932533134
 30
0.0
 10
110.335039577451
 20
163.5509127737824
 30
0.0
 10
110.5227972813971
 20
163.3340440129859
 30
0.0
 10
110.7636094558161
 20
163.3340440129859
 30
0.0
 10
110.7636094558161
 20
163.3340440129859
 30
0.0
 10
110.7636094558161
 20
163.3340440129859
 30
0.0
 10
110.7636094558161
 20
163.3340440129859
 30
0.0
  0
POLYLINE
  5
E3
330
1F
100
AcDbEntity
  8
Capa 1
 62
   250
420
  1842203
370
    13
100
AcDb2dPolyline
 66
     1
 10
0.0
 20
0.0
 30
0.0
  0
VERTEX
  5
E4
330
E3
100
AcDbEntity
  8
Capa 1
 62
   250
420
  1842203
370
    13
100
AcDbVertex
100
AcDb2dVertex
 10
109.7993272294946
 20
137.9278428474625
 30
0.0
  0
VERTEX
  5
E5
330
E3
100
AcDbEntity
  8
Capa 1
 62
   250
420
  1842203
370
    13
100
AcDbVertex
100
AcDb2dVertex
 10
128.7907606014829
 20
137.9278428474625
 30
0.0
  0
SEQEND
  5
E6
330
E3
100
AcDbEntity
  8
Capa 1
370
    13
  0
POLYLINE
  5
E7
330
1F
100
AcDbEntity
  8
Capa 1
 62
   250
420
  1842203
370
    13
100
AcDb2dPolyline
 66
     1
 10
0.0
 20
0.0
 30
0.0
  0
VERTEX
  5
E8
330
E7
100
AcDbEntity
  8
Capa 1
 62
   250
420
  1842203
370
    13
100
AcDbVertex
100
AcDb2dVertex
 10
109.7993272294946
 20
164.8676282682449
 30
0.0
  0
VERTEX
  5
E9
330
E7
100
AcDbEntity
  8
Capa 1
 62
   250
420
  1842203
370
    13
100
AcDbVertex
100
AcDb2dVertex
 10
128.7907606014829
 20
164.8676282682449
 30
0.0
  0
SEQEND
  5
EA
330
E7
100
AcDbEntity
  8
Capa 1
370
    13
  0
POLYLINE
  5
EB
330
1F
100
AcDbEntity
  8
Capa 1
 62
   250
420
  1842203
370
    13
100
AcDb2dPolyline
 66
     1
 10
0.0
 20
0.0
 30
0.0
  0
VERTEX
  5
EC
330
EB
100
AcDbEntity
  8
Capa 1
 62
   250
420
  1842203
370
    13
100
AcDbVertex
100
AcDb2dVertex
 10
109.7993272294946
 20
136.7199923703339
 30
0.0
  0
VERTEX
  5
ED
330
EB
100
AcDbEntity
  8
Capa 1
 62
   250
420
  1842203
370
    13
100
AcDbVertex
100
AcDb2dVertex
 10
114.8353678098328
 20
136.7199923703339
 30
0.0
  0
VERTEX
  5
EE
330
EB
100
AcDbEntity
  8
Capa 1
 62
   250
420
  1842203
370
    13
100
AcDbVertex
100
AcDb2dVertex
 10
114.8353678098328
 20
136.7199923703339
 30
0.0
  0
VERTEX
  5
EF
330
EB
100
AcDbEntity
  8
Capa 1
 62
   250
420
  1842203
370
    13
100
AcDbVertex
100
AcDb2dVertex
 10
115.5047498626169
 20
137.2774088198473
 30
0.0
  0
SEQEND
  5
F0
330
EB
100
AcDbEntity
  8
Capa 1
370
    13
  0
POLYLINE
  5
F1
330
1F
100
AcDbEntity
  8
Capa 1
 62
   250
420
  1842203
370
    13
100
AcDb2dPolyline
 66
     1
 10
0.0
 20
0.0
 30
0.0
  0
VERTEX
  5
F2
330
F1
100
AcDbEntity
  8
Capa 1
 62
   250
420
  1842203
370
    13
100
AcDbVertex
100
AcDb2dVertex
 10
114.8353678098328
 20
136.7199923703339
 30
0.0
  0
VERTEX
  5
F3
330
F1
100
AcDbEntity
  8
Capa 1
 62
   250
420
  1842203
370
    13
100
AcDbVertex
100
AcDb2dVertex
 10
114.8353678098328
 20
137.9278428474625
 30
0.0
  0
SEQEND
  5
F4
330
F1
100
AcDbEntity
  8
Capa 1
370
    13
  0
POLYLINE
  5
F5
330
1F
100
AcDbEntity
  8
Capa 1
 62
   250
420
  1842203
370
    13
100
AcDb2dPolyline
 66
     1
 10
0.0
 20
0.0
 30
0.0
  0
VERTEX
  5
F6
330
F5
100
AcDbEntity
  8
Capa 1
 62
   250
420
  1842203
370
    13
100
AcDbVertex
100
AcDb2dVertex
 10
109.7745225420008
 20
162.7537176784956
 30
0.0
  0
VERTEX
  5
F7
330
F5
100
AcDbEntity
  8
Capa 1
 62
   250
420
  1842203
370
    13
100
AcDbVertex
100
AcDb2dVertex
 10
109.7745225420008
 20
164.8676282682449
 30
0.0
  0
SEQEND
  5
F8
330
F5
100
AcDbEntity
  8
Capa 1
370
    13
  0
POLYLINE
  5
F9
330
1F
100
AcDbEntity
  8
Capa 1
 62
   250
420
  1842203
370
    13
100
AcDb2dPolyline
 66
     1
 10
0.0
 20
0.0
 30
0.0
  0
VERTEX
  5
FA
330
F9
100
AcDbEntity
  8
Capa 1
 62
   250
420
  1842203
370
    13
100
AcDbVertex
100
AcDb2dVertex
 10
128.8972140519771
 20
162.7537176784956
 30
0.0
  0
VERTEX
  5
FB
330
F9
100
AcDbEntity
  8
Capa 1
 62
   250
420
  1842203
370
    13
100
AcDbVertex
100
AcDb2dVertex
 10
128.8972140519771
 20
164.8676282682449
 30
0.0
  0
SEQEND
  5
FC
330
F9
100
AcDbEntity
  8
Capa 1
370
    13
  0
POLYLINE
  5
FD
330
1F
100
AcDbEntity
  8
Capa 1
 62
   250
420
  1842203
370
    13
100
AcDb2dPolyline
 66
     1
 10
0.0
 20
0.0
 30
0.0
  0
VERTEX
  5
FE
330
FD
100
AcDbEntity
  8
Capa 1
 62
   250
420
  1842203
370
    13
100
AcDbVertex
100
AcDb2dVertex
 10
123.7550645306932
 20
136.7199923703339
 30
0.0
  0
VERTEX
  5
FF
330
FD
100
AcDbEntity
  8
Capa 1
 62
   250
420
  1842203
370
    13
100
AcDbVertex
100
AcDb2dVertex
 10
123.7550645306932
 20
137.9278428474625
 30
0.0
  0
SEQEND
  5
100
330
FD
100
AcDbEntity
  8
Capa 1
370
    13
  0
POLYLINE
  5
101
330
1F
100
AcDbEntity
  8
Capa 1
 62
   250
420
  1842203
370
    13
100
AcDb2dPolyline
 66
     1
 10
0.0
 20
0.0
 30
0.0
  0
VERTEX
  5
102
330
101
100
AcDbEntity
  8
Capa 1
 62
   250
420
  1842203
370
    13
100
AcDbVertex
100
AcDb2dVertex
 10
114.8353678098328
 20
137.2774088198473
 30
0.0
  0
VERTEX
  5
103
330
101
100
AcDbEntity
  8
Capa 1
 62
   250
420
  1842203
370
    13
100
AcDbVertex
100
AcDb2dVertex
 10
115.5047498626169
 20
137.2774088198473
 30
0.0
  0
SEQEND
  5
104
330
101
100
AcDbEntity
  8
Capa 1
370
    13
  0
POLYLINE
  5
105
330
1F
100
AcDbEntity
  8
Capa 1
 62
   250
420
  1842203
370
     9
100
AcDb2dPolyline
 66
     1
 10
0.0
 20
0.0
 30
0.0
  0
VERTEX
  5
106
330
105
100
AcDbEntity
  8
Capa 1
 62
   250
420
  1842203
370
     9
100
AcDbVertex
100
AcDb2dVertex
 10
130.2507920681317
 20
165.0381604947648
 30
0.0
  0
VERTEX
  5
107
330
105
100
AcDbEntity
  8
Capa 1
 62
   250
420
  1842203
370
     9
100
AcDbVertex
100
AcDb2dVertex
 10
136.3176052176567
 20
165.0381604947648
 30
0.0
  0
SEQEND
  5
108
330
105
100
AcDbEntity
  8
Capa 1
370
     9
  0
POLYLINE
  5
109
330
1F
100
AcDbEntity
  8
Capa 1
 62
   250
420
  1842203
370
     9
100
AcDb2dPolyline
 66
     1
 10
0.0
 20
0.0
 30
0.0
  0
VERTEX
  5
10A
330
109
100
AcDbEntity
  8
Capa 1
 62
   250
420
  1842203
370
     9
100
AcDbVertex
100
AcDb2dVertex
 10
130.2507920681317
 20
157.5092488212998
 30
0.0
  0
VERTEX
  5
10B
330
109
100
AcDbEntity
  8
Capa 1
 62
   250
420
  1842203
370
     9
100
AcDbVertex
100
AcDb2dVertex
 10
134.34322099506
 20
157.5092488212998
 30
0.0
  0
SEQEND
  5
10C
330
109
100
AcDbEntity
  8
Capa 1
370
     9
  0
POLYLINE
  5
10D
330
1F
100
AcDbEntity
  8
Capa 1
 62
   250
420
  1842203
370
     9
100
AcDb2dPolyline
 66
     1
 10
0.0
 20
0.0
 30
0.0
  0
VERTEX
  5
10E
330
10D
100
AcDbEntity
  8
Capa 1
 62
   250
420
  1842203
370
     9
100
AcDbVertex
100
AcDb2dVertex
 10
129.9049044814127
 20
137.9278428474625
 30
0.0
  0
VERTEX
  5
10F
330
10D
100
AcDbEntity
  8
Capa 1
 62
   250
420
  1842203
370
     9
100
AcDbVertex
100
AcDb2dVertex
 10
130.6156276800197
 20
137.9278428474625
 30
0.0
  0
VERTEX
  5
110
330
10D
100
AcDbEntity
  8
Capa 1
 62
   250
420
  1842203
370
     9
100
AcDbVertex
100
AcDb2dVertex
 10
130.8798665037384
 20
137.9278428474625
 30
0.0
  0
SEQEND
  5
111
330
10D
100
AcDbEntity
  8
Capa 1
370
     9
  0
POLYLINE
  5
112
330
1F
100
AcDbEntity
  8
Capa 1
 62
   250
420
  1842203
370
     9
100
AcDb2dPolyline
 66
     1
 10
0.0
 20
0.0
 30
0.0
  0
VERTEX
  5
113
330
112
100
AcDbEntity
  8
Capa 1
 62
   250
420
  1842203
370
     9
100
AcDbVertex
100
AcDb2dVertex
 10
129.9049044814127
 20
136.6889865109667
 30
0.0
  0
VERTEX
  5
114
330
112
100
AcDbEntity
  8
Capa 1
 62
   250
420
  1842203
370
     9
100
AcDbVertex
100
AcDb2dVertex
 10
136.3176052176567
 20
136.6889865109667
 30
0.0
  0
SEQEND
  5
115
330
112
100
AcDbEntity
  8
Capa 1
370
     9
  0
POLYLINE
  5
116
330
1F
100
AcDbEntity
  8
Capa 1
 62
   250
420
  1842203
370
     9
100
AcDb2dPolyline
 66
     1
 10
0.0
 20
0.0
 30
0.0
  0
VERTEX
  5
117
330
116
100
AcDbEntity
  8
Capa 1
 62
   250
420
  1842203
370
     9
100
AcDbVertex
100
AcDb2dVertex
 10
136.3176052176567
 20
137.5998697572667
 30
0.0
  0
VERTEX
  5
118
330
116
100
AcDbEntity
  8
Capa 1
 62
   250
420
  1842203
370
     9
100
AcDbVertex
100
AcDb2dVertex
 10
136.3176052176567
 20
146.7906954928162
 30
0.0
  0
VERTEX
  5
119
330
116
100
AcDbEntity
  8
Capa 1
 62
   250
420
  1842203
370
     9
100
AcDbVertex
100
AcDb2dVertex
 10
136.3176052176567
 20
146.7521104233814
 30
0.0
  0
VERTEX
  5
11A
330
116
100
AcDbEntity
  8
Capa 1
 62
   250
420
  1842203
370
     9
100
AcDbVertex
100
AcDb2dVertex
 10
136.3176052176567
 20
148.6289984437455
 30
0.0
  0
SEQEND
  5
11B
330
116
100
AcDbEntity
  8
Capa 1
370
     9
  0
POLYLINE
  5
11C
330
1F
100
AcDbEntity
  8
Capa 1
370
     0
100
AcDb2dPolyline
 66
     1
 10
0.0
 20
0.0
 30
0.0
  0
VERTEX
  5
11D
330
11C
100
AcDbEntity
  8
Capa 1
370
     0
100
AcDbVertex
100
AcDb2dVertex
 10
136.3176052176567
 20
136.6903645491608
 30
0.0
  0
VERTEX
  5
11E
330
11C
100
AcDbEntity
  8
Capa 1
370
     0
100
AcDbVertex
100
AcDb2dVertex
 10
135.8566514417303
 20
137.6115830819166
 30
0.0
  0
VERTEX
  5
11F
330
11C
100
AcDbEntity
  8
Capa 1
370
     0
100
AcDbVertex
100
AcDb2dVertex
 10
136.7785589935831
 20
137.6115830819166
 30
0.0
  0
VERTEX
  5
120
330
11C
100
AcDbEntity
  8
Capa 1
370
     0
100
AcDbVertex
100
AcDb2dVertex
 10
136.3176052176567
 20
136.6903645491608
 30
0.0
  0
VERTEX
  5
121
330
11C
100
AcDbEntity
  8
Capa 1
370
     0
100
AcDbVertex
100
AcDb2dVertex
 10
136.3176052176567
 20
136.6903645491608
 30
0.0
  0
SEQEND
  5
122
330
11C
100
AcDbEntity
  8
Capa 1
370
     0
  0
HATCH
  5
123
330
1F
100
AcDbEntity
  8
Capa 1
 62
   250
420
  1842203
100
AcDbHatch
 10
0.0
 20
0.0
 30
0.0
210
0.0
220
0.0
230
1.0
  2
SOLID
 70
     1
 71
     0
 91
        1
 92
        1
 93
        3
 72
     1
 10
136.3176052176567
 20
136.6903645491608
 11
135.8566514417303
 21
137.6115830819166
 72
     1
 10
135.8566514417303
 20
137.6115830819166
 11
136.7785589935831
 21
137.6115830819166
 72
     1
 10
136.7785589935831
 20
137.6115830819166
 11
136.3176052176567
 21
136.6903645491608
 97
        0
 75
     0
 76
     1
 98
        0
  0
POLYLINE
  5
124
330
1F
100
AcDbEntity
  8
Capa 1
 62
   250
420
  1842203
370
     9
100
AcDb2dPolyline
 66
     1
 10
0.0
 20
0.0
 30
0.0
  0
VERTEX
  5
125
330
124
100
AcDbEntity
  8
Capa 1
 62
   250
420
  1842203
370
     9
100
AcDbVertex
100
AcDb2dVertex
 10
133.8323133345975
 20
145.5918022639493
 30
0.0
  0
VERTEX
  5
126
330
124
100
AcDbEntity
  8
Capa 1
 62
   250
420
  1842203
370
     9
100
AcDbVertex
100
AcDb2dVertex
 10
133.8323133345975
 20
137.5998697572667
 30
0.0
  0
SEQEND
  5
127
330
124
100
AcDbEntity
  8
Capa 1
370
     9
  0
POLYLINE
  5
128
330
1F
100
AcDbEntity
  8
Capa 1
370
     0
100
AcDb2dPolyline
 66
     1
 10
0.0
 20
0.0
 30
0.0
  0
VERTEX
  5
129
330
128
100
AcDbEntity
  8
Capa 1
370
     0
100
AcDbVertex
100
AcDb2dVertex
 10
133.8323133345975
 20
136.6903645491608
 30
0.0
  0
VERTEX
  5
12A
330
128
100
AcDbEntity
  8
Capa 1
370
     0
100
AcDbVertex
100
AcDb2dVertex
 10
134.2932671105239
 20
137.6115830819166
 30
0.0
  0
VERTEX
  5
12B
330
128
100
AcDbEntity
  8
Capa 1
370
     0
100
AcDbVertex
100
AcDb2dVertex
 10
133.3717040682196
 20
137.6115830819166
 30
0.0
  0
VERTEX
  5
12C
330
128
100
AcDbEntity
  8
Capa 1
370
     0
100
AcDbVertex
100
AcDb2dVertex
 10
133.8323133345975
 20
136.6903645491608
 30
0.0
  0
VERTEX
  5
12D
330
128
100
AcDbEntity
  8
Capa 1
370
     0
100
AcDbVertex
100
AcDb2dVertex
 10
133.8323133345975
 20
136.6903645491608
 30
0.0
  0
SEQEND
  5
12E
330
128
100
AcDbEntity
  8
Capa 1
370
     0
  0
HATCH
  5
12F
330
1F
100
AcDbEntity
  8
Capa 1
 62
   250
420
  1842203
100
AcDbHatch
 10
0.0
 20
0.0
 30
0.0
210
0.0
220
0.0
230
1.0
  2
SOLID
 70
     1
 71
     0
 91
        1
 92
        1
 93
        3
 72
     1
 10
133.8323133345975
 20
136.6903645491608
 11
134.2932671105239
 21
137.6115830819166
 72
     1
 10
134.2932671105239
 20
137.6115830819166
 11
133.3717040682196
 21
137.6115830819166
 72
     1
 10
133.3717040682196
 20
137.6115830819166
 11
133.8323133345975
 21
136.6903645491608
 97
        0
 75
     0
 76
     1
 98
        0
  0
POLYLINE
  5
130
330
1F
100
AcDbEntity
  8
Capa 1
 62
   250
420
  1842203
370
     9
100
AcDb2dPolyline
 66
     1
 10
0.0
 20
0.0
 30
0.0
  0
VERTEX
  5
131
330
130
100
AcDbEntity
  8
Capa 1
 62
   250
420
  1842203
370
     9
100
AcDbVertex
100
AcDb2dVertex
 10
130.4512966253733
 20
140.1699109892631
 30
0.0
  0
VERTEX
  5
132
330
130
100
AcDbEntity
  8
Capa 1
 62
   250
420
  1842203
370
     9
100
AcDbVertex
100
AcDb2dVertex
 10
130.4512966253733
 20
138.8394151128596
 30
0.0
  0
SEQEND
  5
133
330
130
100
AcDbEntity
  8
Capa 1
370
     9
  0
POLYLINE
  5
134
330
1F
100
AcDbEntity
  8
Capa 1
370
     0
100
AcDb2dPolyline
 66
     1
 10
0.0
 20
0.0
 30
0.0
  0
VERTEX
  5
135
330
134
100
AcDbEntity
  8
Capa 1
370
     0
100
AcDbVertex
100
AcDb2dVertex
 10
130.4512966253733
 20
137.9292208856566
 30
0.0
  0
VERTEX
  5
136
330
134
100
AcDbEntity
  8
Capa 1
370
     0
100
AcDbVertex
100
AcDb2dVertex
 10
130.9122504012997
 20
138.8511284375095
 30
0.0
  0
VERTEX
  5
137
330
134
100
AcDbEntity
  8
Capa 1
370
     0
100
AcDbVertex
100
AcDb2dVertex
 10
129.9906873589954
 20
138.8511284375095
 30
0.0
  0
VERTEX
  5
138
330
134
100
AcDbEntity
  8
Capa 1
370
     0
100
AcDbVertex
100
AcDb2dVertex
 10
130.4512966253733
 20
137.9292208856566
 30
0.0
  0
VERTEX
  5
139
330
134
100
AcDbEntity
  8
Capa 1
370
     0
100
AcDbVertex
100
AcDb2dVertex
 10
130.4512966253733
 20
137.9292208856566
 30
0.0
  0
SEQEND
  5
13A
330
134
100
AcDbEntity
  8
Capa 1
370
     0
  0
HATCH
  5
13B
330
1F
100
AcDbEntity
  8
Capa 1
 62
   250
420
  1842203
100
AcDbHatch
 10
0.0
 20
0.0
 30
0.0
210
0.0
220
0.0
230
1.0
  2
SOLID
 70
     1
 71
     0
 91
        1
 92
        1
 93
        3
 72
     1
 10
130.4512966253733
 20
137.9292208856566
 11
130.9122504012997
 21
138.8511284375095
 72
     1
 10
130.9122504012997
 20
138.8511284375095
 11
129.9906873589954
 21
138.8511284375095
 72
     1
 10
129.9906873589954
 20
138.8511284375095
 11
130.4512966253733
 21
137.9292208856566
 97
        0
 75
     0
 76
     1
 98
        0
  0
POLYLINE
  5
13C
330
1F
100
AcDbEntity
  8
Capa 1
 62
   250
420
  1842203
370
    13
100
AcDb2dPolyline
 66
     1
 10
0.0
 20
0.0
 30
0.0
  0
VERTEX
  5
13D
330
13C
100
AcDbEntity
  8
Capa 1
 62
   250
420
  1842203
370
    13
100
AcDbVertex
100
AcDb2dVertex
 10
123.7550645306932
 20
136.7199923703339
 30
0.0
  0
VERTEX
  5
13E
330
13C
100
AcDbEntity
  8
Capa 1
 62
   250
420
  1842203
370
    13
100
AcDbVertex
100
AcDb2dVertex
 10
123.0853379683606
 20
137.2774088198473
 30
0.0
  0
SEQEND
  5
13F
330
13C
100
AcDbEntity
  8
Capa 1
370
    13
  0
POLYLINE
  5
140
330
1F
100
AcDbEntity
  8
Capa 1
 62
   250
420
  1842203
370
    13
100
AcDb2dPolyline
 66
     1
 10
0.0
 20
0.0
 30
0.0
  0
VERTEX
  5
141
330
140
100
AcDbEntity
  8
Capa 1
 62
   250
420
  1842203
370
    13
100
AcDbVertex
100
AcDb2dVertex
 10
123.0853379683606
 20
137.2774088198473
 30
0.0
  0
VERTEX
  5
142
330
140
100
AcDbEntity
  8
Capa 1
 62
   250
420
  1842203
370
    13
100
AcDbVertex
100
AcDb2dVertex
 10
123.7550645306932
 20
137.2774088198473
 30
0.0
  0
SEQEND
  5
143
330
140
100
AcDbEntity
  8
Capa 1
370
    13
  0
POLYLINE
  5
144
330
1F
100
AcDbEntity
  8
Capa 1
 62
   250
420
  1842203
370
     9
100
AcDb2dPolyline
 66
     1
 10
0.0
 20
0.0
 30
0.0
  0
VERTEX
  5
145
330
144
100
AcDbEntity
  8
Capa 1
 62
   250
420
  1842203
370
     9
100
AcDbVertex
100
AcDb2dVertex
 10
129.0315727759018
 20
135.605159471307
 30
0.0
  0
VERTEX
  5
146
330
144
100
AcDbEntity
  8
Capa 1
 62
   250
420
  1842203
370
     9
100
AcDbVertex
100
AcDb2dVertex
 10
129.0315727759018
 20
131.9795409826301
 30
0.0
  0
SEQEND
  5
147
330
144
100
AcDbEntity
  8
Capa 1
370
     9
  0
POLYLINE
  5
148
330
1F
100
AcDbEntity
  8
Capa 1
 62
   250
420
  1842203
370
     9
100
AcDb2dPolyline
 66
     1
 10
0.0
 20
0.0
 30
0.0
  0
VERTEX
  5
149
330
148
100
AcDbEntity
  8
Capa 1
 62
   250
420
  1842203
370
     9
100
AcDbVertex
100
AcDb2dVertex
 10
109.6921847599033
 20
135.605159471307
 30
0.0
  0
VERTEX
  5
14A
330
148
100
AcDbEntity
  8
Capa 1
 62
   250
420
  1842203
370
     9
100
AcDbVertex
100
AcDb2dVertex
 10
109.6921847599033
 20
131.9795409826301
 30
0.0
  0
SEQEND
  5
14B
330
148
100
AcDbEntity
  8
Capa 1
370
     9
  0
POLYLINE
  5
14C
330
1F
100
AcDbEntity
  8
Capa 1
 62
   250
420
  1842203
370
     9
100
AcDb2dPolyline
 66
     1
 10
0.0
 20
0.0
 30
0.0
  0
VERTEX
  5
14D
330
14C
100
AcDbEntity
  8
Capa 1
 62
   250
420
  1842203
370
     9
100
AcDbVertex
100
AcDb2dVertex
 10
120.7650661590448
 20
132.847016025816
 30
0.0
  0
VERTEX
  5
14E
330
14C
100
AcDbEntity
  8
Capa 1
 62
   250
420
  1842203
370
     9
100
AcDbVertex
100
AcDb2dVertex
 10
128.1206895296018
 20
132.847016025816
 30
0.0
  0
SEQEND
  5
14F
330
14C
100
AcDbEntity
  8
Capa 1
370
     9
  0
POLYLINE
  5
150
330
1F
100
AcDbEntity
  8
Capa 1
370
     0
100
AcDb2dPolyline
 66
     1
 10
0.0
 20
0.0
 30
0.0
  0
VERTEX
  5
151
330
150
100
AcDbEntity
  8
Capa 1
370
     0
100
AcDbVertex
100
AcDb2dVertex
 10
129.0301947377077
 20
132.847016025816
 30
0.0
  0
VERTEX
  5
152
330
150
100
AcDbEntity
  8
Capa 1
370
     0
100
AcDbVertex
100
AcDb2dVertex
 10
128.1086316954034
 20
133.3079698017424
 30
0.0
  0
VERTEX
  5
153
330
150
100
AcDbEntity
  8
Capa 1
370
     0
100
AcDbVertex
100
AcDb2dVertex
 10
128.1086316954034
 20
132.3860622498896
 30
0.0
  0
VERTEX
  5
154
330
150
100
AcDbEntity
  8
Capa 1
370
     0
100
AcDbVertex
100
AcDb2dVertex
 10
129.0301947377077
 20
132.847016025816
 30
0.0
  0
VERTEX
  5
155
330
150
100
AcDbEntity
  8
Capa 1
370
     0
100
AcDbVertex
100
AcDb2dVertex
 10
129.0301947377077
 20
132.847016025816
 30
0.0
  0
SEQEND
  5
156
330
150
100
AcDbEntity
  8
Capa 1
370
     0
  0
HATCH
  5
157
330
1F
100
AcDbEntity
  8
Capa 1
 62
   250
420
  1842203
100
AcDbHatch
 10
0.0
 20
0.0
 30
0.0
210
0.0
220
0.0
230
1.0
  2
SOLID
 70
     1
 71
     0
 91
        1
 92
        1
 93
        3
 72
     1
 10
129.0301947377077
 20
132.847016025816
 11
128.1086316954034
 21
133.3079698017424
 72
     1
 10
128.1086316954034
 20
133.3079698017424
 11
128.1086316954034
 21
132.3860622498896
 72
     1
 10
128.1086316954034
 20
132.3860622498896
 11
129.0301947377077
 21
132.847016025816
 97
        0
 75
     0
 76
     1
 98
        0
  0
POLYLINE
  5
158
330
1F
100
AcDbEntity
  8
Capa 1
 62
   250
420
  1842203
370
    13
100
AcDb2dPolyline
 66
     1
 10
0.0
 20
0.0
 30
0.0
  0
VERTEX
  5
159
330
158
100
AcDbEntity
  8
Capa 1
 62
   250
420
  1842203
370
    13
100
AcDbVertex
100
AcDb2dVertex
 10
72.28774954790029
 20
155.4130804732995
 30
0.0
  0
VERTEX
  5
15A
330
158
100
AcDbEntity
  8
Capa 1
 62
   250
420
  1842203
370
    13
100
AcDbVertex
100
AcDb2dVertex
 10
82.05390622948653
 20
155.4130804732995
 30
0.0
  0
VERTEX
  5
15B
330
158
100
AcDbEntity
  8
Capa 1
 62
   250
420
  1842203
370
    13
100
AcDbVertex
100
AcDb2dVertex
 10
82.28438311744974
 20
155.4130804732995
 30
0.0
  0
VERTEX
  5
15C
330
158
100
AcDbEntity
  8
Capa 1
 62
   250
420
  1842203
370
    13
100
AcDbVertex
100
AcDb2dVertex
 10
82.28438311744974
 20
149.748826731226
 30
0.0
  0
VERTEX
  5
15D
330
158
100
AcDbEntity
  8
Capa 1
 62
   250
420
  1842203
370
    13
100
AcDbVertex
100
AcDb2dVertex
 10
82.05390622948653
 20
149.748826731226
 30
0.0
  0
SEQEND
  5
15E
330
158
100
AcDbEntity
  8
Capa 1
370
    13
  0
POLYLINE
  5
15F
330
1F
100
AcDbEntity
  8
Capa 1
 62
   250
420
  1842203
370
    13
100
AcDb2dPolyline
 66
     1
 10
0.0
 20
0.0
 30
0.0
  0
VERTEX
  5
160
330
15F
100
AcDbEntity
  8
Capa 1
 62
   250
420
  1842203
370
    13
100
AcDbVertex
100
AcDb2dVertex
 10
72.28774954790029
 20
155.4130804732995
 30
0.0
  0
VERTEX
  5
161
330
15F
100
AcDbEntity
  8
Capa 1
 62
   250
420
  1842203
370
    13
100
AcDbVertex
100
AcDb2dVertex
 10
72.28774954790029
 20
136.6931206255489
 30
0.0
  0
VERTEX
  5
162
330
15F
100
AcDbEntity
  8
Capa 1
 62
   250
420
  1842203
370
    13
100
AcDbVertex
100
AcDb2dVertex
 10
82.05390622948653
 20
136.7186143321398
 30
0.0
  0
VERTEX
  5
163
330
15F
100
AcDbEntity
  8
Capa 1
 62
   250
420
  1842203
370
    13
100
AcDbVertex
100
AcDb2dVertex
 10
82.05390622948653
 20
155.4130804732995
 30
0.0
  0
SEQEND
  5
164
330
15F
100
AcDbEntity
  8
Capa 1
370
    13
  0
POLYLINE
  5
165
330
1F
100
AcDbEntity
  8
Capa 1
 62
   250
420
  1842203
370
    13
100
AcDb2dPolyline
 66
     1
 10
0.0
 20
0.0
 30
0.0
  0
VERTEX
  5
166
330
165
100
AcDbEntity
  8
Capa 1
 62
   250
420
  1842203
370
    13
100
AcDbVertex
100
AcDb2dVertex
 10
72.28774954790029
 20
155.0320529126309
 30
0.0
  0
VERTEX
  5
167
330
165
100
AcDbEntity
  8
Capa 1
 62
   250
420
  1842203
370
    13
100
AcDbVertex
100
AcDb2dVertex
 10
72.28774954790029
 20
148.986943864663
 30
0.0
  0
SEQEND
  5
168
330
165
100
AcDbEntity
  8
Capa 1
370
    13
  0
POLYLINE
  5
169
330
1F
100
AcDbEntity
  8
Capa 1
 62
   250
420
  1842203
370
    13
100
AcDb2dPolyline
 66
     1
 10
0.0
 20
0.0
 30
0.0
  0
VERTEX
  5
16A
330
169
100
AcDbEntity
  8
Capa 1
 62
   250
420
  1842203
370
    13
100
AcDbVertex
100
AcDb2dVertex
 10
72.67928464979893
 20
155.0320529126309
 30
0.0
  0
VERTEX
  5
16B
330
169
100
AcDbEntity
  8
Capa 1
 62
   250
420
  1842203
370
    13
100
AcDbVertex
100
AcDb2dVertex
 10
72.67928464979893
 20
137.0741481862176
 30
0.0
  0
VERTEX
  5
16C
330
169
100
AcDbEntity
  8
Capa 1
 62
   250
420
  1842203
370
    13
100
AcDbVertex
100
AcDb2dVertex
 10
81.6163791028598
 20
137.0996418928084
 30
0.0
  0
VERTEX
  5
16D
330
169
100
AcDbEntity
  8
Capa 1
 62
   250
420
  1842203
370
    13
100
AcDbVertex
100
AcDb2dVertex
 10
81.6163791028598
 20
155.0320529126309
 30
0.0
  0
VERTEX
  5
16E
330
169
100
AcDbEntity
  8
Capa 1
 62
   250
420
  1842203
370
    13
100
AcDbVertex
100
AcDb2dVertex
 10
72.67928464979893
 20
155.0320529126309
 30
0.0
  0
VERTEX
  5
16F
330
169
100
AcDbEntity
  8
Capa 1
 62
   250
420
  1842203
370
    13
100
AcDbVertex
100
AcDb2dVertex
 10
72.67928464979893
 20
155.0320529126309
 30
0.0
  0
SEQEND
  5
170
330
169
100
AcDbEntity
  8
Capa 1
370
    13
  0
POLYLINE
  5
171
330
1F
100
AcDbEntity
  8
Capa 1
 62
   250
420
  1842203
370
    13
100
AcDb2dPolyline
 66
     1
 10
0.0
 20
0.0
 30
0.0
  0
VERTEX
  5
172
330
171
100
AcDbEntity
  8
Capa 1
 62
   250
420
  1842203
370
    13
100
AcDbVertex
100
AcDb2dVertex
 10
72.28774954790029
 20
155.4130804732995
 30
0.0
  0
VERTEX
  5
173
330
171
100
AcDbEntity
  8
Capa 1
 62
   250
420
  1842203
370
    13
100
AcDbVertex
100
AcDb2dVertex
 10
72.05744491471134
 20
155.4130804732995
 30
0.0
  0
VERTEX
  5
174
330
171
100
AcDbEntity
  8
Capa 1
 62
   250
420
  1842203
370
    13
100
AcDbVertex
100
AcDb2dVertex
 10
72.05744491471134
 20
149.748826731226
 30
0.0
  0
VERTEX
  5
175
330
171
100
AcDbEntity
  8
Capa 1
 62
   250
420
  1842203
370
    13
100
AcDbVertex
100
AcDb2dVertex
 10
72.28774954790029
 20
149.748826731226
 30
0.0
  0
SEQEND
  5
176
330
171
100
AcDbEntity
  8
Capa 1
370
    13
  0
POLYLINE
  5
177
330
1F
100
AcDbEntity
  8
Capa 1
 62
   250
420
  1842203
370
    13
100
AcDb2dPolyline
 66
     1
 10
0.0
 20
0.0
 30
0.0
  0
VERTEX
  5
178
330
177
100
AcDbEntity
  8
Capa 1
 62
   250
420
  1842203
370
    13
100
AcDbVertex
100
AcDb2dVertex
 10
82.05390622948653
 20
136.7179253130427
 30
0.0
  0
VERTEX
  5
179
330
177
100
AcDbEntity
  8
Capa 1
 62
   250
420
  1842203
370
    13
100
AcDbVertex
100
AcDb2dVertex
 10
82.28438311744974
 20
136.7179253130427
 30
0.0
  0
VERTEX
  5
17A
330
177
100
AcDbEntity
  8
Capa 1
 62
   250
420
  1842203
370
    13
100
AcDbVertex
100
AcDb2dVertex
 10
82.28438311744974
 20
141.4687119872023
 30
0.0
  0
VERTEX
  5
17B
330
177
100
AcDbEntity
  8
Capa 1
 62
   250
420
  1842203
370
    13
100
AcDbVertex
100
AcDb2dVertex
 10
82.05390622948653
 20
141.4687119872023
 30
0.0
  0
SEQEND
  5
17C
330
177
100
AcDbEntity
  8
Capa 1
370
    13
  0
POLYLINE
  5
17D
330
1F
100
AcDbEntity
  8
Capa 1
 62
   250
420
  1842203
370
    13
100
AcDb2dPolyline
 66
     1
 10
0.0
 20
0.0
 30
0.0
  0
VERTEX
  5
17E
330
17D
100
AcDbEntity
  8
Capa 1
 62
   250
420
  1842203
370
    13
100
AcDbVertex
100
AcDb2dVertex
 10
72.28774954790029
 20
141.4687119872023
 30
0.0
  0
VERTEX
  5
17F
330
17D
100
AcDbEntity
  8
Capa 1
 62
   250
420
  1842203
370
    13
100
AcDbVertex
100
AcDb2dVertex
 10
72.05744491471134
 20
141.4687119872023
 30
0.0
  0
VERTEX
  5
180
330
17D
100
AcDbEntity
  8
Capa 1
 62
   250
420
  1842203
370
    13
100
AcDbVertex
100
AcDb2dVertex
 10
72.05744491471134
 20
136.7186143321398
 30
0.0
  0
VERTEX
  5
181
330
17D
100
AcDbEntity
  8
Capa 1
 62
   250
420
  1842203
370
    13
100
AcDbVertex
100
AcDb2dVertex
 10
72.28774954790029
 20
136.7186143321398
 30
0.0
  0
SEQEND
  5
182
330
17D
100
AcDbEntity
  8
Capa 1
370
    13
  0
SPLINE
  5
183
330
1F
100
AcDbEntity
  8
Capa 1
 62
   250
420
  1842203
370
    13
100
AcDbSpline
210
0.0
220
0.0
230
1.0
 70
    11
 71
     3
 72
    20
 73
    16
 74
     0
 42
0.0000000001
 43
0.0000000001
 40
0.0
 40
0.0
 40
0.0
 40
0.0
 40
1.0
 40
1.0
 40
1.0
 40
2.0
 40
2.0
 40
2.0
 40
3.0
 40
3.0
 40
3.0
 40
4.0
 40
4.0
 40
4.0
 40
5.0
 40
5.0
 40
5.0
 40
5.0
 10
73.80789793076679
 20
137.658436380516
 30
0.0
 10
73.90022648977147
 20
137.658436380516
 30
0.0
 10
73.96930065425073
 20
137.6074489673342
 30
0.0
 10
73.96930065425073
 20
137.5061631600679
 30
0.0
 10
73.96930065425073
 20
137.4041883337045
 30
0.0
 10
73.90022648977147
 20
137.3538899396199
 30
0.0
 10
73.80789793076679
 20
137.3538899396199
 30
0.0
 10
73.71591388131061
 20
137.3538899396199
 30
0.0
 10
73.64666746205708
 20
137.4041883337045
 30
0.0
 10
73.64666746205708
 20
137.5061631600679
 30
0.0
 10
73.64666746205708
 20
137.6074489673342
 30
0.0
 10
73.71591388131061
 20
137.658436380516
 30
0.0
 10
73.80789793076679
 20
137.658436380516
 30
0.0
 10
73.80789793076679
 20
137.658436380516
 30
0.0
 10
73.80789793076679
 20
137.658436380516
 30
0.0
 10
73.80789793076679
 20
137.658436380516
 30
0.0
  0
SPLINE
  5
184
330
1F
100
AcDbEntity
  8
Capa 1
 62
   250
420
  1842203
370
    13
100
AcDbSpline
210
0.0
220
0.0
230
1.0
 70
    11
 71
     3
 72
    20
 73
    16
 74
     0
 42
0.0000000001
 43
0.0000000001
 40
0.0
 40
0.0
 40
0.0
 40
0.0
 40
1.0
 40
1.0
 40
1.0
 40
2.0
 40
2.0
 40
2.0
 40
3.0
 40
3.0
 40
3.0
 40
4.0
 40
4.0
 40
4.0
 40
5.0
 40
5.0
 40
5.0
 40
5.0
 10
80.39560951766151
 20
154.778149375368
 30
0.0
 10
80.48776582189195
 20
154.778149375368
 30
0.0
 10
80.55683998637122
 20
154.7273342169605
 30
0.0
 10
80.55683998637122
 20
154.6257039001457
 30
0.0
 10
80.55683998637122
 20
154.5240735833308
 30
0.0
 10
80.48776582189195
 20
154.4732584249234
 30
0.0
 10
80.39560951766151
 20
154.4732584249234
 30
0.0
 10
80.30345321343108
 20
154.4732584249234
 30
0.0
 10
80.23437904895182
 20
154.5240735833308
 30
0.0
 10
80.23437904895182
 20
154.6257039001457
 30
0.0
 10
80.23437904895182
 20
154.7273342169605
 30
0.0
 10
80.30345321343108
 20
154.778149375368
 30
0.0
 10
80.39560951766151
 20
154.778149375368
 30
0.0
 10
80.39560951766151
 20
154.778149375368
 30
0.0
 10
80.39560951766151
 20
154.778149375368
 30
0.0
 10
80.39560951766151
 20
154.778149375368
 30
0.0
  0
POLYLINE
  5
185
330
1F
100
AcDbEntity
  8
Capa 1
 62
   250
420
  1842203
370
     9
100
AcDb2dPolyline
 66
     1
 10
0.0
 20
0.0
 30
0.0
  0
VERTEX
  5
186
330
185
100
AcDbEntity
  8
Capa 1
 62
   250
420
  1842203
370
     9
100
AcDbVertex
100
AcDb2dVertex
 10
83.03506942368568
 20
153.7620184619935
 30
0.0
  0
VERTEX
  5
187
330
185
100
AcDbEntity
  8
Capa 1
 62
   250
420
  1842203
370
     9
100
AcDbVertex
100
AcDb2dVertex
 10
85.28592255897367
 20
153.7620184619935
 30
0.0
  0
SEQEND
  5
188
330
185
100
AcDbEntity
  8
Capa 1
370
     9
  0
POLYLINE
  5
189
330
1F
100
AcDbEntity
  8
Capa 1
 62
   250
420
  1842203
370
     9
100
AcDb2dPolyline
 66
     1
 10
0.0
 20
0.0
 30
0.0
  0
VERTEX
  5
18A
330
189
100
AcDbEntity
  8
Capa 1
 62
   250
420
  1842203
370
     9
100
AcDbVertex
100
AcDb2dVertex
 10
83.04437118149586
 20
155.4130804732995
 30
0.0
  0
VERTEX
  5
18B
330
189
100
AcDbEntity
  8
Capa 1
 62
   250
420
  1842203
370
     9
100
AcDbVertex
100
AcDb2dVertex
 10
89.1571763557489
 20
155.4130804732995
 30
0.0
  0
SEQEND
  5
18C
330
189
100
AcDbEntity
  8
Capa 1
370
     9
  0
POLYLINE
  5
18D
330
1F
100
AcDbEntity
  8
Capa 1
 62
   250
420
  1842203
370
     9
100
AcDb2dPolyline
 66
     1
 10
0.0
 20
0.0
 30
0.0
  0
VERTEX
  5
18E
330
18D
100
AcDbEntity
  8
Capa 1
 62
   250
420
  1842203
370
     9
100
AcDbVertex
100
AcDb2dVertex
 10
83.12998180430431
 20
138.2682182814052
 30
0.0
  0
VERTEX
  5
18F
330
18D
100
AcDbEntity
  8
Capa 1
 62
   250
420
  1842203
370
     9
100
AcDbVertex
100
AcDb2dVertex
 10
85.26490747651364
 20
138.2682182814052
 30
0.0
  0
SEQEND
  5
190
330
18D
100
AcDbEntity
  8
Capa 1
370
     9
  0
POLYLINE
  5
191
330
1F
100
AcDbEntity
  8
Capa 1
 62
   250
420
  1842203
370
     9
100
AcDb2dPolyline
 66
     1
 10
0.0
 20
0.0
 30
0.0
  0
VERTEX
  5
192
330
191
100
AcDbEntity
  8
Capa 1
 62
   250
420
  1842203
370
     9
100
AcDbVertex
100
AcDb2dVertex
 10
89.19455564176387
 20
136.6931206255489
 30
0.0
  0
VERTEX
  5
193
330
191
100
AcDbEntity
  8
Capa 1
 62
   250
420
  1842203
370
     9
100
AcDbVertex
100
AcDb2dVertex
 10
83.04816078652964
 20
136.6931206255489
 30
0.0
  0
SEQEND
  5
194
330
191
100
AcDbEntity
  8
Capa 1
370
     9
  0
POLYLINE
  5
195
330
1F
100
AcDbEntity
  8
Capa 1
 62
   250
420
  1842203
370
     9
100
AcDb2dPolyline
 66
     1
 10
0.0
 20
0.0
 30
0.0
  0
VERTEX
  5
196
330
195
100
AcDbEntity
  8
Capa 1
 62
   250
420
  1842203
370
     9
100
AcDbVertex
100
AcDb2dVertex
 10
84.86407061680482
 20
152.800320057286
 30
0.0
  0
VERTEX
  5
197
330
195
100
AcDbEntity
  8
Capa 1
 62
   250
420
  1842203
370
     9
100
AcDbVertex
100
AcDb2dVertex
 10
84.86407061680482
 20
148.3158392641363
 30
0.0
  0
SEQEND
  5
198
330
195
100
AcDbEntity
  8
Capa 1
370
     9
  0
POLYLINE
  5
199
330
1F
100
AcDbEntity
  8
Capa 1
370
     0
100
AcDb2dPolyline
 66
     1
 10
0.0
 20
0.0
 30
0.0
  0
VERTEX
  5
19A
330
199
100
AcDbEntity
  8
Capa 1
370
     0
100
AcDbVertex
100
AcDb2dVertex
 10
84.86407061680482
 20
153.709825265392
 30
0.0
  0
VERTEX
  5
19B
330
199
100
AcDbEntity
  8
Capa 1
370
     0
100
AcDbVertex
100
AcDb2dVertex
 10
85.32502439273125
 20
152.7880899683134
 30
0.0
  0
VERTEX
  5
19C
330
199
100
AcDbEntity
  8
Capa 1
370
     0
100
AcDbVertex
100
AcDb2dVertex
 10
84.4031168408784
 20
152.7880899683134
 30
0.0
  0
VERTEX
  5
19D
330
199
100
AcDbEntity
  8
Capa 1
370
     0
100
AcDbVertex
100
AcDb2dVertex
 10
84.86407061680482
 20
153.709825265392
 30
0.0
  0
VERTEX
  5
19E
330
199
100
AcDbEntity
  8
Capa 1
370
     0
100
AcDbVertex
100
AcDb2dVertex
 10
84.86407061680482
 20
153.709825265392
 30
0.0
  0
SEQEND
  5
19F
330
199
100
AcDbEntity
  8
Capa 1
370
     0
  0
HATCH
  5
1A0
330
1F
100
AcDbEntity
  8
Capa 1
 62
   250
420
  1842203
100
AcDbHatch
 10
0.0
 20
0.0
 30
0.0
210
0.0
220
0.0
230
1.0
  2
SOLID
 70
     1
 71
     0
 91
        1
 92
        1
 93
        3
 72
     1
 10
84.86407061680482
 20
153.709825265392
 11
85.32502439273125
 21
152.7880899683134
 72
     1
 10
85.32502439273125
 20
152.7880899683134
 11
84.4031168408784
 21
152.7880899683134
 72
     1
 10
84.4031168408784
 20
152.7880899683134
 11
84.86407061680482
 21
153.709825265392
 97
        0
 75
     0
 76
     1
 98
        0
  0
POLYLINE
  5
1A1
330
1F
100
AcDbEntity
  8
Capa 1
 62
   250
420
  1842203
370
     9
100
AcDb2dPolyline
 66
     1
 10
0.0
 20
0.0
 30
0.0
  0
VERTEX
  5
1A2
330
1A1
100
AcDbEntity
  8
Capa 1
 62
   250
420
  1842203
370
     9
100
AcDbVertex
100
AcDb2dVertex
 10
88.61853567663009
 20
144.953770580081
 30
0.0
  0
VERTEX
  5
1A3
330
1A1
100
AcDbEntity
  8
Capa 1
 62
   250
420
  1842203
370
     9
100
AcDbVertex
100
AcDb2dVertex
 10
88.61853567663009
 20
137.604003871849
 30
0.0
  0
SEQEND
  5
1A4
330
1A1
100
AcDbEntity
  8
Capa 1
370
     9
  0
POLYLINE
  5
1A5
330
1F
100
AcDbEntity
  8
Capa 1
370
     0
100
AcDb2dPolyline
 66
     1
 10
0.0
 20
0.0
 30
0.0
  0
VERTEX
  5
1A6
330
1A5
100
AcDbEntity
  8
Capa 1
370
     0
100
AcDbVertex
100
AcDb2dVertex
 10
88.61853567663009
 20
136.694498663743
 30
0.0
  0
VERTEX
  5
1A7
330
1A5
100
AcDbEntity
  8
Capa 1
370
     0
100
AcDbVertex
100
AcDb2dVertex
 10
89.07948945255652
 20
137.6164062155959
 30
0.0
  0
VERTEX
  5
1A8
330
1A5
100
AcDbEntity
  8
Capa 1
370
     0
100
AcDbVertex
100
AcDb2dVertex
 10
88.15758190070366
 20
137.6164062155959
 30
0.0
  0
VERTEX
  5
1A9
330
1A5
100
AcDbEntity
  8
Capa 1
370
     0
100
AcDbVertex
100
AcDb2dVertex
 10
88.61853567663009
 20
136.694498663743
 30
0.0
  0
VERTEX
  5
1AA
330
1A5
100
AcDbEntity
  8
Capa 1
370
     0
100
AcDbVertex
100
AcDb2dVertex
 10
88.61853567663009
 20
136.694498663743
 30
0.0
  0
SEQEND
  5
1AB
330
1A5
100
AcDbEntity
  8
Capa 1
370
     0
  0
HATCH
  5
1AC
330
1F
100
AcDbEntity
  8
Capa 1
 62
   250
420
  1842203
100
AcDbHatch
 10
0.0
 20
0.0
 30
0.0
210
0.0
220
0.0
230
1.0
  2
SOLID
 70
     1
 71
     0
 91
        1
 92
        1
 93
        3
 72
     1
 10
88.61853567663009
 20
136.694498663743
 11
89.07948945255652
 21
137.6164062155959
 72
     1
 10
89.07948945255652
 20
137.6164062155959
 11
88.15758190070366
 21
137.6164062155959
 72
     1
 10
88.15758190070366
 20
137.6164062155959
 11
88.61853567663009
 21
136.694498663743
 97
        0
 75
     0
 76
     1
 98
        0
  0
POLYLINE
  5
1AD
330
1F
100
AcDbEntity
  8
Capa 1
 62
   250
420
  1842203
370
     9
100
AcDb2dPolyline
 66
     1
 10
0.0
 20
0.0
 30
0.0
  0
VERTEX
  5
1AE
330
1AD
100
AcDbEntity
  8
Capa 1
 62
   250
420
  1842203
370
     9
100
AcDbVertex
100
AcDb2dVertex
 10
74.51155868362906
 20
137.6942653735626
 30
0.0
  0
VERTEX
  5
1AF
330
1AD
100
AcDbEntity
  8
Capa 1
 62
   250
420
  1842203
370
     9
100
AcDbVertex
100
AcDb2dVertex
 10
74.51155868362906
 20
133.4195908954646
 30
0.0
  0
SEQEND
  5
1B0
330
1AD
100
AcDbEntity
  8
Capa 1
370
     9
  0
POLYLINE
  5
1B1
330
1F
100
AcDbEntity
  8
Capa 1
 62
   250
420
  1842203
370
     9
100
AcDb2dPolyline
 66
     1
 10
0.0
 20
0.0
 30
0.0
  0
VERTEX
  5
1B2
330
1B1
100
AcDbEntity
  8
Capa 1
 62
   250
420
  1842203
370
     9
100
AcDbVertex
100
AcDb2dVertex
 10
75.6227742323964
 20
137.6942653735626
 30
0.0
  0
VERTEX
  5
1B3
330
1B1
100
AcDbEntity
  8
Capa 1
 62
   250
420
  1842203
370
     9
100
AcDbVertex
100
AcDb2dVertex
 10
75.6227742323964
 20
133.4195908954646
 30
0.0
  0
SEQEND
  5
1B4
330
1B1
100
AcDbEntity
  8
Capa 1
370
     9
  0
POLYLINE
  5
1B5
330
1F
100
AcDbEntity
  8
Capa 1
 62
   250
420
  1842203
370
     9
100
AcDb2dPolyline
 66
     1
 10
0.0
 20
0.0
 30
0.0
  0
VERTEX
  5
1B6
330
1B5
100
AcDbEntity
  8
Capa 1
 62
   250
420
  1842203
370
     9
100
AcDbVertex
100
AcDb2dVertex
 10
78.48823240225295
 20
133.7124240117108
 30
0.0
  0
VERTEX
  5
1B7
330
1B5
100
AcDbEntity
  8
Capa 1
 62
   250
420
  1842203
370
     9
100
AcDbVertex
100
AcDb2dVertex
 10
77.73961315330816
 20
133.7124240117108
 30
0.0
  0
SEQEND
  5
1B8
330
1B5
100
AcDbEntity
  8
Capa 1
370
     9
  0
POLYLINE
  5
1B9
330
1F
100
AcDbEntity
  8
Capa 1
370
     0
100
AcDb2dPolyline
 66
     1
 10
0.0
 20
0.0
 30
0.0
  0
VERTEX
  5
1BA
330
1B9
100
AcDbEntity
  8
Capa 1
370
     0
100
AcDbVertex
100
AcDb2dVertex
 10
79.39790986513316
 20
133.7124240117108
 30
0.0
  0
VERTEX
  5
1BB
330
1B9
100
AcDbEntity
  8
Capa 1
370
     0
100
AcDbVertex
100
AcDb2dVertex
 10
78.47617456805457
 20
133.2514702357844
 30
0.0
  0
VERTEX
  5
1BC
330
1B9
100
AcDbEntity
  8
Capa 1
370
     0
100
AcDbVertex
100
AcDb2dVertex
 10
78.47617456805457
 20
134.1733777876372
 30
0.0
  0
VERTEX
  5
1BD
330
1B9
100
AcDbEntity
  8
Capa 1
370
     0
100
AcDbVertex
100
AcDb2dVertex
 10
79.39790986513316
 20
133.7124240117108
 30
0.0
  0
VERTEX
  5
1BE
330
1B9
100
AcDbEntity
  8
Capa 1
370
     0
100
AcDbVertex
100
AcDb2dVertex
 10
79.39790986513316
 20
133.7124240117108
 30
0.0
  0
SEQEND
  5
1BF
330
1B9
100
AcDbEntity
  8
Capa 1
370
     0
  0
HATCH
  5
1C0
330
1F
100
AcDbEntity
  8
Capa 1
 62
   250
420
  1842203
100
AcDbHatch
 10
0.0
 20
0.0
 30
0.0
210
0.0
220
0.0
230
1.0
  2
SOLID
 70
     1
 71
     0
 91
        1
 92
        1
 93
        3
 72
     1
 10
79.39790986513316
 20
133.7124240117108
 11
78.47617456805457
 21
133.2514702357844
 72
     1
 10
78.47617456805457
 20
133.2514702357844
 11
78.47617456805457
 21
134.1733777876372
 72
     1
 10
78.47617456805457
 20
134.1733777876372
 11
79.39790986513316
 21
133.7124240117108
 97
        0
 75
     0
 76
     1
 98
        0
  0
POLYLINE
  5
1C1
330
1F
100
AcDbEntity
  8
Capa 1
 62
   250
420
  1842203
370
     9
100
AcDb2dPolyline
 66
     1
 10
0.0
 20
0.0
 30
0.0
  0
VERTEX
  5
1C2
330
1C1
100
AcDbEntity
  8
Capa 1
 62
   250
420
  1842203
370
     9
100
AcDbVertex
100
AcDb2dVertex
 10
79.39946015810153
 20
137.6536132468366
 30
0.0
  0
VERTEX
  5
1C3
330
1C1
100
AcDbEntity
  8
Capa 1
 62
   250
420
  1842203
370
     9
100
AcDbVertex
100
AcDb2dVertex
 10
79.39946015810153
 20
133.4292371628233
 30
0.0
  0
SEQEND
  5
1C4
330
1C1
100
AcDbEntity
  8
Capa 1
370
     9
  0
POLYLINE
  5
1C5
330
1F
100
AcDbEntity
  8
Capa 1
 62
   250
420
  1842203
370
     9
100
AcDb2dPolyline
 66
     1
 10
0.0
 20
0.0
 30
0.0
  0
VERTEX
  5
1C6
330
1C5
100
AcDbEntity
  8
Capa 1
 62
   250
420
  1842203
370
     9
100
AcDbVertex
100
AcDb2dVertex
 10
80.25177678115234
 20
137.6536132468366
 30
0.0
  0
VERTEX
  5
1C7
330
1C5
100
AcDbEntity
  8
Capa 1
 62
   250
420
  1842203
370
     9
100
AcDbVertex
100
AcDb2dVertex
 10
80.25177678115234
 20
133.4292371628233
 30
0.0
  0
SEQEND
  5
1C8
330
1C5
100
AcDbEntity
  8
Capa 1
370
     9
  0
POLYLINE
  5
1C9
330
1F
100
AcDbEntity
  8
Capa 1
 62
   250
420
  1842203
370
     9
100
AcDb2dPolyline
 66
     1
 10
0.0
 20
0.0
 30
0.0
  0
VERTEX
  5
1CA
330
1C9
100
AcDbEntity
  8
Capa 1
 62
   250
420
  1842203
370
     9
100
AcDbVertex
100
AcDb2dVertex
 10
72.0107638708862
 20
156.0535237240074
 30
0.0
  0
VERTEX
  5
1CB
330
1C9
100
AcDbEntity
  8
Capa 1
 62
   250
420
  1842203
370
     9
100
AcDbVertex
100
AcDb2dVertex
 10
72.0107638708862
 20
157.1656005466461
 30
0.0
  0
SEQEND
  5
1CC
330
1C9
100
AcDbEntity
  8
Capa 1
370
     9
  0
POLYLINE
  5
1CD
330
1F
100
AcDbEntity
  8
Capa 1
 62
   250
420
  1842203
370
     9
100
AcDb2dPolyline
 66
     1
 10
0.0
 20
0.0
 30
0.0
  0
VERTEX
  5
1CE
330
1CD
100
AcDbEntity
  8
Capa 1
 62
   250
420
  1842203
370
     9
100
AcDbVertex
100
AcDb2dVertex
 10
82.27680390738219
 20
156.0535237240074
 30
0.0
  0
VERTEX
  5
1CF
330
1CD
100
AcDbEntity
  8
Capa 1
 62
   250
420
  1842203
370
     9
100
AcDbVertex
100
AcDb2dVertex
 10
82.27680390738219
 20
157.1656005466461
 30
0.0
  0
SEQEND
  5
1D0
330
1CD
100
AcDbEntity
  8
Capa 1
370
     9
  0
POLYLINE
  5
1D1
330
1F
100
AcDbEntity
  8
Capa 1
 62
   250
420
  1842203
370
     9
100
AcDb2dPolyline
 66
     1
 10
0.0
 20
0.0
 30
0.0
  0
VERTEX
  5
1D2
330
1D1
100
AcDbEntity
  8
Capa 1
 62
   250
420
  1842203
370
     9
100
AcDbVertex
100
AcDb2dVertex
 10
81.37332761637542
 20
156.9116970093832
 30
0.0
  0
VERTEX
  5
1D3
330
1D1
100
AcDbEntity
  8
Capa 1
 62
   250
420
  1842203
370
     9
100
AcDbVertex
100
AcDb2dVertex
 10
78.9908718335509
 20
156.9116970093832
 30
0.0
  0
SEQEND
  5
1D4
330
1D1
100
AcDbEntity
  8
Capa 1
370
     9
  0
POLYLINE
  5
1D5
330
1F
100
AcDbEntity
  8
Capa 1
370
     0
100
AcDb2dPolyline
 66
     1
 10
0.0
 20
0.0
 30
0.0
  0
VERTEX
  5
1D6
330
1D5
100
AcDbEntity
  8
Capa 1
370
     0
100
AcDbVertex
100
AcDb2dVertex
 10
82.28283282448137
 20
156.9116970093832
 30
0.0
  0
VERTEX
  5
1D7
330
1D5
100
AcDbEntity
  8
Capa 1
370
     0
100
AcDbVertex
100
AcDb2dVertex
 10
81.36109752740279
 20
156.4507432334568
 30
0.0
  0
VERTEX
  5
1D8
330
1D5
100
AcDbEntity
  8
Capa 1
370
     0
100
AcDbVertex
100
AcDb2dVertex
 10
81.36109752740279
 20
157.3726507853096
 30
0.0
  0
VERTEX
  5
1D9
330
1D5
100
AcDbEntity
  8
Capa 1
370
     0
100
AcDbVertex
100
AcDb2dVertex
 10
82.28283282448137
 20
156.9116970093832
 30
0.0
  0
VERTEX
  5
1DA
330
1D5
100
AcDbEntity
  8
Capa 1
370
     0
100
AcDbVertex
100
AcDb2dVertex
 10
82.28283282448137
 20
156.9116970093832
 30
0.0
  0
SEQEND
  5
1DB
330
1D5
100
AcDbEntity
  8
Capa 1
370
     0
  0
HATCH
  5
1DC
330
1F
100
AcDbEntity
  8
Capa 1
 62
   250
420
  1842203
100
AcDbHatch
 10
0.0
 20
0.0
 30
0.0
210
0.0
220
0.0
230
1.0
  2
SOLID
 70
     1
 71
     0
 91
        1
 92
        1
 93
        3
 72
     1
 10
82.28283282448137
 20
156.9116970093832
 11
81.36109752740279
 21
156.4507432334568
 72
     1
 10
81.36109752740279
 20
156.4507432334568
 11
81.36109752740279
 21
157.3726507853096
 72
     1
 10
81.36109752740279
 20
157.3726507853096
 11
82.28283282448137
 21
156.9116970093832
 97
        0
 75
     0
 76
     1
 98
        0
  0
POLYLINE
  5
1DD
330
1F
100
AcDbEntity
  8
Capa 1
 62
   250
420
  1842203
370
     9
100
AcDb2dPolyline
 66
     1
 10
0.0
 20
0.0
 30
0.0
  0
VERTEX
  5
1DE
330
1DD
100
AcDbEntity
  8
Capa 1
 62
   250
420
  1842203
370
     9
100
AcDbVertex
100
AcDb2dVertex
 10
136.3176052176567
 20
136.6889865109667
 30
0.0
  0
VERTEX
  5
1DF
330
1DD
100
AcDbEntity
  8
Capa 1
 62
   250
420
  1842203
370
     9
100
AcDbVertex
100
AcDb2dVertex
 10
137.2281439544082
 20
136.6889865109667
 30
0.0
  0
SEQEND
  5
1E0
330
1DD
100
AcDbEntity
  8
Capa 1
370
     9
  0
POLYLINE
  5
1E1
330
1F
100
AcDbEntity
  8
Capa 1
 62
   250
420
  1842203
370
     9
100
AcDb2dPolyline
 66
     1
 10
0.0
 20
0.0
 30
0.0
  0
VERTEX
  5
1E2
330
1E1
100
AcDbEntity
  8
Capa 1
 62
   250
420
  1842203
370
     9
100
AcDbVertex
100
AcDb2dVertex
 10
136.3176052176567
 20
165.0381604947648
 30
0.0
  0
VERTEX
  5
1E3
330
1E1
100
AcDbEntity
  8
Capa 1
 62
   250
420
  1842203
370
     9
100
AcDbVertex
100
AcDb2dVertex
 10
137.0676025047956
 20
165.0381604947648
 30
0.0
  0
SEQEND
  5
1E4
330
1E1
100
AcDbEntity
  8
Capa 1
370
     9
  0
POLYLINE
  5
1E5
330
1F
100
AcDbEntity
  8
Capa 1
 62
   250
420
  1842203
370
     9
100
AcDb2dPolyline
 66
     1
 10
0.0
 20
0.0
 30
0.0
  0
VERTEX
  5
1E6
330
1E5
100
AcDbEntity
  8
Capa 1
 62
   250
420
  1842203
370
     9
100
AcDbVertex
100
AcDb2dVertex
 10
72.92181937196052
 20
156.9116970093832
 30
0.0
  0
VERTEX
  5
1E7
330
1E5
100
AcDbEntity
  8
Capa 1
 62
   250
420
  1842203
370
     9
100
AcDbVertex
100
AcDb2dVertex
 10
75.09653589702448
 20
156.9116970093832
 30
0.0
  0
SEQEND
  5
1E8
330
1E5
100
AcDbEntity
  8
Capa 1
370
     9
  0
POLYLINE
  5
1E9
330
1F
100
AcDbEntity
  8
Capa 1
370
     0
100
AcDb2dPolyline
 66
     1
 10
0.0
 20
0.0
 30
0.0
  0
VERTEX
  5
1EA
330
1E9
100
AcDbEntity
  8
Capa 1
370
     0
100
AcDbVertex
100
AcDb2dVertex
 10
72.0121419090803
 20
156.9116970093832
 30
0.0
  0
VERTEX
  5
1EB
330
1E9
100
AcDbEntity
  8
Capa 1
370
     0
100
AcDbVertex
100
AcDb2dVertex
 10
72.9338772061589
 20
157.3726507853096
 30
0.0
  0
VERTEX
  5
1EC
330
1E9
100
AcDbEntity
  8
Capa 1
370
     0
100
AcDbVertex
100
AcDb2dVertex
 10
72.9338772061589
 20
156.4507432334568
 30
0.0
  0
VERTEX
  5
1ED
330
1E9
100
AcDbEntity
  8
Capa 1
370
     0
100
AcDbVertex
100
AcDb2dVertex
 10
72.0121419090803
 20
156.9116970093832
 30
0.0
  0
VERTEX
  5
1EE
330
1E9
100
AcDbEntity
  8
Capa 1
370
     0
100
AcDbVertex
100
AcDb2dVertex
 10
72.0121419090803
 20
156.9116970093832
 30
0.0
  0
SEQEND
  5
1EF
330
1E9
100
AcDbEntity
  8
Capa 1
370
     0
  0
HATCH
  5
1F0
330
1F
100
AcDbEntity
  8
Capa 1
 62
   250
420
  1842203
100
AcDbHatch
 10
0.0
 20
0.0
 30
0.0
210
0.0
220
0.0
230
1.0
  2
SOLID
 70
     1
 71
     0
 91
        1
 92
        1
 93
        3
 72
     1
 10
72.0121419090803
 20
156.9116970093832
 11
72.9338772061589
 21
157.3726507853096
 72
     1
 10
72.9338772061589
 20
157.3726507853096
 11
72.9338772061589
 21
156.4507432334568
 72
     1
 10
72.9338772061589
 20
156.4507432334568
 11
72.0121419090803
 21
156.9116970093832
 97
        0
 75
     0
 76
     1
 98
        0
  0
POLYLINE
  5
1F1
330
1F
100
AcDbEntity
  8
Capa 1
 62
   250
420
  1842203
370
     9
100
AcDb2dPolyline
 66
     1
 10
0.0
 20
0.0
 30
0.0
  0
VERTEX
  5
1F2
330
1F1
100
AcDbEntity
  8
Capa 1
 62
   250
420
  1842203
370
     9
100
AcDbVertex
100
AcDb2dVertex
 10
88.61853567663009
 20
147.4142577756464
 30
0.0
  0
VERTEX
  5
1F3
330
1F1
100
AcDbEntity
  8
Capa 1
 62
   250
420
  1842203
370
     9
100
AcDbVertex
100
AcDb2dVertex
 10
88.61853567663009
 20
154.5020249722252
 30
0.0
  0
SEQEND
  5
1F4
330
1F1
100
AcDbEntity
  8
Capa 1
370
     9
  0
POLYLINE
  5
1F5
330
1F
100
AcDbEntity
  8
Capa 1
370
     0
100
AcDb2dPolyline
 66
     1
 10
0.0
 20
0.0
 30
0.0
  0
VERTEX
  5
1F6
330
1F5
100
AcDbEntity
  8
Capa 1
370
     0
100
AcDbVertex
100
AcDb2dVertex
 10
88.61853567663009
 20
155.4117024351054
 30
0.0
  0
VERTEX
  5
1F7
330
1F5
100
AcDbEntity
  8
Capa 1
370
     0
100
AcDbVertex
100
AcDb2dVertex
 10
88.15758190070366
 20
154.4899671380268
 30
0.0
  0
VERTEX
  5
1F8
330
1F5
100
AcDbEntity
  8
Capa 1
370
     0
100
AcDbVertex
100
AcDb2dVertex
 10
89.07948945255652
 20
154.4899671380268
 30
0.0
  0
VERTEX
  5
1F9
330
1F5
100
AcDbEntity
  8
Capa 1
370
     0
100
AcDbVertex
100
AcDb2dVertex
 10
88.61853567663009
 20
155.4117024351054
 30
0.0
  0
VERTEX
  5
1FA
330
1F5
100
AcDbEntity
  8
Capa 1
370
     0
100
AcDbVertex
100
AcDb2dVertex
 10
88.61853567663009
 20
155.4117024351054
 30
0.0
  0
SEQEND
  5
1FB
330
1F5
100
AcDbEntity
  8
Capa 1
370
     0
  0
HATCH
  5
1FC
330
1F
100
AcDbEntity
  8
Capa 1
 62
   250
420
  1842203
100
AcDbHatch
 10
0.0
 20
0.0
 30
0.0
210
0.0
220
0.0
230
1.0
  2
SOLID
 70
     1
 71
     0
 91
        1
 92
        1
 93
        3
 72
     1
 10
88.61853567663009
 20
155.4117024351054
 11
88.15758190070366
 21
154.4899671380268
 72
     1
 10
88.15758190070366
 20
154.4899671380268
 11
89.07948945255652
 21
154.4899671380268
 72
     1
 10
89.07948945255652
 20
154.4899671380268
 11
88.61853567663009
 21
155.4117024351054
 97
        0
 75
     0
 76
     1
 98
        0
  0
POLYLINE
  5
1FD
330
1F
100
AcDbEntity
  8
Capa 1
 62
   250
420
  1842203
370
     9
100
AcDb2dPolyline
 66
     1
 10
0.0
 20
0.0
 30
0.0
  0
VERTEX
  5
1FE
330
1FD
100
AcDbEntity
  8
Capa 1
 62
   250
420
  1842203
370
     9
100
AcDbVertex
100
AcDb2dVertex
 10
84.86407061680482
 20
139.1791015277052
 30
0.0
  0
VERTEX
  5
1FF
330
1FD
100
AcDbEntity
  8
Capa 1
 62
   250
420
  1842203
370
     9
100
AcDbVertex
100
AcDb2dVertex
 10
84.86407061680482
 20
143.8265353373073
 30
0.0
  0
SEQEND
  5
200
330
1FD
100
AcDbEntity
  8
Capa 1
370
     9
  0
POLYLINE
  5
201
330
1F
100
AcDbEntity
  8
Capa 1
370
     0
100
AcDb2dPolyline
 66
     1
 10
0.0
 20
0.0
 30
0.0
  0
VERTEX
  5
202
330
201
100
AcDbEntity
  8
Capa 1
370
     0
100
AcDbVertex
100
AcDb2dVertex
 10
84.86407061680482
 20
138.2695963195993
 30
0.0
  0
VERTEX
  5
203
330
201
100
AcDbEntity
  8
Capa 1
370
     0
100
AcDbVertex
100
AcDb2dVertex
 10
84.4031168408784
 20
139.1915038714521
 30
0.0
  0
VERTEX
  5
204
330
201
100
AcDbEntity
  8
Capa 1
370
     0
100
AcDbVertex
100
AcDb2dVertex
 10
85.32502439273125
 20
139.1915038714521
 30
0.0
  0
VERTEX
  5
205
330
201
100
AcDbEntity
  8
Capa 1
370
     0
100
AcDbVertex
100
AcDb2dVertex
 10
84.86407061680482
 20
138.2695963195993
 30
0.0
  0
VERTEX
  5
206
330
201
100
AcDbEntity
  8
Capa 1
370
     0
100
AcDbVertex
100
AcDb2dVertex
 10
84.86407061680482
 20
138.2695963195993
 30
0.0
  0
SEQEND
  5
207
330
201
100
AcDbEntity
  8
Capa 1
370
     0
  0
HATCH
  5
208
330
1F
100
AcDbEntity
  8
Capa 1
 62
   250
420
  1842203
100
AcDbHatch
 10
0.0
 20
0.0
 30
0.0
210
0.0
220
0.0
230
1.0
  2
SOLID
 70
     1
 71
     0
 91
        1
 92
        1
 93
        3
 72
     1
 10
84.86407061680482
 20
138.2695963195993
 11
84.4031168408784
 21
139.1915038714521
 72
     1
 10
84.4031168408784
 20
139.1915038714521
 11
85.32502439273125
 21
139.1915038714521
 72
     1
 10
85.32502439273125
 20
139.1915038714521
 11
84.86407061680482
 21
138.2695963195993
 97
        0
 75
     0
 76
     1
 98
        0
  0
POLYLINE
  5
209
330
1F
100
AcDbEntity
  8
Capa 1
 62
   250
420
  1842203
370
     9
100
AcDb2dPolyline
 66
     1
 10
0.0
 20
0.0
 30
0.0
  0
VERTEX
  5
20A
330
209
100
AcDbEntity
  8
Capa 1
 62
   250
420
  1842203
370
     9
100
AcDbVertex
100
AcDb2dVertex
 10
81.16248777267813
 20
133.7206922408754
 30
0.0
  0
VERTEX
  5
20B
330
209
100
AcDbEntity
  8
Capa 1
 62
   250
420
  1842203
370
     9
100
AcDbVertex
100
AcDb2dVertex
 10
81.91127927639718
 20
133.7206922408754
 30
0.0
  0
SEQEND
  5
20C
330
209
100
AcDbEntity
  8
Capa 1
370
     9
  0
POLYLINE
  5
20D
330
1F
100
AcDbEntity
  8
Capa 1
370
     0
100
AcDb2dPolyline
 66
     1
 10
0.0
 20
0.0
 30
0.0
  0
VERTEX
  5
20E
330
20D
100
AcDbEntity
  8
Capa 1
370
     0
100
AcDbVertex
100
AcDb2dVertex
 10
80.25298256457218
 20
133.7206922408754
 30
0.0
  0
VERTEX
  5
20F
330
20D
100
AcDbEntity
  8
Capa 1
370
     0
100
AcDbVertex
100
AcDb2dVertex
 10
81.17471786165076
 20
134.1816460168018
 30
0.0
  0
VERTEX
  5
210
330
20D
100
AcDbEntity
  8
Capa 1
370
     0
100
AcDbVertex
100
AcDb2dVertex
 10
81.17471786165076
 20
133.259738464949
 30
0.0
  0
VERTEX
  5
211
330
20D
100
AcDbEntity
  8
Capa 1
370
     0
100
AcDbVertex
100
AcDb2dVertex
 10
80.25298256457218
 20
133.7206922408754
 30
0.0
  0
VERTEX
  5
212
330
20D
100
AcDbEntity
  8
Capa 1
370
     0
100
AcDbVertex
100
AcDb2dVertex
 10
80.25298256457218
 20
133.7206922408754
 30
0.0
  0
SEQEND
  5
213
330
20D
100
AcDbEntity
  8
Capa 1
370
     0
  0
HATCH
  5
214
330
1F
100
AcDbEntity
  8
Capa 1
 62
   250
420
  1842203
100
AcDbHatch
 10
0.0
 20
0.0
 30
0.0
210
0.0
220
0.0
230
1.0
  2
SOLID
 70
     1
 71
     0
 91
        1
 92
        1
 93
        3
 72
     1
 10
80.25298256457218
 20
133.7206922408754
 11
81.17471786165076
 21
134.1816460168018
 72
     1
 10
81.17471786165076
 20
134.1816460168018
 11
81.17471786165076
 21
133.259738464949
 72
     1
 10
81.17471786165076
 20
133.259738464949
 11
80.25298256457218
 21
133.7206922408754
 97
        0
 75
     0
 76
     1
 98
        0
  0
POLYLINE
  5
215
330
1F
100
AcDbEntity
  8
Capa 1
 62
   250
420
  1842203
370
     9
100
AcDb2dPolyline
 66
     1
 10
0.0
 20
0.0
 30
0.0
  0
VERTEX
  5
216
330
215
100
AcDbEntity
  8
Capa 1
 62
   250
420
  1842203
370
     9
100
AcDbVertex
100
AcDb2dVertex
 10
73.60050318255473
 20
133.7124240117108
 30
0.0
  0
VERTEX
  5
217
330
215
100
AcDbEntity
  8
Capa 1
 62
   250
420
  1842203
370
     9
100
AcDbVertex
100
AcDb2dVertex
 10
72.85171167883568
 20
133.7124240117108
 30
0.0
  0
SEQEND
  5
218
330
215
100
AcDbEntity
  8
Capa 1
370
     9
  0
POLYLINE
  5
219
330
1F
100
AcDbEntity
  8
Capa 1
370
     0
100
AcDb2dPolyline
 66
     1
 10
0.0
 20
0.0
 30
0.0
  0
VERTEX
  5
21A
330
219
100
AcDbEntity
  8
Capa 1
370
     0
100
AcDbVertex
100
AcDb2dVertex
 10
74.5100083906607
 20
133.7124240117108
 30
0.0
  0
VERTEX
  5
21B
330
219
100
AcDbEntity
  8
Capa 1
370
     0
100
AcDbVertex
100
AcDb2dVertex
 10
73.5882730935821
 20
133.2514702357844
 30
0.0
  0
VERTEX
  5
21C
330
219
100
AcDbEntity
  8
Capa 1
370
     0
100
AcDbVertex
100
AcDb2dVertex
 10
73.5882730935821
 20
134.1733777876372
 30
0.0
  0
VERTEX
  5
21D
330
219
100
AcDbEntity
  8
Capa 1
370
     0
100
AcDbVertex
100
AcDb2dVertex
 10
74.5100083906607
 20
133.7124240117108
 30
0.0
  0
VERTEX
  5
21E
330
219
100
AcDbEntity
  8
Capa 1
370
     0
100
AcDbVertex
100
AcDb2dVertex
 10
74.5100083906607
 20
133.7124240117108
 30
0.0
  0
SEQEND
  5
21F
330
219
100
AcDbEntity
  8
Capa 1
370
     0
  0
HATCH
  5
220
330
1F
100
AcDbEntity
  8
Capa 1
 62
   250
420
  1842203
100
AcDbHatch
 10
0.0
 20
0.0
 30
0.0
210
0.0
220
0.0
230
1.0
  2
SOLID
 70
     1
 71
     0
 91
        1
 92
        1
 93
        3
 72
     1
 10
74.5100083906607
 20
133.7124240117108
 11
73.5882730935821
 21
133.2514702357844
 72
     1
 10
73.5882730935821
 20
133.2514702357844
 11
73.5882730935821
 21
134.1733777876372
 72
     1
 10
73.5882730935821
 20
134.1733777876372
 11
74.5100083906607
 21
133.7124240117108
 97
        0
 75
     0
 76
     1
 98
        0
  0
POLYLINE
  5
221
330
1F
100
AcDbEntity
  8
Capa 1
 62
   250
420
  1842203
370
     9
100
AcDb2dPolyline
 66
     1
 10
0.0
 20
0.0
 30
0.0
  0
VERTEX
  5
222
330
221
100
AcDbEntity
  8
Capa 1
 62
   250
420
  1842203
370
     9
100
AcDbVertex
100
AcDb2dVertex
 10
76.53382973347071
 20
133.7124240117108
 30
0.0
  0
VERTEX
  5
223
330
221
100
AcDbEntity
  8
Capa 1
 62
   250
420
  1842203
370
     9
100
AcDbVertex
100
AcDb2dVertex
 10
77.28227672764125
 20
133.7124240117108
 30
0.0
  0
SEQEND
  5
224
330
221
100
AcDbEntity
  8
Capa 1
370
     9
  0
POLYLINE
  5
225
330
1F
100
AcDbEntity
  8
Capa 1
370
     0
100
AcDb2dPolyline
 66
     1
 10
0.0
 20
0.0
 30
0.0
  0
VERTEX
  5
226
330
225
100
AcDbEntity
  8
Capa 1
370
     0
100
AcDbVertex
100
AcDb2dVertex
 10
75.6241522705905
 20
133.7124240117108
 30
0.0
  0
VERTEX
  5
227
330
225
100
AcDbEntity
  8
Capa 1
370
     0
100
AcDbVertex
100
AcDb2dVertex
 10
76.54588756766908
 20
134.1733777876372
 30
0.0
  0
VERTEX
  5
228
330
225
100
AcDbEntity
  8
Capa 1
370
     0
100
AcDbVertex
100
AcDb2dVertex
 10
76.54588756766908
 20
133.2514702357844
 30
0.0
  0
VERTEX
  5
229
330
225
100
AcDbEntity
  8
Capa 1
370
     0
100
AcDbVertex
100
AcDb2dVertex
 10
75.6241522705905
 20
133.7124240117108
 30
0.0
  0
VERTEX
  5
22A
330
225
100
AcDbEntity
  8
Capa 1
370
     0
100
AcDbVertex
100
AcDb2dVertex
 10
75.6241522705905
 20
133.7124240117108
 30
0.0
  0
SEQEND
  5
22B
330
225
100
AcDbEntity
  8
Capa 1
370
     0
  0
HATCH
  5
22C
330
1F
100
AcDbEntity
  8
Capa 1
 62
   250
420
  1842203
100
AcDbHatch
 10
0.0
 20
0.0
 30
0.0
210
0.0
220
0.0
230
1.0
  2
SOLID
 70
     1
 71
     0
 91
        1
 92
        1
 93
        3
 72
     1
 10
75.6241522705905
 20
133.7124240117108
 11
76.54588756766908
 21
134.1733777876372
 72
     1
 10
76.54588756766908
 20
134.1733777876372
 11
76.54588756766908
 21
133.2514702357844
 72
     1
 10
76.54588756766908
 20
133.2514702357844
 11
75.6241522705905
 21
133.7124240117108
 97
        0
 75
     0
 76
     1
 98
        0
  0
POLYLINE
  5
22D
330
1F
100
AcDbEntity
  8
Capa 1
 62
   250
420
  1842203
370
     9
100
AcDb2dPolyline
 66
     1
 10
0.0
 20
0.0
 30
0.0
  0
VERTEX
  5
22E
330
22D
100
AcDbEntity
  8
Capa 1
 62
   250
420
  1842203
370
     9
100
AcDbVertex
100
AcDb2dVertex
 10
99.12297632070538
 20
132.8511501403983
 30
0.0
  0
VERTEX
  5
22F
330
22D
100
AcDbEntity
  8
Capa 1
 62
   250
420
  1842203
370
     9
100
AcDbVertex
100
AcDb2dVertex
 10
95.37850203778733
 20
132.8511501403983
 30
0.0
  0
SEQEND
  5
230
330
22D
100
AcDbEntity
  8
Capa 1
370
     9
  0
POLYLINE
  5
231
330
1F
100
AcDbEntity
  8
Capa 1
370
     0
100
AcDb2dPolyline
 66
     1
 10
0.0
 20
0.0
 30
0.0
  0
VERTEX
  5
232
330
231
100
AcDbEntity
  8
Capa 1
370
     0
100
AcDbVertex
100
AcDb2dVertex
 10
94.46899682968137
 20
132.8511501403983
 30
0.0
  0
VERTEX
  5
233
330
231
100
AcDbEntity
  8
Capa 1
370
     0
100
AcDbVertex
100
AcDb2dVertex
 10
95.3905598719857
 20
132.3901963644719
 30
0.0
  0
VERTEX
  5
234
330
231
100
AcDbEntity
  8
Capa 1
370
     0
100
AcDbVertex
100
AcDb2dVertex
 10
95.3905598719857
 20
133.3121039163248
 30
0.0
  0
VERTEX
  5
235
330
231
100
AcDbEntity
  8
Capa 1
370
     0
100
AcDbVertex
100
AcDb2dVertex
 10
94.46899682968137
 20
132.8511501403983
 30
0.0
  0
VERTEX
  5
236
330
231
100
AcDbEntity
  8
Capa 1
370
     0
100
AcDbVertex
100
AcDb2dVertex
 10
94.46899682968137
 20
132.8511501403983
 30
0.0
  0
SEQEND
  5
237
330
231
100
AcDbEntity
  8
Capa 1
370
     0
  0
HATCH
  5
238
330
1F
100
AcDbEntity
  8
Capa 1
 62
   250
420
  1842203
100
AcDbHatch
 10
0.0
 20
0.0
 30
0.0
210
0.0
220
0.0
230
1.0
  2
SOLID
 70
     1
 71
     0
 91
        1
 92
        1
 93
        3
 72
     1
 10
94.46899682968137
 20
132.8511501403983
 11
95.3905598719857
 21
132.3901963644719
 72
     1
 10
95.3905598719857
 20
132.3901963644719
 11
95.3905598719857
 21
133.3121039163248
 72
     1
 10
95.3905598719857
 20
133.3121039163248
 11
94.46899682968137
 21
132.8511501403983
 97
        0
 75
     0
 76
     1
 98
        0
  0
POLYLINE
  5
239
330
1F
100
AcDbEntity
  8
Capa 1
 62
   250
420
  1842203
370
     9
100
AcDb2dPolyline
 66
     1
 10
0.0
 20
0.0
 30
0.0
  0
VERTEX
  5
23A
330
239
100
AcDbEntity
  8
Capa 1
 62
   250
420
  1842203
370
     9
100
AcDbVertex
100
AcDb2dVertex
 10
118.2249972577701
 20
132.847016025816
 30
0.0
  0
VERTEX
  5
23B
330
239
100
AcDbEntity
  8
Capa 1
 62
   250
420
  1842203
370
     9
100
AcDbVertex
100
AcDb2dVertex
 10
110.6034125157519
 20
132.847016025816
 30
0.0
  0
SEQEND
  5
23C
330
239
100
AcDbEntity
  8
Capa 1
370
     9
  0
POLYLINE
  5
23D
330
1F
100
AcDbEntity
  8
Capa 1
370
     0
100
AcDb2dPolyline
 66
     1
 10
0.0
 20
0.0
 30
0.0
  0
VERTEX
  5
23E
330
23D
100
AcDbEntity
  8
Capa 1
370
     0
100
AcDbVertex
100
AcDb2dVertex
 10
109.693907307646
 20
132.847016025816
 30
0.0
  0
VERTEX
  5
23F
330
23D
100
AcDbEntity
  8
Capa 1
370
     0
100
AcDbVertex
100
AcDb2dVertex
 10
110.6154703499503
 20
132.3860622498896
 30
0.0
  0
VERTEX
  5
240
330
23D
100
AcDbEntity
  8
Capa 1
370
     0
100
AcDbVertex
100
AcDb2dVertex
 10
110.6154703499503
 20
133.3079698017424
 30
0.0
  0
VERTEX
  5
241
330
23D
100
AcDbEntity
  8
Capa 1
370
     0
100
AcDbVertex
100
AcDb2dVertex
 10
109.693907307646
 20
132.847016025816
 30
0.0
  0
VERTEX
  5
242
330
23D
100
AcDbEntity
  8
Capa 1
370
     0
100
AcDbVertex
100
AcDb2dVertex
 10
109.693907307646
 20
132.847016025816
 30
0.0
  0
SEQEND
  5
243
330
23D
100
AcDbEntity
  8
Capa 1
370
     0
  0
HATCH
  5
244
330
1F
100
AcDbEntity
  8
Capa 1
 62
   250
420
  1842203
100
AcDbHatch
 10
0.0
 20
0.0
 30
0.0
210
0.0
220
0.0
230
1.0
  2
SOLID
 70
     1
 71
     0
 91
        1
 92
        1
 93
        3
 72
     1
 10
109.693907307646
 20
132.847016025816
 11
110.6154703499503
 21
132.3860622498896
 72
     1
 10
110.6154703499503
 20
132.3860622498896
 11
110.6154703499503
 21
133.3079698017424
 72
     1
 10
110.6154703499503
 20
133.3079698017424
 11
109.693907307646
 21
132.847016025816
 97
        0
 75
     0
 76
     1
 98
        0
  0
POLYLINE
  5
245
330
1F
100
AcDbEntity
  8
Capa 1
 62
   250
420
  1842203
370
     9
100
AcDb2dPolyline
 66
     1
 10
0.0
 20
0.0
 30
0.0
  0
VERTEX
  5
246
330
245
100
AcDbEntity
  8
Capa 1
 62
   250
420
  1842203
370
     9
100
AcDbVertex
100
AcDb2dVertex
 10
136.3176052176567
 20
164.1272772484647
 30
0.0
  0
VERTEX
  5
247
330
245
100
AcDbEntity
  8
Capa 1
 62
   250
420
  1842203
370
     9
100
AcDbVertex
100
AcDb2dVertex
 10
136.3176052176567
 20
155.3755289325103
 30
0.0
  0
VERTEX
  5
248
330
245
100
AcDbEntity
  8
Capa 1
 62
   250
420
  1842203
370
     9
100
AcDbVertex
100
AcDb2dVertex
 10
136.3176052176567
 20
155.4129082185252
 30
0.0
  0
VERTEX
  5
249
330
245
100
AcDbEntity
  8
Capa 1
 62
   250
420
  1842203
370
     9
100
AcDbVertex
100
AcDb2dVertex
 10
136.3176052176567
 20
153.6174967063873
 30
0.0
  0
SEQEND
  5
24A
330
245
100
AcDbEntity
  8
Capa 1
370
     9
  0
POLYLINE
  5
24B
330
1F
100
AcDbEntity
  8
Capa 1
370
     0
100
AcDb2dPolyline
 66
     1
 10
0.0
 20
0.0
 30
0.0
  0
VERTEX
  5
24C
330
24B
100
AcDbEntity
  8
Capa 1
370
     0
100
AcDbVertex
100
AcDb2dVertex
 10
136.3176052176567
 20
165.0367824565707
 30
0.0
  0
VERTEX
  5
24D
330
24B
100
AcDbEntity
  8
Capa 1
370
     0
100
AcDbVertex
100
AcDb2dVertex
 10
136.7785589935831
 20
164.1150471594921
 30
0.0
  0
VERTEX
  5
24E
330
24B
100
AcDbEntity
  8
Capa 1
370
     0
100
AcDbVertex
100
AcDb2dVertex
 10
135.8566514417303
 20
164.1150471594921
 30
0.0
  0
VERTEX
  5
24F
330
24B
100
AcDbEntity
  8
Capa 1
370
     0
100
AcDbVertex
100
AcDb2dVertex
 10
136.3176052176567
 20
165.0367824565707
 30
0.0
  0
VERTEX
  5
250
330
24B
100
AcDbEntity
  8
Capa 1
370
     0
100
AcDbVertex
100
AcDb2dVertex
 10
136.3176052176567
 20
165.0367824565707
 30
0.0
  0
SEQEND
  5
251
330
24B
100
AcDbEntity
  8
Capa 1
370
     0
  0
HATCH
  5
252
330
1F
100
AcDbEntity
  8
Capa 1
 62
   250
420
  1842203
100
AcDbHatch
 10
0.0
 20
0.0
 30
0.0
210
0.0
220
0.0
230
1.0
  2
SOLID
 70
     1
 71
     0
 91
        1
 92
        1
 93
        3
 72
     1
 10
136.3176052176567
 20
165.0367824565707
 11
136.7785589935831
 21
164.1150471594921
 72
     1
 10
136.7785589935831
 20
164.1150471594921
 11
135.8566514417303
 21
164.1150471594921
 72
     1
 10
135.8566514417303
 20
164.1150471594921
 11
136.3176052176567
 21
165.0367824565707
 97
        0
 75
     0
 76
     1
 98
        0
  0
POLYLINE
  5
253
330
1F
100
AcDbEntity
  8
Capa 1
 62
   250
420
  1842203
370
     9
100
AcDb2dPolyline
 66
     1
 10
0.0
 20
0.0
 30
0.0
  0
VERTEX
  5
254
330
253
100
AcDbEntity
  8
Capa 1
 62
   250
420
  1842203
370
     9
100
AcDbVertex
100
AcDb2dVertex
 10
133.8323133345975
 20
148.1675279034963
 30
0.0
  0
VERTEX
  5
255
330
253
100
AcDbEntity
  8
Capa 1
 62
   250
420
  1842203
370
     9
100
AcDbVertex
100
AcDb2dVertex
 10
133.8323133345975
 20
156.5983655749997
 30
0.0
  0
SEQEND
  5
256
330
253
100
AcDbEntity
  8
Capa 1
370
     9
  0
POLYLINE
  5
257
330
1F
100
AcDbEntity
  8
Capa 1
370
     0
100
AcDb2dPolyline
 66
     1
 10
0.0
 20
0.0
 30
0.0
  0
VERTEX
  5
258
330
257
100
AcDbEntity
  8
Capa 1
370
     0
100
AcDbVertex
100
AcDb2dVertex
 10
133.8323133345975
 20
157.5078707831057
 30
0.0
  0
VERTEX
  5
259
330
257
100
AcDbEntity
  8
Capa 1
370
     0
100
AcDbVertex
100
AcDb2dVertex
 10
133.3717040682196
 20
156.5861354860271
 30
0.0
  0
VERTEX
  5
25A
330
257
100
AcDbEntity
  8
Capa 1
370
     0
100
AcDbVertex
100
AcDb2dVertex
 10
134.2932671105239
 20
156.5861354860271
 30
0.0
  0
VERTEX
  5
25B
330
257
100
AcDbEntity
  8
Capa 1
370
     0
100
AcDbVertex
100
AcDb2dVertex
 10
133.8323133345975
 20
157.5078707831057
 30
0.0
  0
VERTEX
  5
25C
330
257
100
AcDbEntity
  8
Capa 1
370
     0
100
AcDbVertex
100
AcDb2dVertex
 10
133.8323133345975
 20
157.5078707831057
 30
0.0
  0
SEQEND
  5
25D
330
257
100
AcDbEntity
  8
Capa 1
370
     0
  0
HATCH
  5
25E
330
1F
100
AcDbEntity
  8
Capa 1
 62
   250
420
  1842203
100
AcDbHatch
 10
0.0
 20
0.0
 30
0.0
210
0.0
220
0.0
230
1.0
  2
SOLID
 70
     1
 71
     0
 91
        1
 92
        1
 93
        3
 72
     1
 10
133.8323133345975
 20
157.5078707831057
 11
133.3717040682196
 21
156.5861354860271
 72
     1
 10
133.3717040682196
 20
156.5861354860271
 11
134.2932671105239
 21
156.5861354860271
 72
     1
 10
134.2932671105239
 20
156.5861354860271
 11
133.8323133345975
 21
157.5078707831057
 97
        0
 75
     0
 76
     1
 98
        0
  0
POLYLINE
  5
25F
330
1F
100
AcDbEntity
  8
Capa 1
 62
   250
420
  1842203
370
     9
100
AcDb2dPolyline
 66
     1
 10
0.0
 20
0.0
 30
0.0
  0
VERTEX
  5
260
330
25F
100
AcDbEntity
  8
Capa 1
 62
   250
420
  1842203
370
     9
100
AcDbVertex
100
AcDb2dVertex
 10
130.4512966253733
 20
134.446918369166
 30
0.0
  0
VERTEX
  5
261
330
25F
100
AcDbEntity
  8
Capa 1
 62
   250
420
  1842203
370
     9
100
AcDbVertex
100
AcDb2dVertex
 10
130.4512966253733
 20
135.7781032646666
 30
0.0
  0
SEQEND
  5
262
330
25F
100
AcDbEntity
  8
Capa 1
370
     9
  0
POLYLINE
  5
263
330
1F
100
AcDbEntity
  8
Capa 1
370
     0
100
AcDb2dPolyline
 66
     1
 10
0.0
 20
0.0
 30
0.0
  0
VERTEX
  5
264
330
263
100
AcDbEntity
  8
Capa 1
370
     0
100
AcDbVertex
100
AcDb2dVertex
 10
130.4512966253733
 20
136.6876084727726
 30
0.0
  0
VERTEX
  5
265
330
263
100
AcDbEntity
  8
Capa 1
370
     0
100
AcDbVertex
100
AcDb2dVertex
 10
129.9906873589954
 20
135.7657009209197
 30
0.0
  0
VERTEX
  5
266
330
263
100
AcDbEntity
  8
Capa 1
370
     0
100
AcDbVertex
100
AcDb2dVertex
 10
130.9122504012997
 20
135.7657009209197
 30
0.0
  0
VERTEX
  5
267
330
263
100
AcDbEntity
  8
Capa 1
370
     0
100
AcDbVertex
100
AcDb2dVertex
 10
130.4512966253733
 20
136.6876084727726
 30
0.0
  0
VERTEX
  5
268
330
263
100
AcDbEntity
  8
Capa 1
370
     0
100
AcDbVertex
100
AcDb2dVertex
 10
130.4512966253733
 20
136.6876084727726
 30
0.0
  0
SEQEND
  5
269
330
263
100
AcDbEntity
  8
Capa 1
370
     0
  0
HATCH
  5
26A
330
1F
100
AcDbEntity
  8
Capa 1
 62
   250
420
  1842203
100
AcDbHatch
 10
0.0
 20
0.0
 30
0.0
210
0.0
220
0.0
230
1.0
  2
SOLID
 70
     1
 71
     0
 91
        1
 92
        1
 93
        3
 72
     1
 10
130.4512966253733
 20
136.6876084727726
 11
129.9906873589954
 21
135.7657009209197
 72
     1
 10
129.9906873589954
 20
135.7657009209197
 11
130.9122504012997
 21
135.7657009209197
 72
     1
 10
130.9122504012997
 20
135.7657009209197
 11
130.4512966253733
 21
136.6876084727726
 97
        0
 75
     0
 76
     1
 98
        0
  0
SPLINE
  5
26B
330
1F
100
AcDbEntity
  8
Capa 1
 62
   250
420
  1842203
370
    13
100
AcDbSpline
210
0.0
220
0.0
230
1.0
 70
    11
 71
     3
 72
    20
 73
    16
 74
     0
 42
0.0000000001
 43
0.0000000001
 40
0.0
 40
0.0
 40
0.0
 40
0.0
 40
1.0
 40
1.0
 40
1.0
 40
2.0
 40
2.0
 40
2.0
 40
3.0
 40
3.0
 40
3.0
 40
4.0
 40
4.0
 40
4.0
 40
5.0
 40
5.0
 40
5.0
 40
5.0
 10
74.5306789635722
 20
153.4212985185023
 30
0.0
 10
74.76907957115148
 20
153.4212985185023
 30
0.0
 10
74.962349427874
 20
153.6147406299991
 30
0.0
 10
74.962349427874
 20
153.8531412375784
 30
0.0
 10
74.962349427874
 20
154.0915418451577
 30
0.0
 10
74.76907957115148
 20
154.2848117018802
 30
0.0
 10
74.5306789635722
 20
154.2848117018802
 30
0.0
 10
74.2922783559929
 20
154.2848117018802
 30
0.0
 10
74.0990084992704
 20
154.0915418451577
 30
0.0
 10
74.0990084992704
 20
153.8531412375784
 30
0.0
 10
74.0990084992704
 20
153.6147406299991
 30
0.0
 10
74.2922783559929
 20
153.4212985185023
 30
0.0
 10
74.5306789635722
 20
153.4212985185023
 30
0.0
 10
74.5306789635722
 20
153.4212985185023
 30
0.0
 10
74.5306789635722
 20
153.4212985185023
 30
0.0
 10
74.5306789635722
 20
153.4212985185023
 30
0.0
  0
SPLINE
  5
26C
330
1F
100
AcDbEntity
  8
Capa 1
 62
   250
420
  1842203
370
    13
100
AcDbSpline
210
0.0
220
0.0
230
1.0
 70
    11
 71
     3
 72
    20
 73
    16
 74
     0
 42
0.0000000001
 43
0.0000000001
 40
0.0
 40
0.0
 40
0.0
 40
0.0
 40
1.0
 40
1.0
 40
1.0
 40
2.0
 40
2.0
 40
2.0
 40
3.0
 40
3.0
 40
3.0
 40
4.0
 40
4.0
 40
4.0
 40
5.0
 40
5.0
 40
5.0
 40
5.0
 10
73.47630749031148
 20
153.4212985185023
 30
0.0
 10
73.71470809789076
 20
153.4212985185023
 30
0.0
 10
73.90797795461329
 20
153.6147406299991
 30
0.0
 10
73.90797795461329
 20
153.8531412375784
 30
0.0
 10
73.90797795461329
 20
154.0915418451577
 30
0.0
 10
73.71470809789076
 20
154.2848117018802
 30
0.0
 10
73.47630749031148
 20
154.2848117018802
 30
0.0
 10
73.23790688273219
 20
154.2848117018802
 30
0.0
 10
73.04463702600968
 20
154.0915418451577
 30
0.0
 10
73.04463702600968
 20
153.8531412375784
 30
0.0
 10
73.04463702600968
 20
153.6147406299991
 30
0.0
 10
73.23790688273219
 20
153.4212985185023
 30
0.0
 10
73.47630749031148
 20
153.4212985185023
 30
0.0
 10
73.47630749031148
 20
153.4212985185023
 30
0.0
 10
73.47630749031148
 20
153.4212985185023
 30
0.0
 10
73.47630749031148
 20
153.4212985185023
 30
0.0
  0
SPLINE
  5
26D
330
1F
100
AcDbEntity
  8
Capa 1
 62
   250
420
  1842203
370
    13
100
AcDbSpline
210
0.0
220
0.0
230
1.0
 70
    11
 71
     3
 72
    20
 73
    16
 74
     0
 42
0.0000000001
 43
0.0000000001
 40
0.0
 40
0.0
 40
0.0
 40
0.0
 40
1.0
 40
1.0
 40
1.0
 40
2.0
 40
2.0
 40
2.0
 40
3.0
 40
3.0
 40
3.0
 40
4.0
 40
4.0
 40
4.0
 40
5.0
 40
5.0
 40
5.0
 40
5.0
 10
75.5850504368329
 20
153.4212985185023
 30
0.0
 10
75.8234510444122
 20
153.4212985185023
 30
0.0
 10
76.01672090113472
 20
153.6147406299991
 30
0.0
 10
76.01672090113472
 20
153.8531412375784
 30
0.0
 10
76.01672090113472
 20
154.0915418451577
 30
0.0
 10
75.8234510444122
 20
154.2848117018802
 30
0.0
 10
75.5850504368329
 20
154.2848117018802
 30
0.0
 10
75.34664982925362
 20
154.2848117018802
 30
0.0
 10
75.1533799725311
 20
154.0915418451577
 30
0.0
 10
75.1533799725311
 20
153.8531412375784
 30
0.0
 10
75.1533799725311
 20
153.6147406299991
 30
0.0
 10
75.34664982925362
 20
153.4212985185023
 30
0.0
 10
75.5850504368329
 20
153.4212985185023
 30
0.0
 10
75.5850504368329
 20
153.4212985185023
 30
0.0
 10
75.5850504368329
 20
153.4212985185023
 30
0.0
 10
75.5850504368329
 20
153.4212985185023
 30
0.0
  0
SPLINE
  5
26E
330
1F
100
AcDbEntity
  8
Capa 1
 62
   250
420
  1842203
370
    13
100
AcDbSpline
210
0.0
220
0.0
230
1.0
 70
    11
 71
     3
 72
    20
 73
    16
 74
     0
 42
0.0000000001
 43
0.0000000001
 40
0.0
 40
0.0
 40
0.0
 40
0.0
 40
1.0
 40
1.0
 40
1.0
 40
2.0
 40
2.0
 40
2.0
 40
3.0
 40
3.0
 40
3.0
 40
4.0
 40
4.0
 40
4.0
 40
5.0
 40
5.0
 40
5.0
 40
5.0
 10
76.63942191009362
 20
153.4212985185023
 30
0.0
 10
76.87782251767291
 20
153.4212985185023
 30
0.0
 10
77.07109237439542
 20
153.6147406299991
 30
0.0
 10
77.07109237439542
 20
153.8531412375784
 30
0.0
 10
77.07109237439542
 20
154.0915418451577
 30
0.0
 10
76.87782251767291
 20
154.2848117018802
 30
0.0
 10
76.63942191009362
 20
154.2848117018802
 30
0.0
 10
76.40102130251434
 20
154.2848117018802
 30
0.0
 10
76.20775144579181
 20
154.0915418451577
 30
0.0
 10
76.20775144579181
 20
153.8531412375784
 30
0.0
 10
76.20775144579181
 20
153.6147406299991
 30
0.0
 10
76.40102130251434
 20
153.4212985185023
 30
0.0
 10
76.63942191009362
 20
153.4212985185023
 30
0.0
 10
76.63942191009362
 20
153.4212985185023
 30
0.0
 10
76.63942191009362
 20
153.4212985185023
 30
0.0
 10
76.63942191009362
 20
153.4212985185023
 30
0.0
  0
SPLINE
  5
26F
330
1F
100
AcDbEntity
  8
Capa 1
 62
   250
420
  1842203
370
    13
100
AcDbSpline
210
0.0
220
0.0
230
1.0
 70
    11
 71
     3
 72
    20
 73
    16
 74
     0
 42
0.0000000001
 43
0.0000000001
 40
0.0
 40
0.0
 40
0.0
 40
0.0
 40
1.0
 40
1.0
 40
1.0
 40
2.0
 40
2.0
 40
2.0
 40
3.0
 40
3.0
 40
3.0
 40
4.0
 40
4.0
 40
4.0
 40
5.0
 40
5.0
 40
5.0
 40
5.0
 10
77.69379338335433
 20
153.4212985185023
 30
0.0
 10
77.93219399093363
 20
153.4212985185023
 30
0.0
 10
78.12546384765614
 20
153.6147406299991
 30
0.0
 10
78.12546384765614
 20
153.8531412375784
 30
0.0
 10
78.12546384765614
 20
154.0915418451577
 30
0.0
 10
77.93219399093363
 20
154.2848117018802
 30
0.0
 10
77.69379338335433
 20
154.2848117018802
 30
0.0
 10
77.45539277577504
 20
154.2848117018802
 30
0.0
 10
77.26212291905253
 20
154.0915418451577
 30
0.0
 10
77.26212291905253
 20
153.8531412375784
 30
0.0
 10
77.26212291905253
 20
153.6147406299991
 30
0.0
 10
77.45539277577504
 20
153.4212985185023
 30
0.0
 10
77.69379338335433
 20
153.4212985185023
 30
0.0
 10
77.69379338335433
 20
153.4212985185023
 30
0.0
 10
77.69379338335433
 20
153.4212985185023
 30
0.0
 10
77.69379338335433
 20
153.4212985185023
 30
0.0
  0
SPLINE
  5
270
330
1F
100
AcDbEntity
  8
Capa 1
 62
   250
420
  1842203
370
    13
100
AcDbSpline
210
0.0
220
0.0
230
1.0
 70
    11
 71
     3
 72
    20
 73
    16
 74
     0
 42
0.0000000001
 43
0.0000000001
 40
0.0
 40
0.0
 40
0.0
 40
0.0
 40
1.0
 40
1.0
 40
1.0
 40
2.0
 40
2.0
 40
2.0
 40
3.0
 40
3.0
 40
3.0
 40
4.0
 40
4.0
 40
4.0
 40
5.0
 40
5.0
 40
5.0
 40
5.0
 10
78.7483371113893
 20
153.4212985185023
 30
0.0
 10
78.98656546419433
 20
153.4212985185023
 30
0.0
 10
79.1800075756911
 20
153.6147406299991
 30
0.0
 10
79.1800075756911
 20
153.8531412375784
 30
0.0
 10
79.1800075756911
 20
154.0915418451577
 30
0.0
 10
78.98656546419433
 20
154.2848117018802
 30
0.0
 10
78.7483371113893
 20
154.2848117018802
 30
0.0
 10
78.50993650381002
 20
154.2848117018802
 30
0.0
 10
78.31649439231325
 20
154.0915418451577
 30
0.0
 10
78.31649439231325
 20
153.8531412375784
 30
0.0
 10
78.31649439231325
 20
153.6147406299991
 30
0.0
 10
78.50993650381002
 20
153.4212985185023
 30
0.0
 10
78.7483371113893
 20
153.4212985185023
 30
0.0
 10
78.7483371113893
 20
153.4212985185023
 30
0.0
 10
78.7483371113893
 20
153.4212985185023
 30
0.0
 10
78.7483371113893
 20
153.4212985185023
 30
0.0
  0
SPLINE
  5
271
330
1F
100
AcDbEntity
  8
Capa 1
 62
   250
420
  1842203
370
    13
100
AcDbSpline
210
0.0
220
0.0
230
1.0
 70
    11
 71
     3
 72
    20
 73
    16
 74
     0
 42
0.0000000001
 43
0.0000000001
 40
0.0
 40
0.0
 40
0.0
 40
0.0
 40
1.0
 40
1.0
 40
1.0
 40
2.0
 40
2.0
 40
2.0
 40
3.0
 40
3.0
 40
3.0
 40
4.0
 40
4.0
 40
4.0
 40
5.0
 40
5.0
 40
5.0
 40
5.0
 10
79.80270858465002
 20
153.4212985185023
 30
0.0
 10
80.04110919222931
 20
153.4212985185023
 30
0.0
 10
80.23437904895182
 20
153.6147406299991
 30
0.0
 10
80.23437904895182
 20
153.8531412375784
 30
0.0
 10
80.23437904895182
 20
154.0915418451577
 30
0.0
 10
80.04110919222931
 20
154.2848117018802
 30
0.0
 10
79.80270858465002
 20
154.2848117018802
 30
0.0
 10
79.56430797707073
 20
154.2848117018802
 30
0.0
 10
79.37086586557395
 20
154.0915418451577
 30
0.0
 10
79.37086586557395
 20
153.8531412375784
 30
0.0
 10
79.37086586557395
 20
153.6147406299991
 30
0.0
 10
79.56430797707073
 20
153.4212985185023
 30
0.0
 10
79.80270858465002
 20
153.4212985185023
 30
0.0
 10
79.80270858465002
 20
153.4212985185023
 30
0.0
 10
79.80270858465002
 20
153.4212985185023
 30
0.0
 10
79.80270858465002
 20
153.4212985185023
 30
0.0
  0
SPLINE
  5
272
330
1F
100
AcDbEntity
  8
Capa 1
 62
   250
420
  1842203
370
    13
100
AcDbSpline
210
0.0
220
0.0
230
1.0
 70
    11
 71
     3
 72
    20
 73
    16
 74
     0
 42
0.0000000001
 43
0.0000000001
 40
0.0
 40
0.0
 40
0.0
 40
0.0
 40
1.0
 40
1.0
 40
1.0
 40
2.0
 40
2.0
 40
2.0
 40
3.0
 40
3.0
 40
3.0
 40
4.0
 40
4.0
 40
4.0
 40
5.0
 40
5.0
 40
5.0
 40
5.0
 10
80.85708005791074
 20
153.4212985185023
 30
0.0
 10
81.09548066549002
 20
153.4212985185023
 30
0.0
 10
81.28875052221254
 20
153.6147406299991
 30
0.0
 10
81.28875052221254
 20
153.8531412375784
 30
0.0
 10
81.28875052221254
 20
154.0915418451577
 30
0.0
 10
81.09548066549002
 20
154.2848117018802
 30
0.0
 10
80.85708005791074
 20
154.2848117018802
 30
0.0
 10
80.61867945033144
 20
154.2848117018802
 30
0.0
 10
80.42540959360893
 20
154.0915418451577
 30
0.0
 10
80.42540959360893
 20
153.8531412375784
 30
0.0
 10
80.42540959360893
 20
153.6147406299991
 30
0.0
 10
80.61867945033144
 20
153.4212985185023
 30
0.0
 10
80.85708005791074
 20
153.4212985185023
 30
0.0
 10
80.85708005791074
 20
153.4212985185023
 30
0.0
 10
80.85708005791074
 20
153.4212985185023
 30
0.0
 10
80.85708005791074
 20
153.4212985185023
 30
0.0
  0
SPLINE
  5
273
330
1F
100
AcDbEntity
  8
Capa 1
 62
   250
420
  1842203
370
    13
100
AcDbSpline
210
0.0
220
0.0
230
1.0
 70
    11
 71
     3
 72
    20
 73
    16
 74
     0
 42
0.0000000001
 43
0.0000000001
 40
0.0
 40
0.0
 40
0.0
 40
0.0
 40
1.0
 40
1.0
 40
1.0
 40
2.0
 40
2.0
 40
2.0
 40
3.0
 40
3.0
 40
3.0
 40
4.0
 40
4.0
 40
4.0
 40
5.0
 40
5.0
 40
5.0
 40
5.0
 10
74.5306789635722
 20
137.8320691929725
 30
0.0
 10
74.76907957115148
 20
137.8320691929725
 30
0.0
 10
74.962349427874
 20
138.0256835592436
 30
0.0
 10
74.962349427874
 20
138.2640841668229
 30
0.0
 10
74.962349427874
 20
138.5024847744022
 30
0.0
 10
74.76907957115148
 20
138.6954101215761
 30
0.0
 10
74.5306789635722
 20
138.6954101215761
 30
0.0
 10
74.2922783559929
 20
138.6954101215761
 30
0.0
 10
74.0990084992704
 20
138.5024847744022
 30
0.0
 10
74.0990084992704
 20
138.2640841668229
 30
0.0
 10
74.0990084992704
 20
138.0256835592436
 30
0.0
 10
74.2922783559929
 20
137.8320691929725
 30
0.0
 10
74.5306789635722
 20
137.8320691929725
 30
0.0
 10
74.5306789635722
 20
137.8320691929725
 30
0.0
 10
74.5306789635722
 20
137.8320691929725
 30
0.0
 10
74.5306789635722
 20
137.8320691929725
 30
0.0
  0
SPLINE
  5
274
330
1F
100
AcDbEntity
  8
Capa 1
 62
   250
420
  1842203
370
    13
100
AcDbSpline
210
0.0
220
0.0
230
1.0
 70
    11
 71
     3
 72
    20
 73
    16
 74
     0
 42
0.0000000001
 43
0.0000000001
 40
0.0
 40
0.0
 40
0.0
 40
0.0
 40
1.0
 40
1.0
 40
1.0
 40
2.0
 40
2.0
 40
2.0
 40
3.0
 40
3.0
 40
3.0
 40
4.0
 40
4.0
 40
4.0
 40
5.0
 40
5.0
 40
5.0
 40
5.0
 10
73.47630749031148
 20
137.8320691929725
 30
0.0
 10
73.71470809789076
 20
137.8320691929725
 30
0.0
 10
73.90797795461329
 20
138.0256835592436
 30
0.0
 10
73.90797795461329
 20
138.2640841668229
 30
0.0
 10
73.90797795461329
 20
138.5024847744022
 30
0.0
 10
73.71470809789076
 20
138.6954101215761
 30
0.0
 10
73.47630749031148
 20
138.6954101215761
 30
0.0
 10
73.23790688273219
 20
138.6954101215761
 30
0.0
 10
73.04463702600968
 20
138.5024847744022
 30
0.0
 10
73.04463702600968
 20
138.2640841668229
 30
0.0
 10
73.04463702600968
 20
138.0256835592436
 30
0.0
 10
73.23790688273219
 20
137.8320691929725
 30
0.0
 10
73.47630749031148
 20
137.8320691929725
 30
0.0
 10
73.47630749031148
 20
137.8320691929725
 30
0.0
 10
73.47630749031148
 20
137.8320691929725
 30
0.0
 10
73.47630749031148
 20
137.8320691929725
 30
0.0
  0
SPLINE
  5
275
330
1F
100
AcDbEntity
  8
Capa 1
 62
   250
420
  1842203
370
    13
100
AcDbSpline
210
0.0
220
0.0
230
1.0
 70
    11
 71
     3
 72
    20
 73
    16
 74
     0
 42
0.0000000001
 43
0.0000000001
 40
0.0
 40
0.0
 40
0.0
 40
0.0
 40
1.0
 40
1.0
 40
1.0
 40
2.0
 40
2.0
 40
2.0
 40
3.0
 40
3.0
 40
3.0
 40
4.0
 40
4.0
 40
4.0
 40
5.0
 40
5.0
 40
5.0
 40
5.0
 10
75.5850504368329
 20
137.8320691929725
 30
0.0
 10
75.8234510444122
 20
137.8320691929725
 30
0.0
 10
76.01672090113472
 20
138.0256835592436
 30
0.0
 10
76.01672090113472
 20
138.2640841668229
 30
0.0
 10
76.01672090113472
 20
138.5024847744022
 30
0.0
 10
75.8234510444122
 20
138.6954101215761
 30
0.0
 10
75.5850504368329
 20
138.6954101215761
 30
0.0
 10
75.34664982925362
 20
138.6954101215761
 30
0.0
 10
75.1533799725311
 20
138.5024847744022
 30
0.0
 10
75.1533799725311
 20
138.2640841668229
 30
0.0
 10
75.1533799725311
 20
138.0256835592436
 30
0.0
 10
75.34664982925362
 20
137.8320691929725
 30
0.0
 10
75.5850504368329
 20
137.8320691929725
 30
0.0
 10
75.5850504368329
 20
137.8320691929725
 30
0.0
 10
75.5850504368329
 20
137.8320691929725
 30
0.0
 10
75.5850504368329
 20
137.8320691929725
 30
0.0
  0
SPLINE
  5
276
330
1F
100
AcDbEntity
  8
Capa 1
 62
   250
420
  1842203
370
    13
100
AcDbSpline
210
0.0
220
0.0
230
1.0
 70
    11
 71
     3
 72
    20
 73
    16
 74
     0
 42
0.0000000001
 43
0.0000000001
 40
0.0
 40
0.0
 40
0.0
 40
0.0
 40
1.0
 40
1.0
 40
1.0
 40
2.0
 40
2.0
 40
2.0
 40
3.0
 40
3.0
 40
3.0
 40
4.0
 40
4.0
 40
4.0
 40
5.0
 40
5.0
 40
5.0
 40
5.0
 10
76.63942191009362
 20
137.8320691929725
 30
0.0
 10
76.87782251767291
 20
137.8320691929725
 30
0.0
 10
77.07109237439542
 20
138.0256835592436
 30
0.0
 10
77.07109237439542
 20
138.2640841668229
 30
0.0
 10
77.07109237439542
 20
138.5024847744022
 30
0.0
 10
76.87782251767291
 20
138.6954101215761
 30
0.0
 10
76.63942191009362
 20
138.6954101215761
 30
0.0
 10
76.40102130251434
 20
138.6954101215761
 30
0.0
 10
76.20775144579181
 20
138.5024847744022
 30
0.0
 10
76.20775144579181
 20
138.2640841668229
 30
0.0
 10
76.20775144579181
 20
138.0256835592436
 30
0.0
 10
76.40102130251434
 20
137.8320691929725
 30
0.0
 10
76.63942191009362
 20
137.8320691929725
 30
0.0
 10
76.63942191009362
 20
137.8320691929725
 30
0.0
 10
76.63942191009362
 20
137.8320691929725
 30
0.0
 10
76.63942191009362
 20
137.8320691929725
 30
0.0
  0
SPLINE
  5
277
330
1F
100
AcDbEntity
  8
Capa 1
 62
   250
420
  1842203
370
    13
100
AcDbSpline
210
0.0
220
0.0
230
1.0
 70
    11
 71
     3
 72
    20
 73
    16
 74
     0
 42
0.0000000001
 43
0.0000000001
 40
0.0
 40
0.0
 40
0.0
 40
0.0
 40
1.0
 40
1.0
 40
1.0
 40
2.0
 40
2.0
 40
2.0
 40
3.0
 40
3.0
 40
3.0
 40
4.0
 40
4.0
 40
4.0
 40
5.0
 40
5.0
 40
5.0
 40
5.0
 10
77.69379338335433
 20
137.8320691929725
 30
0.0
 10
77.93219399093363
 20
137.8320691929725
 30
0.0
 10
78.12546384765614
 20
138.0256835592436
 30
0.0
 10
78.12546384765614
 20
138.2640841668229
 30
0.0
 10
78.12546384765614
 20
138.5024847744022
 30
0.0
 10
77.93219399093363
 20
138.6954101215761
 30
0.0
 10
77.69379338335433
 20
138.6954101215761
 30
0.0
 10
77.45539277577504
 20
138.6954101215761
 30
0.0
 10
77.26212291905253
 20
138.5024847744022
 30
0.0
 10
77.26212291905253
 20
138.2640841668229
 30
0.0
 10
77.26212291905253
 20
138.0256835592436
 30
0.0
 10
77.45539277577504
 20
137.8320691929725
 30
0.0
 10
77.69379338335433
 20
137.8320691929725
 30
0.0
 10
77.69379338335433
 20
137.8320691929725
 30
0.0
 10
77.69379338335433
 20
137.8320691929725
 30
0.0
 10
77.69379338335433
 20
137.8320691929725
 30
0.0
  0
SPLINE
  5
278
330
1F
100
AcDbEntity
  8
Capa 1
 62
   250
420
  1842203
370
    13
100
AcDbSpline
210
0.0
220
0.0
230
1.0
 70
    11
 71
     3
 72
    20
 73
    16
 74
     0
 42
0.0000000001
 43
0.0000000001
 40
0.0
 40
0.0
 40
0.0
 40
0.0
 40
1.0
 40
1.0
 40
1.0
 40
2.0
 40
2.0
 40
2.0
 40
3.0
 40
3.0
 40
3.0
 40
4.0
 40
4.0
 40
4.0
 40
5.0
 40
5.0
 40
5.0
 40
5.0
 10
78.7483371113893
 20
137.8320691929725
 30
0.0
 10
78.98656546419433
 20
137.8320691929725
 30
0.0
 10
79.1800075756911
 20
138.0256835592436
 30
0.0
 10
79.1800075756911
 20
138.2640841668229
 30
0.0
 10
79.1800075756911
 20
138.5024847744022
 30
0.0
 10
78.98656546419433
 20
138.6954101215761
 30
0.0
 10
78.7483371113893
 20
138.6954101215761
 30
0.0
 10
78.50993650381002
 20
138.6954101215761
 30
0.0
 10
78.31649439231325
 20
138.5024847744022
 30
0.0
 10
78.31649439231325
 20
138.2640841668229
 30
0.0
 10
78.31649439231325
 20
138.0256835592436
 30
0.0
 10
78.50993650381002
 20
137.8320691929725
 30
0.0
 10
78.7483371113893
 20
137.8320691929725
 30
0.0
 10
78.7483371113893
 20
137.8320691929725
 30
0.0
 10
78.7483371113893
 20
137.8320691929725
 30
0.0
 10
78.7483371113893
 20
137.8320691929725
 30
0.0
  0
SPLINE
  5
279
330
1F
100
AcDbEntity
  8
Capa 1
 62
   250
420
  1842203
370
    13
100
AcDbSpline
210
0.0
220
0.0
230
1.0
 70
    11
 71
     3
 72
    20
 73
    16
 74
     0
 42
0.0000000001
 43
0.0000000001
 40
0.0
 40
0.0
 40
0.0
 40
0.0
 40
1.0
 40
1.0
 40
1.0
 40
2.0
 40
2.0
 40
2.0
 40
3.0
 40
3.0
 40
3.0
 40
4.0
 40
4.0
 40
4.0
 40
5.0
 40
5.0
 40
5.0
 40
5.0
 10
79.80270858465002
 20
137.8320691929725
 30
0.0
 10
80.04110919222931
 20
137.8320691929725
 30
0.0
 10
80.23437904895182
 20
138.0256835592436
 30
0.0
 10
80.23437904895182
 20
138.2640841668229
 30
0.0
 10
80.23437904895182
 20
138.5024847744022
 30
0.0
 10
80.04110919222931
 20
138.6954101215761
 30
0.0
 10
79.80270858465002
 20
138.6954101215761
 30
0.0
 10
79.56430797707073
 20
138.6954101215761
 30
0.0
 10
79.37086586557395
 20
138.5024847744022
 30
0.0
 10
79.37086586557395
 20
138.2640841668229
 30
0.0
 10
79.37086586557395
 20
138.0256835592436
 30
0.0
 10
79.56430797707073
 20
137.8320691929725
 30
0.0
 10
79.80270858465002
 20
137.8320691929725
 30
0.0
 10
79.80270858465002
 20
137.8320691929725
 30
0.0
 10
79.80270858465002
 20
137.8320691929725
 30
0.0
 10
79.80270858465002
 20
137.8320691929725
 30
0.0
  0
SPLINE
  5
27A
330
1F
100
AcDbEntity
  8
Capa 1
 62
   250
420
  1842203
370
    13
100
AcDbSpline
210
0.0
220
0.0
230
1.0
 70
    11
 71
     3
 72
    20
 73
    16
 74
     0
 42
0.0000000001
 43
0.0000000001
 40
0.0
 40
0.0
 40
0.0
 40
0.0
 40
1.0
 40
1.0
 40
1.0
 40
2.0
 40
2.0
 40
2.0
 40
3.0
 40
3.0
 40
3.0
 40
4.0
 40
4.0
 40
4.0
 40
5.0
 40
5.0
 40
5.0
 40
5.0
 10
80.85708005791074
 20
137.8320691929725
 30
0.0
 10
81.09548066549002
 20
137.8320691929725
 30
0.0
 10
81.28875052221254
 20
138.0256835592436
 30
0.0
 10
81.28875052221254
 20
138.2640841668229
 30
0.0
 10
81.28875052221254
 20
138.5024847744022
 30
0.0
 10
81.09548066549002
 20
138.6954101215761
 30
0.0
 10
80.85708005791074
 20
138.6954101215761
 30
0.0
 10
80.61867945033144
 20
138.6954101215761
 30
0.0
 10
80.42540959360893
 20
138.5024847744022
 30
0.0
 10
80.42540959360893
 20
138.2640841668229
 30
0.0
 10
80.42540959360893
 20
138.0256835592436
 30
0.0
 10
80.61867945033144
 20
137.8320691929725
 30
0.0
 10
80.85708005791074
 20
137.8320691929725
 30
0.0
 10
80.85708005791074
 20
137.8320691929725
 30
0.0
 10
80.85708005791074
 20
137.8320691929725
 30
0.0
 10
80.85708005791074
 20
137.8320691929725
 30
0.0
  0
MTEXT
  5
27B
330
1F
100
AcDbEntity
  8
Capa 1
 62
   250
420
  1842203
100
AcDbMText
 10
74.1481011099352
 20
130.2924777235033
 30
0.0
 40
2.398888888289167
 41
0.0
 71
     7
 72
     1
  1
\fArial|b0|i0|c0|p34;\W1;5
 73
     1
 44
1.0
  0
MTEXT
  5
27C
330
1F
100
AcDbEntity
  8
Capa 1
 62
   250
420
  1842203
100
AcDbMText
 10
75.22434893952725
 20
156.0507676476193
 30
0.0
 40
2.398888888289167
 41
0.0
 71
     7
 72
     1
  1
\fArial|b0|i0|c0|p34;\W1;40
 73
     1
 44
1.0
  0
MTEXT
  5
27D
330
1F
100
AcDbEntity
  8
Capa 1
 62
   250
420
  1842203
100
AcDbMText
 10
85.92946639561833
 20
144.2392577764402
 30
0.0
 40
2.398888888289167
 41
0.0
 71
     7
 72
     1
  1
\fArial|b0|i0|c0|p34;\W0.99999;62
 11
-4.371139000186241E-8
 21
0.999999999999999
 31
0.0
 73
     1
 44
1.0
  0
MTEXT
  5
27E
330
1F
100
AcDbEntity
  8
Capa 1
 62
   250
420
  1842203
100
AcDbMText
 10
89.85101858647822
 20
144.0187716653842
 30
0.0
 40
2.398888888289167
 41
0.0
 71
     7
 72
     1
  1
\fArial|b0|i0|c0|p34;\W0.99999;72
 11
-4.371139000186241E-8
 21
0.999999999999999
 31
0.0
 73
     1
 44
1.0
  0
MTEXT
  5
27F
330
1F
100
AcDbEntity
  8
Capa 1
 62
   250
420
  1842203
100
AcDbMText
 10
98.28874644895212
 20
131.7321831267892
 30
0.0
 40
2.398888888289167
 41
0.0
 71
     7
 72
     1
  1
\fArial|b0|i0|c0|p34;\W1;45
 73
     1
 44
1.0
  0
MTEXT
  5
280
330
1F
100
AcDbEntity
  8
Capa 1
 62
   250
420
  1842203
100
AcDbMText
 10
117.1142984733256
 20
131.3928412214921
 30
0.0
 40
2.398888888289167
 41
0.0
 71
     7
 72
     1
  1
\fArial|b0|i0|c0|p34;\W1;75
 73
     1
 44
1.0
  0
MTEXT
  5
281
330
1F
100
AcDbEntity
  8
Capa 1
 62
   250
420
  1842203
100
AcDbMText
 10
133.6152723190267
 20
134.7497422623195
 30
0.0
 40
2.398888888289167
 41
0.0
 71
     7
 72
     1
  1
\fArial|b0|i0|c0|p34;\W1;4,5
 11
-4.371139000186241E-8
 21
0.999999999999999
 31
0.0
 73
     1
 44
1.0
  0
MTEXT
  5
282
330
1F
100
AcDbEntity
  8
Capa 1
 62
   250
420
  1842203
100
AcDbMText
 10
134.9499023100125
 20
145.1804578630104
 30
0.0
 40
2.398888888289167
 41
0.0
 71
     7
 72
     1
  1
\fArial|b0|i0|c0|p34;\W1;87
 11
-4.371139000186241E-8
 21
0.999999999999999
 31
0.0
 73
     1
 44
1.0
  0
MTEXT
  5
283
330
1F
100
AcDbEntity
  8
Capa 1
 62
   250
420
  1842203
100
AcDbMText
 10
137.6605034378071
 20
147.8951931053873
 30
0.0
 40
2.398888888289167
 41
0.0
 71
     7
 72
     1
  1
\fArial|b0|i0|c0|p34;\W1;110
 11
-4.371139000186241E-8
 21
0.999999999999999
 31
0.0
 73
     1
 44
1.0
  0
ENDSEC
  0
SECTION
  2
OBJECTS
  0
DICTIONARY
  5
C
330
0
100
AcDbDictionary
281
     1
  3
ACAD_GROUP
350
D
  3
ACAD_LAYOUT
350
1A
  3
ACAD_MLINESTYLE
350
17
  3
ACAD_PLOTSETTINGS
350
19
  3
ACAD_PLOTSTYLENAME
350
E
  3
ACAD_TABLESTYLE
350
284
  3
ACAD_VISUALSTYLE
350
2A
  0
DICTIONARY
  5
D
102
{ACAD_REACTORS
330
C
102
}
330
C
100
AcDbDictionary
281
     1
  0
DICTIONARY
  5
1A
102
{ACAD_REACTORS
330
C
102
}
330
C
100
AcDbDictionary
281
     1
  3
Layout1
350
1E
  3
Layout2
350
26
  3
Model
350
22
  0
DICTIONARY
  5
17
102
{ACAD_REACTORS
330
C
102
}
330
C
100
AcDbDictionary
281
     1
  3
Standard
350
18
  0
DICTIONARY
  5
19
102
{ACAD_REACTORS
330
C
102
}
330
C
100
AcDbDictionary
281
     1
  0
ACDBDICTIONARYWDFLT
  5
E
102
{ACAD_REACTORS
330
C
102
}
330
C
100
AcDbDictionary
281
     1
  3
Normal
350
F
100
AcDbDictionaryWithDefault
340
F
  0
DICTIONARY
  5
284
102
{ACAD_REACTORS
330
C
102
}
330
C
100
AcDbDictionary
281
     1
  0
DICTIONARY
  5
2A
102
{ACAD_REACTORS
330
C
102
}
330
C
100
AcDbDictionary
281
     1
  3
2dWireframe
350
2F
  3
3D Hidden
350
31
  3
3dWireframe
350
30
  3
Basic
350
32
  3
Brighten
350
36
  3
ColorChange
350
3A
  3
Conceptual
350
34
  3
Dim
350
35
  3
Facepattern
350
39
  3
Flat
350
2B
  3
FlatWithEdges
350
2C
  3
Gouraud
350
2D
  3
GouraudWithEdges
350
2E
  3
Linepattern
350
38
  3
Realistic
350
33
  3
Thicken
350
37
  0
LAYOUT
  5
1E
102
{ACAD_REACTORS
330
1A
102
}
330
1A
100
AcDbPlotSettings
  1

  2
none_device
  4

  6

 40
0.0
 41
0.0
 42
0.0
 43
0.0
 44
0.0
 45
0.0
 46
0.0
 47
0.0
 48
0.0
 49
0.0
140
0.0
141
0.0
142
1.0
143
1.0
 70
   688
 72
     0
 73
     0
 74
     5
  7

 75
    16
 76
     0
 77
     2
 78
   300
147
1.0
148
0.0
149
0.0
100
AcDbLayout
  1
Layout1
 70
     1
 71
     1
 10
0.0
 20
0.0
 11
12.0
 21
9.0
 12
0.0
 22
0.0
 32
0.0
 14
1.000000000000000E+20
 24
1.000000000000000E+20
 34
1.000000000000000E+20
 15
-1.000000000000000E+20
 25
-1.000000000000000E+20
 35
-1.000000000000000E+20
146
0.0
 13
0.0
 23
0.0
 33
0.0
 16
1.0
 26
0.0
 36
0.0
 17
0.0
 27
1.0
 37
0.0
 76
     0
330
1B
  0
LAYOUT
  5
26
102
{ACAD_REACTORS
330
1A
102
}
330
1A
100
AcDbPlotSettings
  1

  2
none_device
  4

  6

 40
0.0
 41
0.0
 42
0.0
 43
0.0
 44
0.0
 45
0.0
 46
0.0
 47
0.0
 48
0.0
 49
0.0
140
0.0
141
0.0
142
1.0
143
1.0
 70
   688
 72
     0
 73
     0
 74
     5
  7

 75
    16
 76
     0
 77
     2
 78
   300
147
1.0
148
0.0
149
0.0
100
AcDbLayout
  1
Layout2
 70
     1
 71
     2
 10
0.0
 20
0.0
 11
0.0
 21
0.0
 12
0.0
 22
0.0
 32
0.0
 14
0.0
 24
0.0
 34
0.0
 15
0.0
 25
0.0
 35
0.0
146
0.0
 13
0.0
 23
0.0
 33
0.0
 16
1.0
 26
0.0
 36
0.0
 17
0.0
 27
1.0
 37
0.0
 76
     0
330
23
  0
LAYOUT
  5
22
102
{ACAD_REACTORS
330
1A
102
}
330
1A
100
AcDbPlotSettings
  1

  2
none_device
  4

  6

 40
0.0
 41
0.0
 42
0.0
 43
0.0
 44
0.0
 45
0.0
 46
0.0
 47
0.0
 48
0.0
 49
0.0
140
0.0
141
0.0
142
1.0
143
1.0
 70
  1712
 72
     0
 73
     0
 74
     0
  7

 75
     0
 76
     0
 77
     2
 78
   300
147
1.0
148
0.0
149
0.0
100
AcDbLayout
  1
Model
 70
     1
 71
     0
 10
0.0
 20
0.0
 11
12.0
 21
9.0
 12
0.0
 22
0.0
 32
0.0
 14
1.000000000000000E+20
 24
1.000000000000000E+20
 34
1.000000000000000E+20
 15
-1.000000000000000E+20
 25
-1.000000000000000E+20
 35
-1.000000000000000E+20
146
0.0
 13
0.0
 23
0.0
 33
0.0
 16
1.0
 26
0.0
 36
0.0
 17
0.0
 27
1.0
 37
0.0
 76
     0
330
1F
331
29
  0
MLINESTYLE
  5
18
102
{ACAD_REACTORS
330
17
102
}
330
17
100
AcDbMlineStyle
  2
Standard
 70
     0
  3

 62
   256
 51
90.0
 52
90.0
 71
     2
 49
0.5
 62
   256
  6
BYLAYER
 49
-0.5
 62
   256
  6
BYLAYER
  0
ACDBPLACEHOLDER
  5
F
102
{ACAD_REACTORS
330
E
102
}
330
E
  0
VISUALSTYLE
  5
2F
102
{ACAD_REACTORS
330
2A
102
}
330
2A
100
AcDbVisualStyle
  2
2dWireframe
 70
     4
 71
     0
 72
     2
 73
     0
 90
        0
 40
-0.6
 41
-30.0
 62
     5
 63
     7
421
 16777215
 74
     1
 91
        4
 64
     7
 65
   257
 75
     1
175
     1
 42
1.0
 92
        0
 66
   257
 43
1.0
 76
     1
 77
     6
 78
     2
 67
     7
 79
     5
170
     0
171
     0
290
     0
174
     0
 93
        1
 44
0.0
173
     0
291
     0
 45
0.0
1001
ACAD
1000
AcDbSavedByObjectVersion
1070
     0
  0
VISUALSTYLE
  5
31
102
{ACAD_REACTORS
330
2A
102
}
330
2A
100
AcDbVisualStyle
  2
3D Hidden
 70
     6
 71
     1
 72
     2
 73
     2
 90
        0
 40
-0.6
 41
-30.0
 62
     5
 63
     7
421
 16777215
 74
     2
 91
        2
 64
     7
 65
   257
 75
     2
175
     1
 42
40.0
 92
        0
 66
   257
 43
1.0
 76
     1
 77
     6
 78
     2
 67
     7
 79
     3
170
     0
171
     0
290
     0
174
     0
 93
        1
 44
0.0
173
     0
291
     0
 45
0.0
1001
ACAD
1000
AcDbSavedByObjectVersion
1070
     0
  0
VISUALSTYLE
  5
30
102
{ACAD_REACTORS
330
2A
102
}
330
2A
100
AcDbVisualStyle
  2
3dWireframe
 70
     5
 71
     0
 72
     2
 73
     0
 90
        0
 40
-0.6
 41
-30.0
 62
     5
 63
     7
421
 16777215
 74
     1
 91
        4
 64
     7
 65
   257
 75
     1
175
     1
 42
1.0
 92
        0
 66
   257
 43
1.0
 76
     1
 77
     6
 78
     2
 67
     7
 79
     5
170
     0
171
     0
290
     0
174
     0
 93
        1
 44
0.0
173
     0
291
     0
 45
0.0
1001
ACAD
1000
AcDbSavedByObjectVersion
1070
     0
  0
VISUALSTYLE
  5
32
102
{ACAD_REACTORS
330
2A
102
}
330
2A
100
AcDbVisualStyle
  2
Basic
 70
     7
 71
     1
 72
     0
 73
     1
 90
        0
 40
-0.6
 41
-30.0
 62
     5
 63
     7
421
 16777215
 74
     0
 91
        4
 64
     7
 65
   257
 75
     1
175
     1
 42
1.0
 92
        8
 66
     7
 43
1.0
 76
     1
 77
     6
 78
     2
 67
     7
 79
     5
170
     0
171
     0
290
     0
174
     0
 93
        1
 44
0.0
173
     0
291
     1
 45
0.0
1001
ACAD
1000
AcDbSavedByObjectVersion
1070
     0
  0
VISUALSTYLE
  5
36
102
{ACAD_REACTORS
330
2A
102
}
330
2A
100
AcDbVisualStyle
  2
Brighten
 70
    12
 71
     2
 72
     2
 73
     0
 90
        0
 40
-0.6
 41
-30.0
 62
     5
 63
     7
421
 16777215
 74
     1
 91
        4
 64
     7
 65
   257
 75
     1
175
     1
 42
1.0
 92
        8
 66
     7
 43
1.0
 76
     1
 77
     6
 78
     2
 67
     7
 79
     5
170
     0
171
     0
290
     0
174
     0
 93
        1
 44
50.0
173
     0
291
     1
 45
0.0
1001
ACAD
1000
AcDbSavedByObjectVersion
1070
     0
  0
VISUALSTYLE
  5
3A
102
{ACAD_REACTORS
330
2A
102
}
330
2A
100
AcDbVisualStyle
  2
ColorChange
 70
    16
 71
     2
 72
     2
 73
     3
 90
        0
 40
-0.6
 41
-30.0
 62
     5
 63
     8
421
  8421504
 74
     1
 91
        4
 64
     7
 65
   257
 75
     1
175
     1
 42
1.0
 92
        8
 66
     8
424
  8421504
 43
1.0
 76
     1
 77
     6
 78
     2
 67
     7
 79
     5
170
     0
171
     0
290
     0
174
     0
 93
        1
 44
0.0
173
     0
291
     1
 45
0.0
1001
ACAD
1000
AcDbSavedByObjectVersion
1070
     0
  0
VISUALSTYLE
  5
34
102
{ACAD_REACTORS
330
2A
102
}
330
2A
100
AcDbVisualStyle
  2
Conceptual
 70
     9
 71
     3
 72
     2
 73
     0
 90
        0
 40
-0.6
 41
-30.0
 62
     5
 63
     7
421
 16777215
 74
     2
 91
        2
 64
     7
 65
   257
 75
     1
175
     1
 42
40.0
 92
        8
 66
     7
 43
1.0
 76
     1
 77
     6
 78
     2
 67
     7
 79
     3
170
     0
171
     0
290
     0
174
     0
 93
        1
 44
0.0
173
     0
291
     0
 45
0.0
1001
ACAD
1000
AcDbSavedByObjectVersion
1070
     0
  0
VISUALSTYLE
  5
35
102
{ACAD_REACTORS
330
2A
102
}
330
2A
100
AcDbVisualStyle
  2
Dim
 70
    11
 71
     2
 72
     2
 73
     0
 90
        0
 40
-0.6
 41
-30.0
 62
     5
 63
     7
421
 16777215
 74
     1
 91
        4
 64
     7
 65
   257
 75
     1
175
     1
 42
1.0
 92
        8
 66
     7
 43
1.0
 76
     1
 77
     6
 78
     2
 67
     7
 79
     5
170
     0
171
     0
290
     0
174
     0
 93
        1
 44
-50.0
173
     0
291
     1
 45
0.0
1001
ACAD
1000
AcDbSavedByObjectVersion
1070
     0
  0
VISUALSTYLE
  5
39
102
{ACAD_REACTORS
330
2A
102
}
330
2A
100
AcDbVisualStyle
  2
Facepattern
 70
    15
 71
     2
 72
     2
 73
     0
 90
        0
 40
-0.6
 41
-30.0
 62
     5
 63
     7
421
 16777215
 74
     1
 91
        4
 64
     7
 65
   257
 75
     1
175
     1
 42
1.0
 92
        8
 66
     7
 43
1.0
 76
     1
 77
     6
 78
     2
 67
     7
 79
     5
170
     0
171
     0
290
     0
174
     0
 93
        1
 44
0.0
173
     0
291
     1
 45
0.0
1001
ACAD
1000
AcDbSavedByObjectVersion
1070
     0
  0
VISUALSTYLE
  5
2B
102
{ACAD_REACTORS
330
2A
102
}
330
2A
100
AcDbVisualStyle
  2
Flat
 70
     0
 71
     2
 72
     1
 73
     1
 90
        2
 40
-0.6
 41
30.0
 62
     5
 63
     7
421
 16777215
 74
     0
 91
        4
 64
     7
 65
   257
 75
     1
175
     1
 42
1.0
 92
        8
 66
     7
 43
1.0
 76
     1
 77
     6
 78
     2
 67
     7
 79
     5
170
     0
171
     0
290
     0
174
     0
 93
       13
 44
0.0
173
     0
291
     1
 45
0.0
1001
ACAD
1000
AcDbSavedByObjectVersion
1070
     0
  0
VISUALSTYLE
  5
2C
102
{ACAD_REACTORS
330
2A
102
}
330
2A
100
AcDbVisualStyle
  2
FlatWithEdges
 70
     1
 71
     2
 72
     1
 73
     1
 90
        2
 40
-0.6
 41
30.0
 62
     5
 63
     7
421
 16777215
 74
     1
 91
        4
 64
     7
 65
   257
 75
     1
175
     1
 42
1.0
 92
        0
 66
   257
 43
1.0
 76
     1
 77
     6
 78
     2
 67
     7
 79
     5
170
     0
171
     0
290
     0
174
     0
 93
       13
 44
0.0
173
     0
291
     1
 45
0.0
1001
ACAD
1000
AcDbSavedByObjectVersion
1070
     0
  0
VISUALSTYLE
  5
2D
102
{ACAD_REACTORS
330
2A
102
}
330
2A
100
AcDbVisualStyle
  2
Gouraud
 70
     2
 71
     2
 72
     2
 73
     1
 90
        2
 40
-0.6
 41
30.0
 62
     5
 63
     7
421
 16777215
 74
     0
 91
        4
 64
     7
 65
   257
 75
     1
175
     1
 42
1.0
 92
        0
 66
     7
 43
1.0
 76
     1
 77
     6
 78
     2
 67
     7
 79
     5
170
     0
171
     0
290
     0
174
     0
 93
       13
 44
0.0
173
     0
291
     1
 45
0.0
1001
ACAD
1000
AcDbSavedByObjectVersion
1070
     0
  0
VISUALSTYLE
  5
2E
102
{ACAD_REACTORS
330
2A
102
}
330
2A
100
AcDbVisualStyle
  2
GouraudWithEdges
 70
     3
 71
     2
 72
     2
 73
     1
 90
        2
 40
-0.6
 41
30.0
 62
     5
 63
     7
421
 16777215
 74
     1
 91
        4
 64
     7
 65
   257
 75
     1
175
     1
 42
1.0
 92
        0
 66
   257
 43
1.0
 76
     1
 77
     6
 78
     2
 67
     7
 79
     5
170
     0
171
     0
290
     0
174
     0
 93
       13
 44
0.0
173
     0
291
     1
 45
0.0
1001
ACAD
1000
AcDbSavedByObjectVersion
1070
     0
  0
VISUALSTYLE
  5
38
102
{ACAD_REACTORS
330
2A
102
}
330
2A
100
AcDbVisualStyle
  2
Linepattern
 70
    14
 71
     2
 72
     2
 73
     0
 90
        0
 40
-0.6
 41
-30.0
 62
     5
 63
     7
421
 16777215
 74
     1
 91
        4
 64
     7
 65
   257
 75
     7
175
     7
 42
1.0
 92
        8
 66
     7
 43
1.0
 76
     1
 77
     6
 78
     2
 67
     7
 79
     5
170
     0
171
     0
290
     0
174
     0
 93
        1
 44
0.0
173
     0
291
     1
 45
0.0
1001
ACAD
1000
AcDbSavedByObjectVersion
1070
     0
  0
VISUALSTYLE
  5
33
102
{ACAD_REACTORS
330
2A
102
}
330
2A
100
AcDbVisualStyle
  2
Realistic
 70
     8
 71
     2
 72
     2
 73
     0
 90
        0
 40
-0.6
 41
-30.0
 62
     5
 63
     7
421
 16777215
 74
     1
 91
        0
 64
     7
 65
   257
 75
     1
175
     1
 42
1.0
 92
        8
 66
     8
424
  7895160
 43
1.0
 76
     1
 77
     6
 78
     2
 67
     7
 79
     5
170
     0
171
     0
290
     0
174
     0
 93
       13
 44
0.0
173
     0
291
     0
 45
0.0
1001
ACAD
1000
AcDbSavedByObjectVersion
1070
     0
  0
VISUALSTYLE
  5
37
102
{ACAD_REACTORS
330
2A
102
}
330
2A
100
AcDbVisualStyle
  2
Thicken
 70
    13
 71
     2
 72
     2
 73
     0
 90
        0
 40
-0.6
 41
-30.0
 62
     5
 63
     7
421
 16777215
 74
     1
 91
        4
 64
     7
 65
   257
 75
     1
175
     1
 42
1.0
 92
       12
 66
     7
 43
1.0
 76
     1
 77
     6
 78
     2
 67
     7
 79
     5
170
     0
171
     0
290
     0
174
     0
 93
        1
 44
0.0
173
     0
291
     1
 45
0.0
1001
ACAD
1000
AcDbSavedByObjectVersion
1070
     0
  0
ENDSEC
  0
EOF
