  0
SECTION
  2
HEADER
  9
$ACADVER
  1
AC1027
  9
$ACADMAINTVER
 70
   125
  9
$DWGCODEPAGE
  3
ANSI_1252
  9
$REQUIREDVERSIONS
160
                 0
  9
$INSBASE
 10
0.0
 20
0.0
 30
0.0
  9
$EXTMIN
 10
1.000000000000000E+20
 20
1.000000000000000E+20
 30
1.000000000000000E+20
  9
$EXTMAX
 10
-1.000000000000000E+20
 20
-1.000000000000000E+20
 30
-1.000000000000000E+20
  9
$LIMMIN
 10
0.0
 20
0.0
  9
$LIMMAX
 10
12.0
 20
9.0
  9
$ORTHOMODE
 70
     0
  9
$REGENMODE
 70
     1
  9
$FILLMODE
 70
     1
  9
$QTEXTMODE
 70
     0
  9
$MIRRTEXT
 70
     0
  9
$LTSCALE
 40
1.0
  9
$ATTMODE
 70
     1
  9
$TEXTSIZE
 40
0.2
  9
$TRACEWID
 40
0.05
  9
$TEXTSTYLE
  7
Standard
  9
$CLAYER
  8
0
  9
$CELTYPE
  6
ByLayer
  9
$CECOLOR
 62
   256
  9
$CELTSCALE
 40
1.0
  9
$DISPSILH
 70
     0
  9
$DIMSCALE
 40
1.0
  9
$DIMASZ
 40
0.18
  9
$DIMEXO
 40
0.0625
  9
$DIMDLI
 40
0.38
  9
$DIMRND
 40
0.0
  9
$DIMDLE
 40
0.0
  9
$DIMEXE
 40
0.18
  9
$DIMTP
 40
0.0
  9
$DIMTM
 40
0.0
  9
$DIMTXT
 40
0.18
  9
$DIMCEN
 40
0.09
  9
$DIMTSZ
 40
0.0
  9
$DIMTOL
 70
     0
  9
$DIMLIM
 70
     0
  9
$DIMTIH
 70
     1
  9
$DIMTOH
 70
     1
  9
$DIMSE1
 70
     0
  9
$DIMSE2
 70
     0
  9
$DIMTAD
 70
     0
  9
$DIMZIN
 70
     0
  9
$DIMBLK
  1

  9
$DIMASO
 70
     1
  9
$DIMSHO
 70
     1
  9
$DIMPOST
  1

  9
$DIMAPOST
  1

  9
$DIMALT
 70
     0
  9
$DIMALTD
 70
     2
  9
$DIMALTF
 40
25.4
  9
$DIMLFAC
 40
1.0
  9
$DIMTOFL
 70
     0
  9
$DIMTVP
 40
0.0
  9
$DIMTIX
 70
     0
  9
$DIMSOXD
 70
     0
  9
$DIMSAH
 70
     0
  9
$DIMBLK1
  1

  9
$DIMBLK2
  1

  9
$DIMSTYLE
  2
Standard
  9
$DIMCLRD
 70
     0
  9
$DIMCLRE
 70
     0
  9
$DIMCLRT
 70
     0
  9
$DIMTFAC
 40
1.0
  9
$DIMGAP
 40
0.09
  9
$DIMJUST
 70
     0
  9
$DIMSD1
 70
     0
  9
$DIMSD2
 70
     0
  9
$DIMTOLJ
 70
     1
  9
$DIMTZIN
 70
     0
  9
$DIMALTZ
 70
     0
  9
$DIMALTTZ
 70
     0
  9
$DIMUPT
 70
     0
  9
$DIMDEC
 70
     4
  9
$DIMTDEC
 70
     4
  9
$DIMALTU
 70
     2
  9
$DIMALTTD
 70
     2
  9
$DIMTXSTY
  7
Standard
  9
$DIMAUNIT
 70
     0
  9
$DIMADEC
 70
     0
  9
$DIMALTRND
 40
0.0
  9
$DIMAZIN
 70
     0
  9
$DIMDSEP
 70
    46
  9
$DIMATFIT
 70
     3
  9
$DIMFRAC
 70
     0
  9
$DIMLDRBLK
  1

  9
$DIMLUNIT
 70
     2
  9
$DIMLWD
 70
    -2
  9
$DIMLWE
 70
    -2
  9
$DIMTMOVE
 70
     0
  9
$DIMFXL
 40
1.0
  9
$DIMFXLON
 70
     0
  9
$DIMJOGANG
 40
0.7853981633974483
  9
$DIMTFILL
 70
     0
  9
$DIMTFILLCLR
 70
     0
  9
$DIMARCSYM
 70
     0
  9
$DIMLTYPE
  6

  9
$DIMLTEX1
  6

  9
$DIMLTEX2
  6

  9
$DIMTXTDIRECTION
 70
     0
  9
$LUNITS
 70
     2
  9
$LUPREC
 70
     4
  9
$SKETCHINC
 40
0.1
  9
$FILLETRAD
 40
0.0
  9
$AUNITS
 70
     0
  9
$AUPREC
 70
     0
  9
$MENU
  1
.
  9
$ELEVATION
 40
0.0
  9
$PELEVATION
 40
0.0
  9
$THICKNESS
 40
0.0
  9
$LIMCHECK
 70
     0
  9
$CHAMFERA
 40
0.0
  9
$CHAMFERB
 40
0.0
  9
$CHAMFERC
 40
0.0
  9
$CHAMFERD
 40
0.0
  9
$SKPOLY
 70
     0
  9
$TDCREATE
 40
2459466.542615741
  9
$TDUCREATE
 40
2459466.459282408
  9
$TDUPDATE
 40
2459466.542615741
  9
$TDUUPDATE
 40
2459466.459282408
  9
$TDINDWG
 40
0.0000231481
  9
$TDUSRTIMER
 40
0.0000231481
  9
$USRTIMER
 70
     1
  9
$ANGBASE
 50
0.0
  9
$ANGDIR
 70
     0
  9
$PDMODE
 70
     0
  9
$PDSIZE
 40
0.0
  9
$PLINEWID
 40
0.0
  9
$SPLFRAME
 70
     0
  9
$SPLINETYPE
 70
     6
  9
$SPLINESEGS
 70
     8
  9
$HANDSEED
  5
D5
  9
$SURFTAB1
 70
     6
  9
$SURFTAB2
 70
     6
  9
$SURFTYPE
 70
     6
  9
$SURFU
 70
     6
  9
$SURFV
 70
     6
  9
$UCSBASE
  2

  9
$UCSNAME
  2

  9
$UCSORG
 10
0.0
 20
0.0
 30
0.0
  9
$UCSXDIR
 10
1.0
 20
0.0
 30
0.0
  9
$UCSYDIR
 10
0.0
 20
1.0
 30
0.0
  9
$UCSORTHOREF
  2

  9
$UCSORTHOVIEW
 70
     0
  9
$UCSORGTOP
 10
0.0
 20
0.0
 30
0.0
  9
$UCSORGBOTTOM
 10
0.0
 20
0.0
 30
0.0
  9
$UCSORGLEFT
 10
0.0
 20
0.0
 30
0.0
  9
$UCSORGRIGHT
 10
0.0
 20
0.0
 30
0.0
  9
$UCSORGFRONT
 10
0.0
 20
0.0
 30
0.0
  9
$UCSORGBACK
 10
0.0
 20
0.0
 30
0.0
  9
$PUCSBASE
  2

  9
$PUCSNAME
  2

  9
$PUCSORG
 10
0.0
 20
0.0
 30
0.0
  9
$PUCSXDIR
 10
1.0
 20
0.0
 30
0.0
  9
$PUCSYDIR
 10
0.0
 20
1.0
 30
0.0
  9
$PUCSORTHOREF
  2

  9
$PUCSORTHOVIEW
 70
     0
  9
$PUCSORGTOP
 10
0.0
 20
0.0
 30
0.0
  9
$PUCSORGBOTTOM
 10
0.0
 20
0.0
 30
0.0
  9
$PUCSORGLEFT
 10
0.0
 20
0.0
 30
0.0
  9
$PUCSORGRIGHT
 10
0.0
 20
0.0
 30
0.0
  9
$PUCSORGFRONT
 10
0.0
 20
0.0
 30
0.0
  9
$PUCSORGBACK
 10
0.0
 20
0.0
 30
0.0
  9
$USERI1
 70
     0
  9
$USERI2
 70
     0
  9
$USERI3
 70
     0
  9
$USERI4
 70
     0
  9
$USERI5
 70
     0
  9
$USERR1
 40
0.0
  9
$USERR2
 40
0.0
  9
$USERR3
 40
0.0
  9
$USERR4
 40
0.0
  9
$USERR5
 40
0.0
  9
$WORLDVIEW
 70
     1
  9
$SHADEDGE
 70
     3
  9
$SHADEDIF
 70
    70
  9
$TILEMODE
 70
     1
  9
$MAXACTVP
 70
    64
  9
$PINSBASE
 10
0.0
 20
0.0
 30
0.0
  9
$PLIMCHECK
 70
     0
  9
$PEXTMIN
 10
1.000000000000000E+20
 20
1.000000000000000E+20
 30
1.000000000000000E+20
  9
$PEXTMAX
 10
-1.000000000000000E+20
 20
-1.000000000000000E+20
 30
-1.000000000000000E+20
  9
$PLIMMIN
 10
0.0
 20
0.0
  9
$PLIMMAX
 10
12.0
 20
9.0
  9
$UNITMODE
 70
     0
  9
$VISRETAIN
 70
     1
  9
$PLINEGEN
 70
     0
  9
$PSLTSCALE
 70
     1
  9
$TREEDEPTH
 70
  3020
  9
$CMLSTYLE
  2
Standard
  9
$CMLJUST
 70
     0
  9
$CMLSCALE
 40
1.0
  9
$PROXYGRAPHICS
 70
     1
  9
$MEASUREMENT
 70
     0
  9
$CELWEIGHT
370
    -1
  9
$ENDCAPS
280
     0
  9
$JOINSTYLE
280
     0
  9
$LWDISPLAY
290
     1
  9
$INSUNITS
 70
     4
  9
$HYPERLINKBASE
  1

  9
$STYLESHEET
  1

  9
$XEDIT
290
     1
  9
$CEPSNTYPE
380
     0
  9
$PSTYLEMODE
290
     1
  9
$FINGERPRINTGUID
  2
{955F4FD5-D0A5-224C-A56F-FBE77C6755B9}
  9
$VERSIONGUID
  2
{88235358-0B58-D94B-9545-8DD41103AE80}
  9
$EXTNAMES
290
     1
  9
$PSVPSCALE
 40
0.0
  9
$OLESTARTUP
290
     0
  9
$SORTENTS
280
   127
  9
$INDEXCTL
280
     0
  9
$HIDETEXT
280
     1
  9
$XCLIPFRAME
280
     2
  9
$HALOGAP
280
     0
  9
$OBSCOLOR
 70
   257
  9
$OBSLTYPE
280
     0
  9
$INTERSECTIONDISPLAY
280
     0
  9
$INTERSECTIONCOLOR
 70
   257
  9
$DIMASSOC
280
     2
  9
$PROJECTNAME
  1

  9
$CAMERADISPLAY
290
     0
  9
$LENSLENGTH
 40
50.0
  9
$CAMERAHEIGHT
 40
0.0
  9
$STEPSPERSEC
 40
2.0
  9
$STEPSIZE
 40
6.0
  9
$3DDWFPREC
 40
2.0
  9
$PSOLWIDTH
 40
0.25
  9
$PSOLHEIGHT
 40
4.0
  9
$LOFTANG1
 40
1.570796326794896
  9
$LOFTANG2
 40
1.570796326794896
  9
$LOFTMAG1
 40
0.0
  9
$LOFTMAG2
 40
0.0
  9
$LOFTPARAM
 70
     7
  9
$LOFTNORMALS
280
     1
  9
$LATITUDE
 40
37.795
  9
$LONGITUDE
 40
-122.394
  9
$NORTHDIRECTION
 40
0.0
  9
$TIMEZONE
 70
 -8000
  9
$LIGHTGLYPHDISPLAY
280
     1
  9
$TILEMODELIGHTSYNCH
280
     1
  9
$CMATERIAL
347
11
  9
$SOLIDHIST
280
     0
  9
$SHOWHIST
280
     1
  9
$DWFFRAME
280
     2
  9
$DGNFRAME
280
     0
  9
$REALWORLDSCALE
290
     1
  9
$INTERFERECOLOR
 62
     1
  9
$INTERFEREOBJVS
345
33
  9
$INTERFEREVPVS
346
30
  9
$CSHADOW
280
     0
  9
$SHADOWPLANELOCATION
 40
0.0
  0
ENDSEC
  0
SECTION
  2
CLASSES
  0
CLASS
  1
ACDBDICTIONARYWDFLT
  2
AcDbDictionaryWithDefault
  3
ObjectDBX Classes
 90
        0
 91
        1
280
     0
281
     0
  0
CLASS
  1
MATERIAL
  2
AcDbMaterial
  3
ObjectDBX Classes
 90
     1153
 91
        3
280
     0
281
     0
  0
CLASS
  1
VISUALSTYLE
  2
AcDbVisualStyle
  3
ObjectDBX Classes
 90
     4095
 91
       24
280
     0
281
     0
  0
CLASS
  1
SCALE
  2
AcDbScale
  3
ObjectDBX Classes
 90
     1153
 91
       17
280
     0
281
     0
  0
CLASS
  1
TABLESTYLE
  2
AcDbTableStyle
  3
ObjectDBX Classes
 90
     4095
 91
        1
280
     0
281
     0
  0
CLASS
  1
MLEADERSTYLE
  2
AcDbMLeaderStyle
  3
ACDB_MLEADERSTYLE_CLASS
 90
     4095
 91
        1
280
     0
281
     0
  0
CLASS
  1
ACDBSECTIONVIEWSTYLE
  2
AcDbSectionViewStyle
  3
ObjectDBX Classes
 90
     1025
 91
        1
280
     0
281
     0
  0
CLASS
  1
ACDBDETAILVIEWSTYLE
  2
AcDbDetailViewStyle
  3
ObjectDBX Classes
 90
     1025
 91
        1
280
     0
281
     0
  0
CLASS
  1
DICTIONARYVAR
  2
AcDbDictionaryVar
  3
ObjectDBX Classes
 90
        0
 91
        5
280
     0
281
     0
  0
CLASS
  1
CELLSTYLEMAP
  2
AcDbCellStyleMap
  3
ObjectDBX Classes
 90
     1152
 91
        1
280
     0
281
     0
  0
ENDSEC
  0
SECTION
  2
TABLES
  0
TABLE
  2
VPORT
  5
8
330
0
100
AcDbSymbolTable
 70
     1
1001
ACAD
1000
DbSaveVer
1071
      205
  0
VPORT
  5
57
330
8
100
AcDbSymbolTableRecord
100
AcDbViewportTableRecord
  2
*Active
 70
     0
 10
0.0
 20
0.0
 11
1.0
 21
1.0
 12
0.0
 22
0.0
 13
0.0
 23
0.0
 14
1.0
 24
1.0
 15
0.0
 25
0.0
 16
0.0
 26
0.0
 36
1.0
 17
112.7124999718219
 27
167.5694444025521
 37
0.0
 40
174.1593332897935
 41
1.105371900826446
 42
50.0
 43
0.0
 44
0.0
 50
0.0
 51
0.0
 71
     0
 72
   100
 73
     1
 74
     0
 75
     1
 76
     0
 77
     0
 78
     0
281
     0
 65
     1
110
0.0
120
0.0
130
0.0
111
1.0
121
0.0
131
0.0
112
0.0
122
1.0
132
0.0
 79
     0
146
0.0
 60
     3
 61
     5
292
     1
282
     1
141
0.0
142
0.0
 63
   250
421
  3355443
  0
ENDTAB
  0
TABLE
  2
LTYPE
  5
5
330
0
100
AcDbSymbolTable
 70
     1
  0
LTYPE
  5
5B
330
5
100
AcDbSymbolTableRecord
100
AcDbLinetypeTableRecord
  2
ByBlock
 70
     0
  3

 72
    65
 73
     0
 40
0.0
  0
LTYPE
  5
5C
330
5
100
AcDbSymbolTableRecord
100
AcDbLinetypeTableRecord
  2
ByLayer
 70
     0
  3

 72
    65
 73
     0
 40
0.0
  0
LTYPE
  5
5D
330
5
100
AcDbSymbolTableRecord
100
AcDbLinetypeTableRecord
  2
Continuous
 70
     0
  3
Solid line
 72
    65
 73
     0
 40
0.0
  0
ENDTAB
  0
TABLE
  2
LAYER
  5
2
330
0
100
AcDbSymbolTable
 70
     2
  0
LAYER
  5
54
330
2
100
AcDbSymbolTableRecord
100
AcDbLayerTableRecord
  2
0
 70
     0
 62
     7
  6
Continuous
370
    -3
390
F
347
21
348
0
  0
LAYER
  5
78
330
2
100
AcDbSymbolTableRecord
100
AcDbLayerTableRecord
  2
Capa 1
 70
     0
 62
     7
  6
Continuous
370
     0
390
F
347
21
348
0
  0
ENDTAB
  0
TABLE
  2
STYLE
  5
3
330
0
100
AcDbSymbolTable
 70
     2
  0
STYLE
  5
55
330
3
100
AcDbSymbolTableRecord
100
AcDbTextStyleTableRecord
  2
Standard
 70
     0
 40
0.0
 41
1.0
 50
0.0
 71
     0
 42
0.2
  3
txt
  4

  0
STYLE
  5
5A
330
3
100
AcDbSymbolTableRecord
100
AcDbTextStyleTableRecord
  2
Annotative
 70
     0
 40
0.0
 41
1.0
 50
0.0
 71
     0
 42
0.2
  3
txt
  4

1001
AcadAnnotative
1000
AnnotativeData
1002
{
1070
     1
1070
     1
1002
}
  0
ENDTAB
  0
TABLE
  2
VIEW
  5
6
330
0
100
AcDbSymbolTable
 70
     0
  0
ENDTAB
  0
TABLE
  2
UCS
  5
7
330
0
100
AcDbSymbolTable
 70
     0
  0
ENDTAB
  0
TABLE
  2
APPID
  5
9
330
0
100
AcDbSymbolTable
 70
     2
  0
APPID
  5
56
330
9
100
AcDbSymbolTableRecord
100
AcDbRegAppTableRecord
  2
ACAD
 70
     0
  0
APPID
  5
5E
330
9
100
AcDbSymbolTableRecord
100
AcDbRegAppTableRecord
  2
AcadAnnotative
 70
     0
  0
ENDTAB
  0
TABLE
  2
DIMSTYLE
  5
A
330
0
100
AcDbSymbolTable
 70
     2
100
AcDbDimStyleTable
 71
     0
  0
DIMSTYLE
105
58
330
A
100
AcDbSymbolTableRecord
100
AcDbDimStyleTableRecord
  2
Standard
 70
     0
340
55
  0
DIMSTYLE
105
59
330
A
100
AcDbSymbolTableRecord
100
AcDbDimStyleTableRecord
  2
Annotative
 70
     0
340
55
1001
AcadAnnotative
1000
AnnotativeData
1002
{
1070
     1
1070
     1
1002
}
  0
ENDTAB
  0
TABLE
  2
BLOCK_RECORD
  5
1
330
0
100
AcDbSymbolTable
 70
     1
  0
BLOCK_RECORD
  5
70
330
1
100
AcDbSymbolTableRecord
100
AcDbBlockTableRecord
  2
*Model_Space
340
73
 70
     0
280
     1
281
     0
  0
BLOCK_RECORD
  5
6C
330
1
100
AcDbSymbolTableRecord
100
AcDbBlockTableRecord
  2
*Paper_Space
340
6F
 70
     0
280
     1
281
     0
  0
BLOCK_RECORD
  5
74
330
1
100
AcDbSymbolTableRecord
100
AcDbBlockTableRecord
  2
*Paper_Space0
340
77
 70
     0
280
     1
281
     0
  0
ENDTAB
  0
ENDSEC
  0
SECTION
  2
BLOCKS
  0
BLOCK
  5
71
330
70
100
AcDbEntity
  8
0
100
AcDbBlockBegin
  2
*Model_Space
 70
     0
 10
0.0
 20
0.0
 30
0.0
  3
*Model_Space
  1

  0
ENDBLK
  5
72
330
70
100
AcDbEntity
  8
0
100
AcDbBlockEnd
  0
BLOCK
  5
6D
330
6C
100
AcDbEntity
 67
     1
  8
0
100
AcDbBlockBegin
  2
*Paper_Space
 70
     0
 10
0.0
 20
0.0
 30
0.0
  3
*Paper_Space
  1

  0
ENDBLK
  5
6E
330
6C
100
AcDbEntity
 67
     1
  8
0
100
AcDbBlockEnd
  0
BLOCK
  5
75
330
74
100
AcDbEntity
 67
     1
  8
0
100
AcDbBlockBegin
  2
*Paper_Space0
 70
     0
 10
0.0
 20
0.0
 30
0.0
  3
*Paper_Space0
  1

  0
ENDBLK
  5
76
330
74
100
AcDbEntity
 67
     1
  8
0
100
AcDbBlockEnd
  0
ENDSEC
  0
SECTION
  2
ENTITIES
  0
SPLINE
  5
79
330
70
100
AcDbEntity
  8
Capa 1
 62
   250
420
  1907995
370
    13
100
AcDbSpline
210
0.0
220
0.0
230
1.0
 70
    24
 71
     3
 72
     8
 73
     4
 74
     0
 42
0.0000000001
 43
0.0000000001
 40
0.0
 40
0.0
 40
0.0
 40
0.0
 40
1.0
 40
1.0
 40
1.0
 40
1.0
 10
111.8361971468209
 20
152.6285961061201
 30
0.0
 10
104.3939973366872
 20
152.6285961061201
 30
0.0
 10
86.96959778122071
 20
152.6285961061201
 30
0.0
 10
78.66379799311932
 20
152.6285961061201
 30
0.0
  0
SPLINE
  5
7A
330
70
100
AcDbEntity
  8
Capa 1
 62
   250
420
  1907995
370
    13
100
AcDbSpline
210
0.0
220
0.0
230
1.0
 70
     8
 71
     3
 72
    62
 73
    58
 74
     0
 42
0.0000000001
 43
0.0000000001
 40
0.0
 40
0.0
 40
0.0
 40
0.0
 40
1.0
 40
1.0
 40
1.0
 40
2.0
 40
2.0
 40
2.0
 40
3.0
 40
3.0
 40
3.0
 40
4.0
 40
4.0
 40
4.0
 40
5.0
 40
5.0
 40
5.0
 40
6.0
 40
6.0
 40
6.0
 40
7.0
 40
7.0
 40
7.0
 40
8.0
 40
8.0
 40
8.0
 40
9.0
 40
9.0
 40
9.0
 40
10.0
 40
10.0
 40
10.0
 40
11.0
 40
11.0
 40
11.0
 40
12.0
 40
12.0
 40
12.0
 40
13.0
 40
13.0
 40
13.0
 40
14.0
 40
14.0
 40
14.0
 40
15.0
 40
15.0
 40
15.0
 40
16.0
 40
16.0
 40
16.0
 40
17.0
 40
17.0
 40
17.0
 40
18.0
 40
18.0
 40
18.0
 40
19.0
 40
19.0
 40
19.0
 40
19.0
 10
67.71639827241076
 20
152.6285961061201
 30
0.0
 10
66.64959829962708
 20
152.6285961061201
 30
0.0
 10
66.03999831517928
 20
152.6285961061201
 30
0.0
 10
66.03999831517928
 20
152.6285961061201
 30
0.0
 10
66.03999831517928
 20
152.6285961061201
 30
0.0
 10
65.48119832943545
 20
152.5269961087121
 30
0.0
 10
65.0239983410996
 20
153.1873960918639
 30
0.0
 10
64.54139835341175
 20
153.8477960750157
 30
0.0
 10
51.76519867935976
 20
177.5459954704243
 30
0.0
 10
51.76519867935976
 20
177.5459954704243
 30
0.0
 10
51.76519867935976
 20
177.5459954704243
 30
0.0
 10
51.76519867935976
 20
200.5583948833291
 30
0.0
 10
51.76519867935976
 20
200.5583948833291
 30
0.0
 10
51.76519867935976
 20
200.5583948833291
 30
0.0
 10
64.69379834952402
 20
225.1709942554093
 30
0.0
 10
64.69379834952402
 20
225.1709942554093
 30
0.0
 10
64.69379834952402
 20
225.1709942554093
 30
0.0
 10
65.04939834045159
 20
225.6535942430972
 30
0.0
 10
65.53199832813944
 20
225.6535942430972
 30
0.0
 10
66.01459831582729
 20
225.6535942430972
 30
0.0
 10
115.0111970658199
 20
225.6535942430972
 30
0.0
 10
115.0111970658199
 20
225.6535942430972
 30
0.0
 10
115.0111970658199
 20
225.6535942430972
 30
0.0
 10
116.8653970185153
 20
225.6535942430972
 30
0.0
 10
116.8653970185153
 20
224.5867942703135
 30
0.0
 10
116.8653970185153
 20
223.4945942981779
 30
0.0
 10
116.8653970185153
 20
222.961194311786
 30
0.0
 10
116.8653970185153
 20
222.961194311786
 30
0.0
 10
116.8653970185153
 20
222.961194311786
 30
0.0
 10
116.8907970178673
 20
222.4531943247462
 30
0.0
 10
117.3733970055552
 20
222.4531943247462
 30
0.0
 10
117.855996993243
 20
222.4531943247462
 30
0.0
 10
118.8973969666747
 20
222.4531943247462
 30
0.0
 10
118.8973969666747
 20
222.4531943247462
 30
0.0
 10
118.8973969666747
 20
222.4531943247462
 30
0.0
 10
118.8973969666747
 20
206.9591947200311
 30
0.0
 10
118.8973969666747
 20
206.9591947200311
 30
0.0
 10
118.8973969666747
 20
206.9591947200311
 30
0.0
 10
118.9481969653787
 20
205.7907947498394
 30
0.0
 10
120.0911969362183
 20
205.7907947498394
 30
0.0
 10
121.2341969070579
 20
205.7907947498394
 30
0.0
 10
138.6331964631725
 20
205.7907947498394
 30
0.0
 10
138.6331964631725
 20
205.7907947498394
 30
0.0
 10
138.6331964631725
 20
205.7907947498394
 30
0.0
 10
138.6331964631725
 20
178.9683954341358
 30
0.0
 10
138.6331964631725
 20
178.9683954341358
 30
0.0
 10
138.6331964631725
 20
178.9683954341358
 30
0.0
 10
138.6839964618765
 20
177.2919954769044
 30
0.0
 10
138.4299964683565
 20
176.8855954872728
 30
0.0
 10
137.9981964793727
 20
176.2251955041207
 30
0.0
 10
125.9331967871765
 20
153.5683960821438
 30
0.0
 10
125.9331967871765
 20
153.5683960821438
 30
0.0
 10
125.9331967871765
 20
153.5683960821438
 30
0.0
 10
125.1965968059687
 20
152.6285961061201
 30
0.0
 10
124.6123968208729
 20
152.6285961061201
 30
0.0
 10
124.5361968228169
 20
152.6285961061201
 30
0.0
 10
123.8757968396651
 20
152.6285961061201
 30
0.0
 10
122.7835968675295
 20
152.6285961061201
 30
0.0
  0
SPLINE
  5
7B
330
70
100
AcDbEntity
  8
Capa 1
 62
   250
420
  1907995
370
    13
100
AcDbSpline
210
0.0
220
0.0
230
1.0
 70
     8
 71
     3
 72
    14
 73
    10
 74
     0
 42
0.0000000001
 43
0.0000000001
 40
0.0
 40
0.0
 40
0.0
 40
0.0
 40
1.0
 40
1.0
 40
1.0
 40
2.0
 40
2.0
 40
2.0
 40
3.0
 40
3.0
 40
3.0
 40
3.0
 10
115.0111970658199
 20
225.6535942430972
 30
0.0
 10
115.0111970658199
 20
225.6535942430972
 30
0.0
 10
137.7695964852047
 20
225.6535942430972
 30
0.0
 10
137.7695964852047
 20
225.6535942430972
 30
0.0
 10
137.7695964852047
 20
225.6535942430972
 30
0.0
 10
138.4299964683565
 20
225.5773942450412
 30
0.0
 10
138.4299964683565
 20
224.9931942599454
 30
0.0
 10
138.4299964683565
 20
224.4343942742016
 30
0.0
 10
138.4299964683565
 20
222.4531943247462
 30
0.0
 10
138.4299964683565
 20
222.4531943247462
 30
0.0
  0
LWPOLYLINE
  5
7C
330
70
100
AcDbEntity
  8
Capa 1
 62
   250
420
  1907995
370
    13
100
AcDbPolyline
 90
        3
 70
     0
 43
0.0
 10
118.8973969666747
 20
222.4531943247462
 10
138.4299964683565
 20
222.4531943247462
 10
138.6331964631725
 20
205.7907947498394
  0
SPLINE
  5
7D
330
70
100
AcDbEntity
  8
Capa 1
 62
   250
420
  1907995
370
    13
100
AcDbSpline
210
0.0
220
0.0
230
1.0
 70
    11
 71
     3
 72
    17
 73
    13
 74
     0
 42
0.0000000001
 43
0.0000000001
 40
0.0
 40
0.0
 40
0.0
 40
0.0
 40
1.0
 40
1.0
 40
1.0
 40
2.0
 40
2.0
 40
2.0
 40
3.0
 40
3.0
 40
3.0
 40
4.0
 40
4.0
 40
4.0
 40
4.0
 10
86.46159779418088
 20
167.3859957296274
 30
0.0
 10
99.36479746499282
 20
167.3859957296274
 30
0.0
 10
109.8549971973655
 20
177.9015954613521
 30
0.0
 10
109.8549971973655
 20
190.8047951321641
 30
0.0
 10
109.8549971973655
 20
203.7079948029761
 30
0.0
 10
99.36479746499282
 20
214.2235945347008
 30
0.0
 10
86.46159779418088
 20
214.2235945347008
 30
0.0
 10
73.55839812336892
 20
214.2235945347008
 30
0.0
 10
63.04279839164422
 20
203.7079948029761
 30
0.0
 10
63.04279839164422
 20
190.8047951321641
 30
0.0
 10
63.04279839164422
 20
177.9015954613521
 30
0.0
 10
73.55839812336892
 20
167.3859957296274
 30
0.0
 10
86.46159779418088
 20
167.3859957296274
 30
0.0
  0
LWPOLYLINE
  5
7E
330
70
100
AcDbEntity
  8
Capa 1
 62
   250
420
  1907995
370
    13
100
AcDbPolyline
 90
        4
 70
     1
 43
0.0
 10
158.9277959454141
 20
152.8825960996403
 10
181.559195368039
 20
152.8825960996403
 10
181.559195368039
 20
226.0853942320811
 10
158.9277959454141
 20
226.0853942320811
  0
SPLINE
  5
7F
330
70
100
AcDbEntity
  8
Capa 1
 62
   250
420
  1907995
370
    13
100
AcDbSpline
210
0.0
220
0.0
230
1.0
 70
     8
 71
     3
 72
    23
 73
    19
 74
     0
 42
0.0000000001
 43
0.0000000001
 40
0.0
 40
0.0
 40
0.0
 40
0.0
 40
1.0
 40
1.0
 40
1.0
 40
2.0
 40
2.0
 40
2.0
 40
3.0
 40
3.0
 40
3.0
 40
4.0
 40
4.0
 40
4.0
 40
5.0
 40
5.0
 40
5.0
 40
6.0
 40
6.0
 40
6.0
 40
6.0
 10
181.559195368039
 20
152.8825960996403
 30
0.0
 10
181.559195368039
 20
152.8825960996403
 30
0.0
 10
181.686195364799
 20
152.4761961100081
 30
0.0
 10
182.1941953518388
 20
152.4761961100081
 30
0.0
 10
182.7021953388786
 20
152.4761961100081
 30
0.0
 10
189.3823951684526
 20
152.4761961100081
 30
0.0
 10
189.3823951684526
 20
152.4761961100081
 30
0.0
 10
189.8141951574364
 20
152.4507961106561
 30
0.0
 10
189.8395951567884
 20
151.5617961333364
 30
0.0
 10
189.4077951678046
 20
151.5617961333364
 30
0.0
 10
189.1791951736366
 20
151.5617961333364
 30
0.0
 10
181.9401953583189
 20
151.5617961333364
 30
0.0
 10
181.9401953583189
 20
151.5617961333364
 30
0.0
 10
181.9401953583189
 20
151.5617961333364
 30
0.0
 10
181.482995369983
 20
151.5363961339844
 30
0.0
 10
181.3051953745191
 20
151.7395961288004
 30
0.0
 10
181.1273953790552
 20
151.9427961236163
 30
0.0
 10
180.1367954043275
 20
152.8825960996403
 30
0.0
 10
180.1367954043275
 20
152.8825960996403
 30
0.0
  0
SPLINE
  5
80
330
70
100
AcDbEntity
  8
Capa 1
 62
   250
420
  1907995
370
    13
100
AcDbSpline
210
0.0
220
0.0
230
1.0
 70
     8
 71
     3
 72
    23
 73
    19
 74
     0
 42
0.0000000001
 43
0.0000000001
 40
0.0
 40
0.0
 40
0.0
 40
0.0
 40
1.0
 40
1.0
 40
1.0
 40
2.0
 40
2.0
 40
2.0
 40
3.0
 40
3.0
 40
3.0
 40
4.0
 40
4.0
 40
4.0
 40
5.0
 40
5.0
 40
5.0
 40
6.0
 40
6.0
 40
6.0
 40
6.0
 10
158.9277959454141
 20
152.8825960996403
 30
0.0
 10
158.9277959454141
 20
152.8825960996403
 30
0.0
 10
158.8007959486542
 20
152.4761961100081
 30
0.0
 10
158.2927959616143
 20
152.4761961100081
 30
0.0
 10
157.7847959745745
 20
152.4761961100081
 30
0.0
 10
151.1045961450006
 20
152.4761961100081
 30
0.0
 10
151.1045961450006
 20
152.4761961100081
 30
0.0
 10
150.6727961560167
 20
152.4507961106561
 30
0.0
 10
150.6473961566647
 20
151.5617961333364
 30
0.0
 10
151.0791961456486
 20
151.5617961333364
 30
0.0
 10
151.3077961398165
 20
151.5617961333364
 30
0.0
 10
158.5467959551342
 20
151.5617961333364
 30
0.0
 10
158.5467959551342
 20
151.5617961333364
 30
0.0
 10
158.5467959551342
 20
151.5617961333364
 30
0.0
 10
159.0039959434701
 20
151.5363961339844
 30
0.0
 10
159.181795938934
 20
151.7395961288004
 30
0.0
 10
159.359595934398
 20
151.9427961236163
 30
0.0
 10
160.3501959091257
 20
152.8825960996403
 30
0.0
 10
160.3501959091257
 20
152.8825960996403
 30
0.0
  0
LWPOLYLINE
  5
81
330
70
100
AcDbEntity
  8
Capa 1
 62
   250
420
  1907995
370
    13
100
AcDbPolyline
 90
       14
 70
     1
 43
0.0
 10
67.89419826787501
 20
154.8891960484474
 10
67.71639827241076
 20
154.6605960542794
 10
67.71639827241076
 20
151.1807961430565
 10
67.97039826593067
 20
150.9267961495366
 10
78.28279800283944
 20
150.9267961495366
 10
78.66379799311932
 20
151.3331961391685
 10
78.66379799311932
 20
154.7113960529834
 10
78.30819800219143
 20
155.0415960445593
 10
74.8791980896725
 20
155.0415960445593
 10
74.49819809939295
 20
155.2701960387272
 10
74.49819809939295
 20
157.1243959914227
 10
71.95819816419342
 20
157.1243959914227
 10
71.95819816419342
 20
155.2193960400233
 10
71.62799817261753
 20
154.8891960484474
  0
LWPOLYLINE
  5
82
330
70
100
AcDbEntity
  8
Capa 1
 62
   250
420
  1907995
370
    13
100
AcDbPolyline
 90
       14
 70
     1
 43
0.0
 10
112.0139971422848
 20
154.8891960484474
 10
111.8361971468209
 20
154.6605960542794
 10
111.8361971468209
 20
151.1807961430565
 10
112.0901971403408
 20
150.9267961495366
 10
122.3771968778976
 20
150.9267961495366
 10
122.7835968675295
 20
151.3331961391685
 10
122.7835968675295
 20
154.7113960529834
 10
122.4279968766015
 20
155.0415960445593
 10
118.9989969640826
 20
155.0415960445593
 10
118.6179969738028
 20
155.2701960387272
 10
118.6179969738028
 20
157.1243959914227
 10
116.0525970392516
 20
157.1243959914227
 10
116.0525970392516
 20
155.2193960400233
 10
115.7223970476757
 20
154.8891960484474
  0
LINE
  5
83
330
70
100
AcDbEntity
  8
Capa 1
 62
   250
420
  1907995
370
    13
100
AcDbLine
 10
67.71639827241076
 20
153.5175960834398
 30
0.0
 11
78.66379799311932
 21
153.5175960834398
 31
0.0
  0
LINE
  5
84
330
70
100
AcDbEntity
  8
Capa 1
 62
   250
420
  1907995
370
    13
100
AcDbLine
 10
111.8107971474689
 20
153.5175960834398
 30
0.0
 11
122.7581968681775
 21
153.5175960834398
 31
0.0
  0
LINE
  5
85
330
70
100
AcDbEntity
  8
Capa 1
 62
   250
420
  1907995
370
    13
100
AcDbLine
 10
67.71639827241076
 20
152.1459961184322
 30
0.0
 11
78.66379799311932
 21
152.1459961184322
 31
0.0
  0
LINE
  5
86
330
70
100
AcDbEntity
  8
Capa 1
 62
   250
420
  1907995
370
    13
100
AcDbLine
 10
111.8107971474689
 20
152.1459961184322
 30
0.0
 11
122.7581968681775
 21
152.1459961184322
 31
0.0
  0
LWPOLYLINE
  5
87
330
70
100
AcDbEntity
  8
Capa 1
 62
   250
420
  1907995
370
    13
100
AcDbPolyline
 90
        4
 70
     1
 43
0.0
 10
51.99379867352768
 20
98.95839747536095
 10
138.7601964599324
 20
98.95839747536095
 10
138.7601964599324
 20
120.0911969362183
 10
51.99379867352768
 20
120.0911969362183
  0
LWPOLYLINE
  5
88
330
70
100
AcDbEntity
  8
Capa 1
 62
   250
420
  1907995
370
    13
100
AcDbPolyline
 90
        4
 70
     1
 43
0.0
 10
87.65539776372449
 20
101.3459974144482
 10
112.5981971273807
 20
101.3459974144482
 10
112.5981971273807
 20
117.5003970023151
 10
87.65539776372449
 20
117.5003970023151
  0
LWPOLYLINE
  5
89
330
70
100
AcDbEntity
  8
Capa 1
 62
   250
420
  1907995
370
    13
100
AcDbPolyline
 90
        6
 70
     0
 43
0.0
 10
117.2971970074992
 20
120.0911969362183
 10
117.2971970074992
 20
118.1861969848189
 10
113.8681970949803
 20
118.1861969848189
 10
113.8681970949803
 20
100.8887974261123
 10
117.2717970081472
 20
100.8887974261123
 10
117.2717970081472
 20
98.95839747536095
  0
SPLINE
  5
8A
330
70
100
AcDbEntity
  8
Capa 1
 62
   250
420
  1907995
370
    13
100
AcDbSpline
210
0.0
220
0.0
230
1.0
 70
    11
 71
     3
 72
    26
 73
    22
 74
     0
 42
0.0000000001
 43
0.0000000001
 40
0.0
 40
0.0
 40
0.0
 40
0.0
 40
1.0
 40
1.0
 40
1.0
 40
2.0
 40
2.0
 40
2.0
 40
3.0
 40
3.0
 40
3.0
 40
4.0
 40
4.0
 40
4.0
 40
5.0
 40
5.0
 40
5.0
 40
6.0
 40
6.0
 40
6.0
 40
7.0
 40
7.0
 40
7.0
 40
7.0
 10
132.7403966135103
 20
111.8361971468209
 30
0.0
 10
132.7403966135103
 20
111.8361971468209
 30
0.0
 10
134.6199965655577
 20
111.8361971468209
 30
0.0
 10
134.6199965655577
 20
111.8361971468209
 30
0.0
 10
135.3311965474135
 20
113.4109971066444
 30
0.0
 10
136.931396506589
 20
114.528597078132
 30
0.0
 10
138.7601964599324
 20
114.528597078132
 30
0.0
 10
138.7601964599324
 20
114.528597078132
 30
0.0
 10
138.7601964599324
 20
109.9819971941255
 30
0.0
 10
138.7601964599324
 20
109.9819971941255
 30
0.0
 10
138.7601964599324
 20
109.9819971941255
 30
0.0
 10
138.7601964599324
 20
105.4353973101189
 30
0.0
 10
138.7601964599324
 20
105.4353973101189
 30
0.0
 10
136.905996507237
 20
105.4353973101189
 30
0.0
 10
135.2803965487095
 20
106.5783972809585
 30
0.0
 10
134.5945965662058
 20
108.203997239486
 30
0.0
 10
134.5945965662058
 20
108.203997239486
 30
0.0
 10
132.7403966135103
 20
108.203997239486
 30
0.0
 10
132.7403966135103
 20
108.203997239486
 30
0.0
 10
132.7403966135103
 20
108.203997239486
 30
0.0
 10
132.7403966135103
 20
111.8361971468209
 30
0.0
 10
132.7403966135103
 20
111.8361971468209
 30
0.0
  0
LWPOLYLINE
  5
8B
330
70
100
AcDbEntity
  8
Capa 1
 62
   250
420
  1907995
370
    13
100
AcDbPolyline
 90
        4
 70
     1
 43
0.0
 10
133.705596588886
 20
108.9659972200458
 10
137.4139964942769
 20
108.9659972200458
 10
137.4139964942769
 20
110.9217971701492
 10
133.705596588886
 20
110.9217971701492
  0
SPLINE
  5
8C
330
70
100
AcDbEntity
  8
Capa 1
 62
   250
420
  1907995
370
    13
100
AcDbSpline
210
0.0
220
0.0
230
1.0
 70
     8
 71
     3
 72
    35
 73
    31
 74
     0
 42
0.0000000001
 43
0.0000000001
 40
0.0
 40
0.0
 40
0.0
 40
0.0
 40
1.0
 40
1.0
 40
1.0
 40
2.0
 40
2.0
 40
2.0
 40
3.0
 40
3.0
 40
3.0
 40
4.0
 40
4.0
 40
4.0
 40
5.0
 40
5.0
 40
5.0
 40
6.0
 40
6.0
 40
6.0
 40
7.0
 40
7.0
 40
7.0
 40
8.0
 40
8.0
 40
8.0
 40
9.0
 40
9.0
 40
9.0
 40
10.0
 40
10.0
 40
10.0
 40
10.0
 10
111.7599971487649
 20
120.0911969362183
 30
0.0
 10
111.7599971487649
 20
120.0911969362183
 30
0.0
 10
111.7599971487649
 20
129.0319967081195
 30
0.0
 10
111.7599971487649
 20
129.0319967081195
 30
0.0
 10
111.7599971487649
 20
129.0319967081195
 30
0.0
 10
122.2247968817856
 20
129.0319967081195
 30
0.0
 10
122.2247968817856
 20
129.0319967081195
 30
0.0
 10
122.2247968817856
 20
129.0319967081195
 30
0.0
 10
122.5803968727135
 20
128.9049967113595
 30
0.0
 10
122.5803968727135
 20
128.6763967171916
 30
0.0
 10
122.5803968727135
 20
128.4477967230237
 30
0.0
 10
122.5803968727135
 20
127.0253967593121
 30
0.0
 10
122.5803968727135
 20
127.0253967593121
 30
0.0
 10
122.5803968727135
 20
127.0253967593121
 30
0.0
 10
122.5803968727135
 20
126.5681967709763
 30
0.0
 10
122.3263968791936
 20
126.5681967709763
 30
0.0
 10
122.0723968856737
 20
126.5681967709763
 30
0.0
 10
120.0657969368663
 20
126.5427967716243
 30
0.0
 10
117.2463970087952
 20
126.5681967709763
 30
0.0
 10
114.4269970807241
 20
126.6189967696802
 30
0.0
 10
114.4015970813721
 20
122.1993968824336
 30
0.0
 10
117.2463970087952
 20
122.1993968824336
 30
0.0
 10
117.2463970087952
 20
122.1993968824336
 30
0.0
 10
122.4279968766015
 20
122.1993968824336
 30
0.0
 10
122.4279968766015
 20
122.1993968824336
 30
0.0
 10
122.4279968766015
 20
122.1993968824336
 30
0.0
 10
122.6819968701215
 20
121.9961968876177
 30
0.0
 10
122.6819968701215
 20
121.7421968940978
 30
0.0
 10
122.6819968701215
 20
121.4627969012259
 30
0.0
 10
122.6819968701215
 20
120.0911969362183
 30
0.0
 10
122.6819968701215
 20
120.0911969362183
 30
0.0
  0
SPLINE
  5
8D
330
70
100
AcDbEntity
  8
Capa 1
 62
   250
420
  1907995
370
    13
100
AcDbSpline
210
0.0
220
0.0
230
1.0
 70
     8
 71
     3
 72
    35
 73
    31
 74
     0
 42
0.0000000001
 43
0.0000000001
 40
0.0
 40
0.0
 40
0.0
 40
0.0
 40
1.0
 40
1.0
 40
1.0
 40
2.0
 40
2.0
 40
2.0
 40
3.0
 40
3.0
 40
3.0
 40
4.0
 40
4.0
 40
4.0
 40
5.0
 40
5.0
 40
5.0
 40
6.0
 40
6.0
 40
6.0
 40
7.0
 40
7.0
 40
7.0
 40
8.0
 40
8.0
 40
8.0
 40
9.0
 40
9.0
 40
9.0
 40
10.0
 40
10.0
 40
10.0
 40
10.0
 10
111.7599971487649
 20
99.00919747406494
 30
0.0
 10
111.7599971487649
 20
99.00919747406494
 30
0.0
 10
111.7599971487649
 20
90.06839770216373
 30
0.0
 10
111.7599971487649
 20
90.06839770216373
 30
0.0
 10
111.7599971487649
 20
90.06839770216373
 30
0.0
 10
122.2247968817856
 20
90.06839770216373
 30
0.0
 10
122.2247968817856
 20
90.06839770216373
 30
0.0
 10
122.2247968817856
 20
90.06839770216373
 30
0.0
 10
122.5803968727135
 20
90.1953976989237
 30
0.0
 10
122.5803968727135
 20
90.42399769309163
 30
0.0
 10
122.5803968727135
 20
90.65259768725956
 30
0.0
 10
122.5803968727135
 20
92.07499765097111
 30
0.0
 10
122.5803968727135
 20
92.07499765097111
 30
0.0
 10
122.5803968727135
 20
92.07499765097111
 30
0.0
 10
122.5803968727135
 20
92.53219763930697
 30
0.0
 10
122.3263968791936
 20
92.53219763930697
 30
0.0
 10
122.0723968856737
 20
92.53219763930697
 30
0.0
 10
120.0657969368663
 20
92.58299763801096
 30
0.0
 10
117.2463970087952
 20
92.53219763930697
 30
0.0
 10
114.4269970807241
 20
92.48139764060297
 30
0.0
 10
114.4015970813721
 20
96.92639752720159
 30
0.0
 10
117.2463970087952
 20
96.92639752720159
 30
0.0
 10
117.2463970087952
 20
96.92639752720159
 30
0.0
 10
122.4279968766015
 20
96.92639752720159
 30
0.0
 10
122.4279968766015
 20
96.92639752720159
 30
0.0
 10
122.4279968766015
 20
96.92639752720159
 30
0.0
 10
122.6819968701215
 20
97.10419752266552
 30
0.0
 10
122.6819968701215
 20
97.38359751553744
 30
0.0
 10
122.6819968701215
 20
97.63759750905737
 30
0.0
 10
122.6819968701215
 20
99.00919747406494
 30
0.0
 10
122.6819968701215
 20
99.00919747406494
 30
0.0
  0
SPLINE
  5
8E
330
70
100
AcDbEntity
  8
Capa 1
 62
   250
420
  1907995
370
    13
100
AcDbSpline
210
0.0
220
0.0
230
1.0
 70
     8
 71
     3
 72
    35
 73
    31
 74
     0
 42
0.0000000001
 43
0.0000000001
 40
0.0
 40
0.0
 40
0.0
 40
0.0
 40
1.0
 40
1.0
 40
1.0
 40
2.0
 40
2.0
 40
2.0
 40
3.0
 40
3.0
 40
3.0
 40
4.0
 40
4.0
 40
4.0
 40
5.0
 40
5.0
 40
5.0
 40
6.0
 40
6.0
 40
6.0
 40
7.0
 40
7.0
 40
7.0
 40
8.0
 40
8.0
 40
8.0
 40
9.0
 40
9.0
 40
9.0
 40
10.0
 40
10.0
 40
10.0
 40
10.0
 10
67.81799826981871
 20
120.0911969362183
 30
0.0
 10
67.81799826981871
 20
120.0911969362183
 30
0.0
 10
67.81799826981871
 20
129.0319967081195
 30
0.0
 10
67.81799826981871
 20
129.0319967081195
 30
0.0
 10
67.81799826981871
 20
129.0319967081195
 30
0.0
 10
78.28279800283944
 20
129.0319967081195
 30
0.0
 10
78.28279800283944
 20
129.0319967081195
 30
0.0
 10
78.28279800283944
 20
129.0319967081195
 30
0.0
 10
78.63839799376733
 20
128.9049967113595
 30
0.0
 10
78.63839799376733
 20
128.6763967171916
 30
0.0
 10
78.63839799376733
 20
128.4477967230237
 30
0.0
 10
78.63839799376733
 20
127.0253967593121
 30
0.0
 10
78.63839799376733
 20
127.0253967593121
 30
0.0
 10
78.63839799376733
 20
127.0253967593121
 30
0.0
 10
78.63839799376733
 20
126.5681967709763
 30
0.0
 10
78.3843980002474
 20
126.5681967709763
 30
0.0
 10
78.13039800672749
 20
126.5681967709763
 30
0.0
 10
76.12379805792011
 20
126.5427967716243
 30
0.0
 10
73.304398129849
 20
126.5681967709763
 30
0.0
 10
70.48499820177788
 20
126.6189967696802
 30
0.0
 10
70.4595982024259
 20
122.1993968824336
 30
0.0
 10
73.304398129849
 20
122.1993968824336
 30
0.0
 10
73.304398129849
 20
122.1993968824336
 30
0.0
 10
78.46059799830339
 20
122.1993968824336
 30
0.0
 10
78.46059799830339
 20
122.1993968824336
 30
0.0
 10
78.46059799830339
 20
122.1993968824336
 30
0.0
 10
78.7399979911753
 20
121.9961968876177
 30
0.0
 10
78.7399979911753
 20
121.7421968940978
 30
0.0
 10
78.7399979911753
 20
121.4627969012259
 30
0.0
 10
78.7399979911753
 20
120.0911969362183
 30
0.0
 10
78.7399979911753
 20
120.0911969362183
 30
0.0
  0
SPLINE
  5
8F
330
70
100
AcDbEntity
  8
Capa 1
 62
   250
420
  1907995
370
    13
100
AcDbSpline
210
0.0
220
0.0
230
1.0
 70
     8
 71
     3
 72
    35
 73
    31
 74
     0
 42
0.0000000001
 43
0.0000000001
 40
0.0
 40
0.0
 40
0.0
 40
0.0
 40
1.0
 40
1.0
 40
1.0
 40
2.0
 40
2.0
 40
2.0
 40
3.0
 40
3.0
 40
3.0
 40
4.0
 40
4.0
 40
4.0
 40
5.0
 40
5.0
 40
5.0
 40
6.0
 40
6.0
 40
6.0
 40
7.0
 40
7.0
 40
7.0
 40
8.0
 40
8.0
 40
8.0
 40
9.0
 40
9.0
 40
9.0
 40
10.0
 40
10.0
 40
10.0
 40
10.0
 10
67.81799826981871
 20
99.00919747406494
 30
0.0
 10
67.81799826981871
 20
99.00919747406494
 30
0.0
 10
67.81799826981871
 20
90.06839770216373
 30
0.0
 10
67.81799826981871
 20
90.06839770216373
 30
0.0
 10
67.81799826981871
 20
90.06839770216373
 30
0.0
 10
78.28279800283944
 20
90.06839770216373
 30
0.0
 10
78.28279800283944
 20
90.06839770216373
 30
0.0
 10
78.28279800283944
 20
90.06839770216373
 30
0.0
 10
78.63839799376733
 20
90.1953976989237
 30
0.0
 10
78.63839799376733
 20
90.42399769309163
 30
0.0
 10
78.63839799376733
 20
90.65259768725956
 30
0.0
 10
78.63839799376733
 20
92.07499765097111
 30
0.0
 10
78.63839799376733
 20
92.07499765097111
 30
0.0
 10
78.63839799376733
 20
92.07499765097111
 30
0.0
 10
78.63839799376733
 20
92.53219763930697
 30
0.0
 10
78.3843980002474
 20
92.53219763930697
 30
0.0
 10
78.13039800672749
 20
92.53219763930697
 30
0.0
 10
76.12379805792011
 20
92.58299763801096
 30
0.0
 10
73.304398129849
 20
92.53219763930697
 30
0.0
 10
70.48499820177788
 20
92.48139764060297
 30
0.0
 10
70.4595982024259
 20
96.92639752720159
 30
0.0
 10
73.304398129849
 20
96.92639752720159
 30
0.0
 10
73.304398129849
 20
96.92639752720159
 30
0.0
 10
78.46059799830339
 20
96.92639752720159
 30
0.0
 10
78.46059799830339
 20
96.92639752720159
 30
0.0
 10
78.46059799830339
 20
96.92639752720159
 30
0.0
 10
78.7399979911753
 20
97.10419752266552
 30
0.0
 10
78.7399979911753
 20
97.38359751553744
 30
0.0
 10
78.7399979911753
 20
97.63759750905737
 30
0.0
 10
78.7399979911753
 20
99.00919747406494
 30
0.0
 10
78.7399979911753
 20
99.00919747406494
 30
0.0
  0
LINE
  5
90
330
70
100
AcDbEntity
  8
Capa 1
 62
   250
420
  1907995
370
     9
100
AcDbLine
 10
51.58739868389581
 20
207.7211947005908
 30
0.0
 11
51.58739868389581
 21
237.9725939288133
 31
0.0
  0
LINE
  5
91
330
70
100
AcDbEntity
  8
Capa 1
 62
   250
420
  1907995
370
     9
100
AcDbLine
 10
138.4299964683565
 20
228.4983941705203
 30
0.0
 11
138.4299964683565
 21
237.9725939288133
 31
0.0
  0
LINE
  5
92
330
70
100
AcDbEntity
  8
Capa 1
 62
   250
420
  1907995
370
     9
100
AcDbLine
 10
51.58739868389581
 20
236.5247939657498
 30
0.0
 11
90.46209953688629
 21
236.5247939657498
 31
0.0
  0
LINE
  5
93
330
70
100
AcDbEntity
  8
Capa 1
 62
   250
420
  1907995
370
     9
100
AcDbLine
 10
138.4299964683565
 20
236.5247939657498
 30
0.0
 11
102.4635973859358
 21
236.5247939657498
 31
0.0
  0
LINE
  5
94
330
70
100
AcDbEntity
  8
Capa 1
 62
   250
420
  1907995
370
     9
100
AcDbLine
 10
60.75679844996494
 20
225.6535942430972
 30
0.0
 11
40.28439897225935
 21
225.6535942430972
 31
0.0
  0
LINE
  5
95
330
70
100
AcDbEntity
  8
Capa 1
 62
   250
420
  1907995
370
     9
100
AcDbLine
 10
60.75679844996494
 20
150.8251961521287
 30
0.0
 11
40.28439897225935
 21
150.8251961521287
 31
0.0
  0
LINE
  5
96
330
70
100
AcDbEntity
  8
Capa 1
 62
   250
420
  1907995
370
     9
100
AcDbLine
 10
42.26559892171474
 20
150.8251961521287
 30
0.0
 11
42.26559892171474
 21
185.3183952721338
 31
0.0
  0
LINE
  5
97
330
70
100
AcDbEntity
  8
Capa 1
 62
   250
420
  1907995
370
     9
100
AcDbLine
 10
42.26559892171474
 20
225.6535942430972
 30
0.0
 11
42.26559892171474
 21
192.7097950835635
 31
0.0
  0
LINE
  5
98
330
70
100
AcDbEntity
  8
Capa 1
 62
   250
420
  1907995
370
     9
100
AcDbLine
 10
64.87159834498765
 20
181.711595364151
 30
0.0
 11
81.50859792054243
 21
188.7473951846528
 31
0.0
  0
LINE
  5
99
330
70
100
AcDbEntity
  8
Capa 1
 62
   250
420
  1907995
370
     9
100
AcDbLine
 10
107.9499972459661
 20
199.9487948988812
 30
0.0
 11
92.15119764902707
 21
193.2431950699553
 31
0.0
  0
LINE
  5
9A
330
70
100
AcDbEntity
  8
Capa 1
 62
   250
420
  1907995
370
     9
100
AcDbLine
 10
158.8769959467101
 20
228.4221941724643
 30
0.0
 11
158.8769959467101
 21
238.4805939158532
 31
0.0
  0
LINE
  5
9B
330
70
100
AcDbEntity
  8
Capa 1
 62
   250
420
  1907995
370
     9
100
AcDbLine
 10
181.609995366743
 20
228.4221941724643
 30
0.0
 11
181.609995366743
 21
238.4805939158532
 31
0.0
  0
LINE
  5
9C
330
70
100
AcDbEntity
  8
Capa 1
 62
   250
420
  1907995
370
     9
100
AcDbLine
 10
158.8769959467101
 20
236.8803939566777
 30
0.0
 11
166.0651957633239
 21
236.8803939566777
 31
0.0
  0
LINE
  5
9D
330
70
100
AcDbEntity
  8
Capa 1
 62
   250
420
  1907995
370
     9
100
AcDbLine
 10
181.609995366743
 20
236.8803939566777
 30
0.0
 11
174.3963955507773
 21
236.8803939566777
 31
0.0
  0
LINE
  5
9E
330
70
100
AcDbEntity
  8
Capa 1
 62
   250
420
  1907995
370
     9
100
AcDbLine
 10
52.12079867028765
 20
122.1993968824336
 30
0.0
 11
52.12079867028765
 21
137.2869964975169
 31
0.0
  0
LINE
  5
9F
330
70
100
AcDbEntity
  8
Capa 1
 62
   250
420
  1907995
370
     9
100
AcDbLine
 10
73.45679812596095
 20
131.5973966426707
 30
0.0
 11
73.45679812596095
 21
137.2869964975169
 31
0.0
  0
LINE
  5
A0
330
70
100
AcDbEntity
  8
Capa 1
 62
   250
420
  1907995
370
     9
100
AcDbLine
 10
73.45679812596095
 20
121.4881969005779
 30
0.0
 11
73.45679812596095
 21
127.279396752832
 31
0.0
  0
LINE
  5
A1
330
70
100
AcDbEntity
  8
Capa 1
 62
   250
420
  1907995
370
     9
100
AcDbLine
 10
73.45679812596095
 20
91.79559765809919
 30
0.0
 11
73.45679812596095
 21
97.56139751100139
 31
0.0
  0
LINE
  5
A2
330
70
100
AcDbEntity
  8
Capa 1
 62
   250
420
  1907995
370
     9
100
AcDbLine
 10
117.3479970062032
 20
121.4881969005779
 30
0.0
 11
117.3479970062032
 21
127.279396752832
 31
0.0
  0
LINE
  5
A3
330
70
100
AcDbEntity
  8
Capa 1
 62
   250
420
  1907995
370
     9
100
AcDbLine
 10
117.3479970062032
 20
91.79559765809919
 30
0.0
 11
117.3479970062032
 21
97.56139751100139
 31
0.0
  0
LINE
  5
A4
330
70
100
AcDbEntity
  8
Capa 1
 62
   250
420
  1907995
370
     9
100
AcDbLine
 10
117.2971970074992
 20
131.5973966426707
 30
0.0
 11
117.2971970074992
 21
137.2869964975169
 31
0.0
  0
LINE
  5
A5
330
70
100
AcDbEntity
  8
Capa 1
 62
   250
420
  1907995
370
     9
100
AcDbLine
 10
52.12079867028765
 20
135.5343965422294
 30
0.0
 11
59.99479846940517
 21
135.5343965422294
 31
0.0
  0
LINE
  5
A6
330
70
100
AcDbEntity
  8
Capa 1
 62
   250
420
  1907995
370
     9
100
AcDbLine
 10
73.45679812596095
 20
135.5343965422294
 30
0.0
 11
65.58279832684341
 21
135.5343965422294
 31
0.0
  0
LINE
  5
A7
330
70
100
AcDbEntity
  8
Capa 1
 62
   250
420
  1907995
370
     9
100
AcDbLine
 10
73.45679812596095
 20
135.5343965422294
 30
0.0
 11
92.76079763347489
 21
135.5343965422294
 31
0.0
  0
LINE
  5
A8
330
70
100
AcDbEntity
  8
Capa 1
 62
   250
420
  1907995
370
     9
100
AcDbLine
 10
117.2971970074992
 20
135.5343965422294
 30
0.0
 11
98.01859749933726
 21
135.5343965422294
 31
0.0
  0
LINE
  5
A9
330
70
100
AcDbEntity
  8
Capa 1
 62
   250
420
  1907995
370
     9
100
AcDbLine
 10
64.99859834174761
 20
124.3837968267049
 30
0.0
 11
40.61459896383525
 21
124.3837968267049
 31
0.0
  0
LINE
  5
AA
330
70
100
AcDbEntity
  8
Capa 1
 62
   250
420
  1907995
370
     9
100
AcDbLine
 10
76.25079805468008
 20
124.3837968267049
 30
0.0
 11
70.66279819724183
 21
124.3837968267049
 31
0.0
  0
LINE
  5
AB
330
70
100
AcDbEntity
  8
Capa 1
 62
   250
420
  1907995
370
     9
100
AcDbLine
 10
76.25079805468008
 20
94.69119758422628
 30
0.0
 11
70.66279819724183
 21
94.69119758422628
 31
0.0
  0
LINE
  5
AC
330
70
100
AcDbEntity
  8
Capa 1
 62
   250
420
  1907995
370
     9
100
AcDbLine
 10
120.1419969349223
 20
124.3837968267049
 30
0.0
 11
114.553997077484
 21
124.3837968267049
 31
0.0
  0
LINE
  5
AD
330
70
100
AcDbEntity
  8
Capa 1
 62
   250
420
  1907995
370
     9
100
AcDbLine
 10
120.1419969349223
 20
94.69119758422628
 30
0.0
 11
114.553997077484
 21
94.69119758422628
 31
0.0
  0
LINE
  5
AE
330
70
100
AcDbEntity
  8
Capa 1
 62
   250
420
  1907995
370
     9
100
AcDbLine
 10
64.99859834174761
 20
94.6403975855223
 30
0.0
 11
40.61459896383525
 21
94.6403975855223
 31
0.0
  0
LINE
  5
AF
330
70
100
AcDbEntity
  8
Capa 1
 62
   250
420
  1907995
370
     9
100
AcDbLine
 10
42.11319892560278
 20
124.3837968267049
 30
0.0
 11
42.11319892560278
 21
113.7157970988683
 31
0.0
  0
LINE
  5
B0
330
70
100
AcDbEntity
  8
Capa 1
 62
   250
420
  1907995
370
     9
100
AcDbLine
 10
42.11319892560278
 20
94.6403975855223
 30
0.0
 11
42.11319892560278
 21
105.3083973133589
 31
0.0
  0
SPLINE
  5
B1
330
70
100
AcDbEntity
  8
Capa 1
100
AcDbSpline
210
0.0
220
0.0
230
1.0
 70
     9
 71
     3
 72
    95
 73
    91
 74
     0
 42
0.0000000001
 43
0.0000000001
 40
0.0
 40
0.0
 40
0.0
 40
0.0
 40
1.0
 40
1.0
 40
1.0
 40
2.0
 40
2.0
 40
2.0
 40
3.0
 40
3.0
 40
3.0
 40
4.0
 40
4.0
 40
4.0
 40
5.0
 40
5.0
 40
5.0
 40
6.0
 40
6.0
 40
6.0
 40
7.0
 40
7.0
 40
7.0
 40
8.0
 40
8.0
 40
8.0
 40
9.0
 40
9.0
 40
9.0
 40
10.0
 40
10.0
 40
10.0
 40
11.0
 40
11.0
 40
11.0
 40
12.0
 40
12.0
 40
12.0
 40
13.0
 40
13.0
 40
13.0
 40
14.0
 40
14.0
 40
14.0
 40
15.0
 40
15.0
 40
15.0
 40
16.0
 40
16.0
 40
16.0
 40
17.0
 40
17.0
 40
17.0
 40
18.0
 40
18.0
 40
18.0
 40
19.0
 40
19.0
 40
19.0
 40
20.0
 40
20.0
 40
20.0
 40
21.0
 40
21.0
 40
21.0
 40
22.0
 40
22.0
 40
22.0
 40
23.0
 40
23.0
 40
23.0
 40
24.0
 40
24.0
 40
24.0
 40
25.0
 40
25.0
 40
25.0
 40
26.0
 40
26.0
 40
26.0
 40
27.0
 40
27.0
 40
27.0
 40
28.0
 40
28.0
 40
28.0
 40
29.0
 40
29.0
 40
29.0
 40
30.0
 40
30.0
 40
30.0
 40
30.0
 10
167.0049957393476
 20
236.0929939767659
 30
0.0
 10
167.0049957393476
 20
236.0929939767659
 30
0.0
 10
167.5129957263874
 20
236.1691939748219
 30
0.0
 10
167.5129957263874
 20
236.1691939748219
 30
0.0
 10
167.5891957244434
 20
235.864393982598
 30
0.0
 10
167.6907957218513
 20
235.6357939884301
 30
0.0
 10
167.8177957186113
 20
235.5087939916701
 30
0.0
 10
167.9701957147233
 20
235.3817939949101
 30
0.0
 10
168.1479957101872
 20
235.3309939962062
 30
0.0
 10
168.3511957050031
 20
235.3309939962062
 30
0.0
 10
168.6051956985231
 20
235.3309939962062
 30
0.0
 10
168.808395693339
 20
235.4071939942621
 30
0.0
 10
168.9861956888029
 20
235.5849939897261
 30
0.0
 10
169.1385956849149
 20
235.737393985838
 30
0.0
 10
169.2401956823229
 20
235.965993980006
 30
0.0
 10
169.2401956823229
 20
236.2199939735259
 30
0.0
 10
169.2401956823229
 20
236.4485939676938
 30
0.0
 10
169.1385956849149
 20
236.6517939625097
 30
0.0
 10
168.9861956888029
 20
236.8041939586217
 30
0.0
 10
168.833795692691
 20
236.9565939547336
 30
0.0
 10
168.6305956978751
 20
237.0327939527896
 30
0.0
 10
168.4019957037071
 20
237.0327939527896
 30
0.0
 10
168.3003957062991
 20
237.0327939527896
 30
0.0
 10
168.1733957095392
 20
237.0073939534376
 30
0.0
 10
168.0209957134272
 20
236.9819939540857
 30
0.0
 10
168.0209957134272
 20
236.9819939540857
 30
0.0
 10
168.0971957114832
 20
237.4391939424215
 30
0.0
 10
168.0971957114832
 20
237.4391939424215
 30
0.0
 10
168.1225957108352
 20
237.4391939424215
 30
0.0
 10
168.1479957101872
 20
237.4391939424215
 30
0.0
 10
168.1733957095392
 20
237.4391939424215
 30
0.0
 10
168.4019957037071
 20
237.4391939424215
 30
0.0
 10
168.5797956991711
 20
237.4899939411255
 30
0.0
 10
168.757595694635
 20
237.6169939378854
 30
0.0
 10
168.9607956894509
 20
237.7185939352934
 30
0.0
 10
169.0369956875069
 20
237.8963939307574
 30
0.0
 10
169.0369956875069
 20
238.1503939242773
 30
0.0
 10
169.0369956875069
 20
238.3281939197412
 30
0.0
 10
168.9607956894509
 20
238.5059939152052
 30
0.0
 10
168.833795692691
 20
238.6329939119651
 30
0.0
 10
168.706795695931
 20
238.7599939087251
 30
0.0
 10
168.5543956998191
 20
238.810793907429
 30
0.0
 10
168.3511957050031
 20
238.810793907429
 30
0.0
 10
168.1479957101872
 20
238.810793907429
 30
0.0
 10
167.9701957147233
 20
238.7345939093731
 30
0.0
 10
167.8431957179633
 20
238.6075939126131
 30
0.0
 10
167.6907957218513
 20
238.4805939158532
 30
0.0
 10
167.6145957237954
 20
238.3027939203892
 30
0.0
 10
167.5637957250914
 20
238.0487939268693
 30
0.0
 10
167.5637957250914
 20
238.0487939268693
 30
0.0
 10
167.0557957380516
 20
238.1249939249253
 30
0.0
 10
167.0557957380516
 20
238.1249939249253
 30
0.0
 10
167.1065957367555
 20
238.4805939158532
 30
0.0
 10
167.2589957328675
 20
238.7599939087251
 30
0.0
 10
167.4875957270354
 20
238.963193903541
 30
0.0
 10
167.7161957212033
 20
239.140993899005
 30
0.0
 10
167.9955957140752
 20
239.2425938964129
 30
0.0
 10
168.3257957056512
 20
239.2425938964129
 30
0.0
 10
168.5543956998191
 20
239.2425938964129
 30
0.0
 10
168.782995693987
 20
239.191793897709
 30
0.0
 10
168.9607956894509
 20
239.090193900301
 30
0.0
 10
169.1639956842669
 20
238.988593902893
 30
0.0
 10
169.3163956803789
 20
238.8615939061331
 30
0.0
 10
169.4179956777868
 20
238.6837939106691
 30
0.0
 10
169.5195956751948
 20
238.5059939152052
 30
0.0
 10
169.5703956738988
 20
238.3281939197412
 30
0.0
 10
169.5703956738988
 20
238.1249939249253
 30
0.0
 10
169.5703956738988
 20
237.9471939294614
 30
0.0
 10
169.5195956751948
 20
237.7947939333494
 30
0.0
 10
169.4179956777868
 20
237.6423939372374
 30
0.0
 10
169.3163956803789
 20
237.4899939411255
 30
0.0
 10
169.1893956836189
 20
237.3629939443655
 30
0.0
 10
168.9861956888029
 20
237.2613939469576
 30
0.0
 10
169.2401956823229
 20
237.2105939482536
 30
0.0
 10
169.4433956771388
 20
237.0835939514936
 30
0.0
 10
169.5703956738988
 20
236.9057939560297
 30
0.0
 10
169.7227956700107
 20
236.7279939605657
 30
0.0
 10
169.7735956687147
 20
236.4993939663978
 30
0.0
 10
169.7735956687147
 20
236.2199939735259
 30
0.0
 10
169.7735956687147
 20
235.838993983246
 30
0.0
 10
169.6465956719547
 20
235.5341939910221
 30
0.0
 10
169.3671956790828
 20
235.2801939975022
 30
0.0
 10
169.1131956855629
 20
235.0261940039823
 30
0.0
 10
168.757595694635
 20
234.8991940072223
 30
0.0
 10
168.3511957050031
 20
234.8991940072223
 30
0.0
 10
167.9701957147233
 20
234.8991940072223
 30
0.0
 10
167.6653957224994
 20
235.0007940046303
 30
0.0
 10
167.4113957289794
 20
235.2293939987982
 30
0.0
 10
167.1573957354595
 20
235.4325939936141
 30
0.0
 10
167.0303957386995
 20
235.737393985838
 30
0.0
 10
167.0049957393476
 20
236.0929939767659
 30
0.0
  0
HATCH
  5
B2
330
70
100
AcDbEntity
  8
Capa 1
 62
   250
420
  1907995
440
 33554687
100
AcDbHatch
 10
0.0
 20
0.0
 30
0.0
210
0.0
220
0.0
230
1.0
  2
SOLID
 70
     1
 71
     1
 91
        1
 92
        1
 93
        1
 72
     4
 94
        3
 73
     0
 74
     0
 95
       95
 96
       91
 40
0.0
 40
0.0
 40
0.0
 40
0.0
 40
1.0
 40
1.0
 40
1.0
 40
2.0
 40
2.0
 40
2.0
 40
3.0
 40
3.0
 40
3.0
 40
4.0
 40
4.0
 40
4.0
 40
5.0
 40
5.0
 40
5.0
 40
6.0
 40
6.0
 40
6.0
 40
7.0
 40
7.0
 40
7.0
 40
8.0
 40
8.0
 40
8.0
 40
9.0
 40
9.0
 40
9.0
 40
10.0
 40
10.0
 40
10.0
 40
11.0
 40
11.0
 40
11.0
 40
12.0
 40
12.0
 40
12.0
 40
13.0
 40
13.0
 40
13.0
 40
14.0
 40
14.0
 40
14.0
 40
15.0
 40
15.0
 40
15.0
 40
16.0
 40
16.0
 40
16.0
 40
17.0
 40
17.0
 40
17.0
 40
18.0
 40
18.0
 40
18.0
 40
19.0
 40
19.0
 40
19.0
 40
20.0
 40
20.0
 40
20.0
 40
21.0
 40
21.0
 40
21.0
 40
22.0
 40
22.0
 40
22.0
 40
23.0
 40
23.0
 40
23.0
 40
24.0
 40
24.0
 40
24.0
 40
25.0
 40
25.0
 40
25.0
 40
26.0
 40
26.0
 40
26.0
 40
27.0
 40
27.0
 40
27.0
 40
28.0
 40
28.0
 40
28.0
 40
29.0
 40
29.0
 40
29.0
 40
30.0
 40
30.0
 40
30.0
 40
30.0
 10
167.0049957393476
 20
236.0929939767659
 10
167.0049957393476
 20
236.0929939767659
 10
167.5129957263874
 20
236.1691939748219
 10
167.5129957263874
 20
236.1691939748219
 10
167.5891957244434
 20
235.864393982598
 10
167.6907957218513
 20
235.6357939884301
 10
167.8177957186113
 20
235.5087939916701
 10
167.9701957147233
 20
235.3817939949101
 10
168.1479957101872
 20
235.3309939962062
 10
168.3511957050031
 20
235.3309939962062
 10
168.6051956985231
 20
235.3309939962062
 10
168.808395693339
 20
235.4071939942621
 10
168.9861956888029
 20
235.5849939897261
 10
169.1385956849149
 20
235.737393985838
 10
169.2401956823229
 20
235.965993980006
 10
169.2401956823229
 20
236.2199939735259
 10
169.2401956823229
 20
236.4485939676938
 10
169.1385956849149
 20
236.6517939625097
 10
168.9861956888029
 20
236.8041939586217
 10
168.833795692691
 20
236.9565939547336
 10
168.6305956978751
 20
237.0327939527896
 10
168.4019957037071
 20
237.0327939527896
 10
168.3003957062991
 20
237.0327939527896
 10
168.1733957095392
 20
237.0073939534376
 10
168.0209957134272
 20
236.9819939540857
 10
168.0209957134272
 20
236.9819939540857
 10
168.0971957114832
 20
237.4391939424215
 10
168.0971957114832
 20
237.4391939424215
 10
168.1225957108352
 20
237.4391939424215
 10
168.1479957101872
 20
237.4391939424215
 10
168.1733957095392
 20
237.4391939424215
 10
168.4019957037071
 20
237.4391939424215
 10
168.5797956991711
 20
237.4899939411255
 10
168.757595694635
 20
237.6169939378854
 10
168.9607956894509
 20
237.7185939352934
 10
169.0369956875069
 20
237.8963939307574
 10
169.0369956875069
 20
238.1503939242773
 10
169.0369956875069
 20
238.3281939197412
 10
168.9607956894509
 20
238.5059939152052
 10
168.833795692691
 20
238.6329939119651
 10
168.706795695931
 20
238.7599939087251
 10
168.5543956998191
 20
238.810793907429
 10
168.3511957050031
 20
238.810793907429
 10
168.1479957101872
 20
238.810793907429
 10
167.9701957147233
 20
238.7345939093731
 10
167.8431957179633
 20
238.6075939126131
 10
167.6907957218513
 20
238.4805939158532
 10
167.6145957237954
 20
238.3027939203892
 10
167.5637957250914
 20
238.0487939268693
 10
167.5637957250914
 20
238.0487939268693
 10
167.0557957380516
 20
238.1249939249253
 10
167.0557957380516
 20
238.1249939249253
 10
167.1065957367555
 20
238.4805939158532
 10
167.2589957328675
 20
238.7599939087251
 10
167.4875957270354
 20
238.963193903541
 10
167.7161957212033
 20
239.140993899005
 10
167.9955957140752
 20
239.2425938964129
 10
168.3257957056512
 20
239.2425938964129
 10
168.5543956998191
 20
239.2425938964129
 10
168.782995693987
 20
239.191793897709
 10
168.9607956894509
 20
239.090193900301
 10
169.1639956842669
 20
238.988593902893
 10
169.3163956803789
 20
238.8615939061331
 10
169.4179956777868
 20
238.6837939106691
 10
169.5195956751948
 20
238.5059939152052
 10
169.5703956738988
 20
238.3281939197412
 10
169.5703956738988
 20
238.1249939249253
 10
169.5703956738988
 20
237.9471939294614
 10
169.5195956751948
 20
237.7947939333494
 10
169.4179956777868
 20
237.6423939372374
 10
169.3163956803789
 20
237.4899939411255
 10
169.1893956836189
 20
237.3629939443655
 10
168.9861956888029
 20
237.2613939469576
 10
169.2401956823229
 20
237.2105939482536
 10
169.4433956771388
 20
237.0835939514936
 10
169.5703956738988
 20
236.9057939560297
 10
169.7227956700107
 20
236.7279939605657
 10
169.7735956687147
 20
236.4993939663978
 10
169.7735956687147
 20
236.2199939735259
 10
169.7735956687147
 20
235.838993983246
 10
169.6465956719547
 20
235.5341939910221
 10
169.3671956790828
 20
235.2801939975022
 10
169.1131956855629
 20
235.0261940039823
 10
168.757595694635
 20
234.8991940072223
 10
168.3511957050031
 20
234.8991940072223
 10
167.9701957147233
 20
234.8991940072223
 10
167.6653957224994
 20
235.0007940046303
 10
167.4113957289794
 20
235.2293939987982
 10
167.1573957354595
 20
235.4325939936141
 10
167.0303957386995
 20
235.737393985838
 10
167.0049957393476
 20
236.0929939767659
 97
        0
 97
        1
330
B1
 75
     2
 76
     1
 98
        1
 10
0.0
 20
0.0
450
        0
451
        0
460
0.0
461
0.0
452
        0
462
0.0
453
        0
470

  0
SPLINE
  5
B3
330
70
100
AcDbEntity
  8
Capa 1
100
AcDbSpline
210
0.0
220
0.0
230
1.0
 70
     9
 71
     3
 72
    95
 73
    91
 74
     0
 42
0.0000000001
 43
0.0000000001
 40
0.0
 40
0.0
 40
0.0
 40
0.0
 40
1.0
 40
1.0
 40
1.0
 40
2.0
 40
2.0
 40
2.0
 40
3.0
 40
3.0
 40
3.0
 40
4.0
 40
4.0
 40
4.0
 40
5.0
 40
5.0
 40
5.0
 40
6.0
 40
6.0
 40
6.0
 40
7.0
 40
7.0
 40
7.0
 40
8.0
 40
8.0
 40
8.0
 40
9.0
 40
9.0
 40
9.0
 40
10.0
 40
10.0
 40
10.0
 40
11.0
 40
11.0
 40
11.0
 40
12.0
 40
12.0
 40
12.0
 40
13.0
 40
13.0
 40
13.0
 40
14.0
 40
14.0
 40
14.0
 40
15.0
 40
15.0
 40
15.0
 40
16.0
 40
16.0
 40
16.0
 40
17.0
 40
17.0
 40
17.0
 40
18.0
 40
18.0
 40
18.0
 40
19.0
 40
19.0
 40
19.0
 40
20.0
 40
20.0
 40
20.0
 40
21.0
 40
21.0
 40
21.0
 40
22.0
 40
22.0
 40
22.0
 40
23.0
 40
23.0
 40
23.0
 40
24.0
 40
24.0
 40
24.0
 40
25.0
 40
25.0
 40
25.0
 40
26.0
 40
26.0
 40
26.0
 40
27.0
 40
27.0
 40
27.0
 40
28.0
 40
28.0
 40
28.0
 40
29.0
 40
29.0
 40
29.0
 40
30.0
 40
30.0
 40
30.0
 40
30.0
 10
170.3069956551065
 20
236.0929939767659
 30
0.0
 10
170.3069956551065
 20
236.0929939767659
 30
0.0
 10
170.8403956414984
 20
236.1691939748219
 30
0.0
 10
170.8403956414984
 20
236.1691939748219
 30
0.0
 10
170.8911956402023
 20
235.864393982598
 30
0.0
 10
170.9927956376103
 20
235.6357939884301
 30
0.0
 10
171.1451956337223
 20
235.5087939916701
 30
0.0
 10
171.2721956304822
 20
235.3817939949101
 30
0.0
 10
171.4499956259462
 20
235.3309939962062
 30
0.0
 10
171.6531956207621
 20
235.3309939962062
 30
0.0
 10
171.907195614282
 20
235.3309939962062
 30
0.0
 10
172.110395609098
 20
235.4071939942621
 30
0.0
 10
172.2881956045619
 20
235.5849939897261
 30
0.0
 10
172.4659956000259
 20
235.737393985838
 30
0.0
 10
172.5421955980818
 20
235.965993980006
 30
0.0
 10
172.5421955980818
 20
236.2199939735259
 30
0.0
 10
172.5421955980818
 20
236.4485939676938
 30
0.0
 10
172.4659956000259
 20
236.6517939625097
 30
0.0
 10
172.3135956039139
 20
236.8041939586217
 30
0.0
 10
172.13579560845
 20
236.9565939547336
 30
0.0
 10
171.957995612986
 20
237.0327939527896
 30
0.0
 10
171.7039956194661
 20
237.0327939527896
 30
0.0
 10
171.6023956220581
 20
237.0327939527896
 30
0.0
 10
171.4753956252982
 20
237.0073939534376
 30
0.0
 10
171.3483956285382
 20
236.9819939540857
 30
0.0
 10
171.3483956285382
 20
236.9819939540857
 30
0.0
 10
171.3991956272422
 20
237.4391939424215
 30
0.0
 10
171.3991956272422
 20
237.4391939424215
 30
0.0
 10
171.4245956265942
 20
237.4391939424215
 30
0.0
 10
171.4499956259462
 20
237.4391939424215
 30
0.0
 10
171.4753956252982
 20
237.4391939424215
 30
0.0
 10
171.7039956194661
 20
237.4391939424215
 30
0.0
 10
171.907195614282
 20
237.4899939411255
 30
0.0
 10
172.084995609746
 20
237.6169939378854
 30
0.0
 10
172.2627956052099
 20
237.7185939352934
 30
0.0
 10
172.3389956032659
 20
237.8963939307574
 30
0.0
 10
172.3389956032659
 20
238.1503939242773
 30
0.0
 10
172.3389956032659
 20
238.3281939197412
 30
0.0
 10
172.2881956045619
 20
238.5059939152052
 30
0.0
 10
172.1611956078019
 20
238.6329939119651
 30
0.0
 10
172.034195611042
 20
238.7599939087251
 30
0.0
 10
171.856395615578
 20
238.810793907429
 30
0.0
 10
171.6531956207621
 20
238.810793907429
 30
0.0
 10
171.4499956259462
 20
238.810793907429
 30
0.0
 10
171.2721956304822
 20
238.7345939093731
 30
0.0
 10
171.1451956337223
 20
238.6075939126131
 30
0.0
 10
171.0181956369623
 20
238.4805939158532
 30
0.0
 10
170.9165956395543
 20
238.3027939203892
 30
0.0
 10
170.8911956402023
 20
238.0487939268693
 30
0.0
 10
170.8911956402023
 20
238.0487939268693
 30
0.0
 10
170.3577956538105
 20
238.1249939249253
 30
0.0
 10
170.3577956538105
 20
238.1249939249253
 30
0.0
 10
170.4085956525145
 20
238.4805939158532
 30
0.0
 10
170.5609956486265
 20
238.7599939087251
 30
0.0
 10
170.7895956427944
 20
238.963193903541
 30
0.0
 10
171.0181956369623
 20
239.140993899005
 30
0.0
 10
171.2975956298342
 20
239.2425938964129
 30
0.0
 10
171.6277956214101
 20
239.2425938964129
 30
0.0
 10
171.88179561493
 20
239.2425938964129
 30
0.0
 10
172.084995609746
 20
239.191793897709
 30
0.0
 10
172.2881956045619
 20
239.090193900301
 30
0.0
 10
172.4659956000259
 20
238.988593902893
 30
0.0
 10
172.6183955961378
 20
238.8615939061331
 30
0.0
 10
172.7199955935458
 20
238.6837939106691
 30
0.0
 10
172.8215955909537
 20
238.5059939152052
 30
0.0
 10
172.8977955890097
 20
238.3281939197412
 30
0.0
 10
172.8977955890097
 20
238.1249939249253
 30
0.0
 10
172.8977955890097
 20
237.9471939294614
 30
0.0
 10
172.8469955903057
 20
237.7947939333494
 30
0.0
 10
172.7453955928978
 20
237.6423939372374
 30
0.0
 10
172.6437955954898
 20
237.4899939411255
 30
0.0
 10
172.4913955993779
 20
237.3629939443655
 30
0.0
 10
172.2881956045619
 20
237.2613939469576
 30
0.0
 10
172.5421955980818
 20
237.2105939482536
 30
0.0
 10
172.7453955928978
 20
237.0835939514936
 30
0.0
 10
172.8977955890097
 20
236.9057939560297
 30
0.0
 10
173.0247955857697
 20
236.7279939605657
 30
0.0
 10
173.1009955838257
 20
236.4993939663978
 30
0.0
 10
173.1009955838257
 20
236.2199939735259
 30
0.0
 10
173.1009955838257
 20
235.838993983246
 30
0.0
 10
172.9485955877137
 20
235.5341939910221
 30
0.0
 10
172.6945955941938
 20
235.2801939975022
 30
0.0
 10
172.4151956013219
 20
235.0261940039823
 30
0.0
 10
172.084995609746
 20
234.8991940072223
 30
0.0
 10
171.6531956207621
 20
234.8991940072223
 30
0.0
 10
171.2975956298342
 20
234.8991940072223
 30
0.0
 10
170.9673956382583
 20
235.0007940046303
 30
0.0
 10
170.7387956440904
 20
235.2293939987982
 30
0.0
 10
170.4847956505705
 20
235.4325939936141
 30
0.0
 10
170.3323956544585
 20
235.737393985838
 30
0.0
 10
170.3069956551065
 20
236.0929939767659
 30
0.0
  0
HATCH
  5
B4
330
70
100
AcDbEntity
  8
Capa 1
 62
   250
420
  1907995
440
 33554687
100
AcDbHatch
 10
0.0
 20
0.0
 30
0.0
210
0.0
220
0.0
230
1.0
  2
SOLID
 70
     1
 71
     1
 91
        1
 92
        1
 93
        1
 72
     4
 94
        3
 73
     0
 74
     0
 95
       95
 96
       91
 40
0.0
 40
0.0
 40
0.0
 40
0.0
 40
1.0
 40
1.0
 40
1.0
 40
2.0
 40
2.0
 40
2.0
 40
3.0
 40
3.0
 40
3.0
 40
4.0
 40
4.0
 40
4.0
 40
5.0
 40
5.0
 40
5.0
 40
6.0
 40
6.0
 40
6.0
 40
7.0
 40
7.0
 40
7.0
 40
8.0
 40
8.0
 40
8.0
 40
9.0
 40
9.0
 40
9.0
 40
10.0
 40
10.0
 40
10.0
 40
11.0
 40
11.0
 40
11.0
 40
12.0
 40
12.0
 40
12.0
 40
13.0
 40
13.0
 40
13.0
 40
14.0
 40
14.0
 40
14.0
 40
15.0
 40
15.0
 40
15.0
 40
16.0
 40
16.0
 40
16.0
 40
17.0
 40
17.0
 40
17.0
 40
18.0
 40
18.0
 40
18.0
 40
19.0
 40
19.0
 40
19.0
 40
20.0
 40
20.0
 40
20.0
 40
21.0
 40
21.0
 40
21.0
 40
22.0
 40
22.0
 40
22.0
 40
23.0
 40
23.0
 40
23.0
 40
24.0
 40
24.0
 40
24.0
 40
25.0
 40
25.0
 40
25.0
 40
26.0
 40
26.0
 40
26.0
 40
27.0
 40
27.0
 40
27.0
 40
28.0
 40
28.0
 40
28.0
 40
29.0
 40
29.0
 40
29.0
 40
30.0
 40
30.0
 40
30.0
 40
30.0
 10
170.3069956551065
 20
236.0929939767659
 10
170.3069956551065
 20
236.0929939767659
 10
170.8403956414984
 20
236.1691939748219
 10
170.8403956414984
 20
236.1691939748219
 10
170.8911956402023
 20
235.864393982598
 10
170.9927956376103
 20
235.6357939884301
 10
171.1451956337223
 20
235.5087939916701
 10
171.2721956304822
 20
235.3817939949101
 10
171.4499956259462
 20
235.3309939962062
 10
171.6531956207621
 20
235.3309939962062
 10
171.907195614282
 20
235.3309939962062
 10
172.110395609098
 20
235.4071939942621
 10
172.2881956045619
 20
235.5849939897261
 10
172.4659956000259
 20
235.737393985838
 10
172.5421955980818
 20
235.965993980006
 10
172.5421955980818
 20
236.2199939735259
 10
172.5421955980818
 20
236.4485939676938
 10
172.4659956000259
 20
236.6517939625097
 10
172.3135956039139
 20
236.8041939586217
 10
172.13579560845
 20
236.9565939547336
 10
171.957995612986
 20
237.0327939527896
 10
171.7039956194661
 20
237.0327939527896
 10
171.6023956220581
 20
237.0327939527896
 10
171.4753956252982
 20
237.0073939534376
 10
171.3483956285382
 20
236.9819939540857
 10
171.3483956285382
 20
236.9819939540857
 10
171.3991956272422
 20
237.4391939424215
 10
171.3991956272422
 20
237.4391939424215
 10
171.4245956265942
 20
237.4391939424215
 10
171.4499956259462
 20
237.4391939424215
 10
171.4753956252982
 20
237.4391939424215
 10
171.7039956194661
 20
237.4391939424215
 10
171.907195614282
 20
237.4899939411255
 10
172.084995609746
 20
237.6169939378854
 10
172.2627956052099
 20
237.7185939352934
 10
172.3389956032659
 20
237.8963939307574
 10
172.3389956032659
 20
238.1503939242773
 10
172.3389956032659
 20
238.3281939197412
 10
172.2881956045619
 20
238.5059939152052
 10
172.1611956078019
 20
238.6329939119651
 10
172.034195611042
 20
238.7599939087251
 10
171.856395615578
 20
238.810793907429
 10
171.6531956207621
 20
238.810793907429
 10
171.4499956259462
 20
238.810793907429
 10
171.2721956304822
 20
238.7345939093731
 10
171.1451956337223
 20
238.6075939126131
 10
171.0181956369623
 20
238.4805939158532
 10
170.9165956395543
 20
238.3027939203892
 10
170.8911956402023
 20
238.0487939268693
 10
170.8911956402023
 20
238.0487939268693
 10
170.3577956538105
 20
238.1249939249253
 10
170.3577956538105
 20
238.1249939249253
 10
170.4085956525145
 20
238.4805939158532
 10
170.5609956486265
 20
238.7599939087251
 10
170.7895956427944
 20
238.963193903541
 10
171.0181956369623
 20
239.140993899005
 10
171.2975956298342
 20
239.2425938964129
 10
171.6277956214101
 20
239.2425938964129
 10
171.88179561493
 20
239.2425938964129
 10
172.084995609746
 20
239.191793897709
 10
172.2881956045619
 20
239.090193900301
 10
172.4659956000259
 20
238.988593902893
 10
172.6183955961378
 20
238.8615939061331
 10
172.7199955935458
 20
238.6837939106691
 10
172.8215955909537
 20
238.5059939152052
 10
172.8977955890097
 20
238.3281939197412
 10
172.8977955890097
 20
238.1249939249253
 10
172.8977955890097
 20
237.9471939294614
 10
172.8469955903057
 20
237.7947939333494
 10
172.7453955928978
 20
237.6423939372374
 10
172.6437955954898
 20
237.4899939411255
 10
172.4913955993779
 20
237.3629939443655
 10
172.2881956045619
 20
237.2613939469576
 10
172.5421955980818
 20
237.2105939482536
 10
172.7453955928978
 20
237.0835939514936
 10
172.8977955890097
 20
236.9057939560297
 10
173.0247955857697
 20
236.7279939605657
 10
173.1009955838257
 20
236.4993939663978
 10
173.1009955838257
 20
236.2199939735259
 10
173.1009955838257
 20
235.838993983246
 10
172.9485955877137
 20
235.5341939910221
 10
172.6945955941938
 20
235.2801939975022
 10
172.4151956013219
 20
235.0261940039823
 10
172.084995609746
 20
234.8991940072223
 10
171.6531956207621
 20
234.8991940072223
 10
171.2975956298342
 20
234.8991940072223
 10
170.9673956382583
 20
235.0007940046303
 10
170.7387956440904
 20
235.2293939987982
 10
170.4847956505705
 20
235.4325939936141
 10
170.3323956544585
 20
235.737393985838
 10
170.3069956551065
 20
236.0929939767659
 97
        0
 97
        1
330
B3
 75
     2
 76
     1
 98
        1
 10
0.0
 20
0.0
450
        0
451
        0
460
0.0
461
0.0
452
        0
462
0.0
453
        0
470

  0
SPLINE
  5
B5
330
70
100
AcDbEntity
  8
Capa 1
100
AcDbSpline
210
0.0
220
0.0
230
1.0
 70
    11
 71
     3
 72
    56
 73
    52
 74
     0
 42
0.0000000001
 43
0.0000000001
 40
0.0
 40
0.0
 40
0.0
 40
0.0
 40
1.0
 40
1.0
 40
1.0
 40
2.0
 40
2.0
 40
2.0
 40
3.0
 40
3.0
 40
3.0
 40
4.0
 40
4.0
 40
4.0
 40
5.0
 40
5.0
 40
5.0
 40
6.0
 40
6.0
 40
6.0
 40
7.0
 40
7.0
 40
7.0
 40
8.0
 40
8.0
 40
8.0
 40
9.0
 40
9.0
 40
9.0
 40
10.0
 40
10.0
 40
10.0
 40
11.0
 40
11.0
 40
11.0
 40
12.0
 40
12.0
 40
12.0
 40
13.0
 40
13.0
 40
13.0
 40
14.0
 40
14.0
 40
14.0
 40
15.0
 40
15.0
 40
15.0
 40
16.0
 40
16.0
 40
16.0
 40
17.0
 40
17.0
 40
17.0
 40
17.0
 10
83.74379786351772
 20
187.6805952118691
 30
0.0
 10
83.74379786351772
 20
187.6805952118691
 30
0.0
 10
83.61679786675777
 20
187.2487952228852
 30
0.0
 10
83.61679786675777
 20
187.2487952228852
 30
0.0
 10
83.61679786675777
 20
187.2487952228852
 30
0.0
 10
83.26119787582987
 20
187.3757952196452
 30
0.0
 10
83.26119787582987
 20
187.3757952196452
 30
0.0
 10
83.26119787582987
 20
187.3757952196452
 30
0.0
 10
83.48979786999812
 20
188.1123952008529
 30
0.0
 10
83.48979786999812
 20
188.1123952008529
 30
0.0
 10
83.21039787712589
 20
188.2901951963169
 30
0.0
 10
82.98179788295795
 20
188.4679951917808
 30
0.0
 10
82.85479788619801
 20
188.6203951878928
 30
0.0
 10
82.70239789008604
 20
188.7981951833567
 30
0.0
 10
82.57539789332609
 20
189.0013951781727
 30
0.0
 10
82.47379789591812
 20
189.2807951710446
 30
0.0
 10
82.29599790045449
 20
189.6617951613245
 30
0.0
 10
82.21979790239819
 20
190.0681951509563
 30
0.0
 10
82.24519790175019
 20
190.4491951412362
 30
0.0
 10
82.27059790110219
 20
190.8301951315161
 30
0.0
 10
82.39759789786214
 20
191.160395123092
 30
0.0
 10
82.62619789203007
 20
191.4397951159639
 30
0.0
 10
82.85479788619801
 20
191.7445951081878
 30
0.0
 10
83.13419787906992
 20
191.9477951030038
 30
0.0
 10
83.48979786999812
 20
192.1001950991157
 30
0.0
 10
83.56599786805379
 20
192.1509950978197
 30
0.0
 10
83.66759786546174
 20
192.1763950971717
 30
0.0
 10
83.74379786351772
 20
192.2017950965237
 30
0.0
 10
83.74379786351772
 20
192.2017950965237
 30
0.0
 10
83.74379786351772
 20
191.6937951094838
 30
0.0
 10
83.74379786351772
 20
191.6937951094838
 30
0.0
 10
83.71839786416574
 20
191.6937951094838
 30
0.0
 10
83.69299786481406
 20
191.6683951101318
 30
0.0
 10
83.66759786546174
 20
191.6683951101318
 30
0.0
 10
83.28659787518153
 20
191.4905951146679
 30
0.0
 10
83.03259788166194
 20
191.236595121148
 30
0.0
 10
82.88019788554999
 20
190.8555951308681
 30
0.0
 10
82.72779788943804
 20
190.4745951405882
 30
0.0
 10
82.77859788814202
 20
190.0427951516043
 30
0.0
 10
83.00719788230995
 20
189.5093951652125
 30
0.0
 10
83.08339788036594
 20
189.3061951703966
 30
0.0
 10
83.18499787777389
 20
189.1283951749326
 30
0.0
 10
83.31199787453385
 20
188.9759951788207
 30
0.0
 10
83.38819787258984
 20
188.8743951814127
 30
0.0
 10
83.51519786934979
 20
188.7473951846528
 30
0.0
 10
83.66759786546174
 20
188.6203951878928
 30
0.0
 10
83.66759786546174
 20
188.6203951878928
 30
0.0
 10
83.74379786351772
 20
188.8743951814127
 30
0.0
 10
83.74379786351772
 20
188.8743951814127
 30
0.0
 10
83.74379786351772
 20
188.8743951814127
 30
0.0
 10
83.74379786351772
 20
187.6805952118691
 30
0.0
 10
83.74379786351772
 20
187.6805952118691
 30
0.0
  0
SPLINE
  5
B6
330
70
100
AcDbEntity
  8
Capa 1
100
AcDbSpline
210
0.0
220
0.0
230
1.0
 70
     9
 71
     3
 72
    23
 73
    19
 74
     0
 42
0.0000000001
 43
0.0000000001
 40
0.0
 40
0.0
 40
0.0
 40
0.0
 40
1.0
 40
1.0
 40
1.0
 40
2.0
 40
2.0
 40
2.0
 40
3.0
 40
3.0
 40
3.0
 40
4.0
 40
4.0
 40
4.0
 40
5.0
 40
5.0
 40
5.0
 40
6.0
 40
6.0
 40
6.0
 40
6.0
 10
83.74379786351772
 20
192.2017950965237
 30
0.0
 10
83.89619785962999
 20
192.2525950952277
 30
0.0
 10
84.02319785638963
 20
192.27799509458
 30
0.0
 10
84.15019785314958
 20
192.27799509458
 30
0.0
 10
84.22639785120557
 20
192.27799509458
 30
0.0
 10
84.27719784990955
 20
192.27799509458
 30
0.0
 10
84.35339784796553
 20
192.27799509458
 30
0.0
 10
84.35339784796553
 20
192.27799509458
 30
0.0
 10
84.35339784796553
 20
191.7699951075398
 30
0.0
 10
84.35339784796553
 20
191.7699951075398
 30
0.0
 10
84.27719784990955
 20
191.7699951075398
 30
0.0
 10
84.20099785185358
 20
191.7953951068918
 30
0.0
 10
84.15019785314958
 20
191.7953951068918
 30
0.0
 10
84.02319785638963
 20
191.7699951075398
 30
0.0
 10
83.89619785962999
 20
191.7445951081878
 30
0.0
 10
83.74379786351772
 20
191.6937951094838
 30
0.0
 10
83.74379786351772
 20
191.6937951094838
 30
0.0
 10
83.74379786351772
 20
192.2017950965237
 30
0.0
 10
83.74379786351772
 20
192.2017950965237
 30
0.0
  0
SPLINE
  5
B7
330
70
100
AcDbEntity
  8
Capa 1
100
AcDbSpline
210
0.0
220
0.0
230
1.0
 70
     9
 71
     3
 72
    32
 73
    28
 74
     0
 42
0.0000000001
 43
0.0000000001
 40
0.0
 40
0.0
 40
0.0
 40
0.0
 40
1.0
 40
1.0
 40
1.0
 40
2.0
 40
2.0
 40
2.0
 40
3.0
 40
3.0
 40
3.0
 40
4.0
 40
4.0
 40
4.0
 40
5.0
 40
5.0
 40
5.0
 40
6.0
 40
6.0
 40
6.0
 40
7.0
 40
7.0
 40
7.0
 40
8.0
 40
8.0
 40
8.0
 40
9.0
 40
9.0
 40
9.0
 40
9.0
 10
84.35339784796553
 20
187.883795206685
 30
0.0
 10
84.20099785185358
 20
187.883795206685
 30
0.0
 10
84.04859785574164
 20
187.909195206037
 30
0.0
 10
83.84539786092569
 20
187.959995204741
 30
0.0
 10
83.84539786092569
 20
187.959995204741
 30
0.0
 10
83.74379786351772
 20
187.6805952118691
 30
0.0
 10
83.74379786351772
 20
187.6805952118691
 30
0.0
 10
83.74379786351772
 20
187.6805952118691
 30
0.0
 10
83.74379786351772
 20
188.8743951814127
 30
0.0
 10
83.74379786351772
 20
188.8743951814127
 30
0.0
 10
83.74379786351772
 20
188.8743951814127
 30
0.0
 10
84.35339784796553
 20
190.6777951354045
 30
0.0
 10
84.35339784796553
 20
190.6777951354045
 30
0.0
 10
84.35339784796553
 20
190.6777951354045
 30
0.0
 10
84.35339784796553
 20
189.4839951658605
 30
0.0
 10
84.35339784796553
 20
189.4839951658605
 30
0.0
 10
84.35339784796553
 20
189.4839951658605
 30
0.0
 10
84.02319785638963
 20
188.4425951924289
 30
0.0
 10
84.02319785638963
 20
188.4425951924289
 30
0.0
 10
84.15019785314958
 20
188.4171951930769
 30
0.0
 10
84.25179785055757
 20
188.3917951937249
 30
0.0
 10
84.35339784796553
 20
188.3663951943729
 30
0.0
 10
84.35339784796553
 20
188.3663951943729
 30
0.0
 10
84.35339784796553
 20
187.883795206685
 30
0.0
 10
84.35339784796553
 20
187.883795206685
 30
0.0
 10
84.35339784796553
 20
187.883795206685
 30
0.0
 10
84.35339784796553
 20
187.883795206685
 30
0.0
 10
84.35339784796553
 20
187.883795206685
 30
0.0
  0
SPLINE
  5
B8
330
70
100
AcDbEntity
  8
Capa 1
100
AcDbSpline
210
0.0
220
0.0
230
1.0
 70
     9
 71
     3
 72
    23
 73
    19
 74
     0
 42
0.0000000001
 43
0.0000000001
 40
0.0
 40
0.0
 40
0.0
 40
0.0
 40
1.0
 40
1.0
 40
1.0
 40
2.0
 40
2.0
 40
2.0
 40
3.0
 40
3.0
 40
3.0
 40
4.0
 40
4.0
 40
4.0
 40
5.0
 40
5.0
 40
5.0
 40
6.0
 40
6.0
 40
6.0
 40
6.0
 10
84.93759783306135
 20
187.959995204741
 30
0.0
 10
84.81059783630138
 20
187.909195206037
 30
0.0
 10
84.65819784018945
 20
187.883795206685
 30
0.0
 10
84.50579784407748
 20
187.883795206685
 30
0.0
 10
84.4549978453735
 20
187.883795206685
 30
0.0
 10
84.40419784666952
 20
187.883795206685
 30
0.0
 10
84.35339784796553
 20
187.883795206685
 30
0.0
 10
84.35339784796553
 20
187.883795206685
 30
0.0
 10
84.35339784796553
 20
188.3663951943729
 30
0.0
 10
84.35339784796553
 20
188.3663951943729
 30
0.0
 10
84.40419784666952
 20
188.3663951943729
 30
0.0
 10
84.4549978453735
 20
188.3663951943729
 30
0.0
 10
84.48039784472548
 20
188.3663951943729
 30
0.0
 10
84.63279784083743
 20
188.3917951937249
 30
0.0
 10
84.7851978369494
 20
188.4171951930769
 30
0.0
 10
84.93759783306135
 20
188.4679951917808
 30
0.0
 10
84.93759783306135
 20
188.4679951917808
 30
0.0
 10
84.93759783306135
 20
187.959995204741
 30
0.0
 10
84.93759783306135
 20
187.959995204741
 30
0.0
  0
SPLINE
  5
B9
330
70
100
AcDbEntity
  8
Capa 1
100
AcDbSpline
210
0.0
220
0.0
230
1.0
 70
    11
 71
     3
 72
    32
 73
    28
 74
     0
 42
0.0000000001
 43
0.0000000001
 40
0.0
 40
0.0
 40
0.0
 40
0.0
 40
1.0
 40
1.0
 40
1.0
 40
2.0
 40
2.0
 40
2.0
 40
3.0
 40
3.0
 40
3.0
 40
4.0
 40
4.0
 40
4.0
 40
5.0
 40
5.0
 40
5.0
 40
6.0
 40
6.0
 40
6.0
 40
7.0
 40
7.0
 40
7.0
 40
8.0
 40
8.0
 40
8.0
 40
9.0
 40
9.0
 40
9.0
 40
9.0
 10
84.86139783500538
 20
192.2017950965237
 30
0.0
 10
84.86139783500538
 20
192.2017950965237
 30
0.0
 10
84.93759783306135
 20
192.4303950906916
 30
0.0
 10
84.93759783306135
 20
192.4303950906916
 30
0.0
 10
84.93759783306135
 20
192.4303950906916
 30
0.0
 10
84.93759783306135
 20
191.236595121148
 30
0.0
 10
84.93759783306135
 20
191.236595121148
 30
0.0
 10
84.93759783306135
 20
191.236595121148
 30
0.0
 10
84.35339784796553
 20
189.4839951658605
 30
0.0
 10
84.35339784796553
 20
189.4839951658605
 30
0.0
 10
84.35339784796553
 20
189.4839951658605
 30
0.0
 10
84.35339784796553
 20
190.6777951354045
 30
0.0
 10
84.35339784796553
 20
190.6777951354045
 30
0.0
 10
84.35339784796553
 20
190.6777951354045
 30
0.0
 10
84.70899783889342
 20
191.6937951094838
 30
0.0
 10
84.70899783889342
 20
191.6937951094838
 30
0.0
 10
84.58199784213347
 20
191.7445951081878
 30
0.0
 10
84.4549978453735
 20
191.7699951075398
 30
0.0
 10
84.35339784796553
 20
191.7699951075398
 30
0.0
 10
84.35339784796553
 20
191.7699951075398
 30
0.0
 10
84.35339784796553
 20
192.27799509458
 30
0.0
 10
84.35339784796553
 20
192.27799509458
 30
0.0
 10
84.50579784407748
 20
192.27799509458
 30
0.0
 10
84.68359783954143
 20
192.2525950952277
 30
0.0
 10
84.86139783500538
 20
192.2017950965237
 30
0.0
 10
84.86139783500538
 20
192.2017950965237
 30
0.0
 10
84.86139783500538
 20
192.2017950965237
 30
0.0
 10
84.86139783500538
 20
192.2017950965237
 30
0.0
  0
SPLINE
  5
BA
330
70
100
AcDbEntity
  8
Capa 1
100
AcDbSpline
210
0.0
220
0.0
230
1.0
 70
    11
 71
     3
 72
    53
 73
    49
 74
     0
 42
0.0000000001
 43
0.0000000001
 40
0.0
 40
0.0
 40
0.0
 40
0.0
 40
1.0
 40
1.0
 40
1.0
 40
2.0
 40
2.0
 40
2.0
 40
3.0
 40
3.0
 40
3.0
 40
4.0
 40
4.0
 40
4.0
 40
5.0
 40
5.0
 40
5.0
 40
6.0
 40
6.0
 40
6.0
 40
7.0
 40
7.0
 40
7.0
 40
8.0
 40
8.0
 40
8.0
 40
9.0
 40
9.0
 40
9.0
 40
10.0
 40
10.0
 40
10.0
 40
11.0
 40
11.0
 40
11.0
 40
12.0
 40
12.0
 40
12.0
 40
13.0
 40
13.0
 40
13.0
 40
14.0
 40
14.0
 40
14.0
 40
15.0
 40
15.0
 40
15.0
 40
16.0
 40
16.0
 40
16.0
 40
16.0
 10
84.93759783306135
 20
192.4303950906916
 30
0.0
 10
84.93759783306135
 20
192.4303950906916
 30
0.0
 10
85.11539782852528
 20
192.8875950790274
 30
0.0
 10
85.11539782852528
 20
192.8875950790274
 30
0.0
 10
85.11539782852528
 20
192.8875950790274
 30
0.0
 10
85.47099781945318
 20
192.7859950816195
 30
0.0
 10
85.47099781945318
 20
192.7859950816195
 30
0.0
 10
85.47099781945318
 20
192.7859950816195
 30
0.0
 10
85.21699782593326
 20
192.0493951004117
 30
0.0
 10
85.21699782593326
 20
192.0493951004117
 30
0.0
 10
85.47099781945318
 20
191.8969951042998
 30
0.0
 10
85.67419781426911
 20
191.7445951081878
 30
0.0
 10
85.77579781167708
 20
191.5921951120759
 30
0.0
 10
85.95359780714103
 20
191.3889951172599
 30
0.0
 10
86.105997803253
 20
191.160395123092
 30
0.0
 10
86.20759780066094
 20
190.8809951302201
 30
0.0
 10
86.38539779612489
 20
190.4745951405882
 30
0.0
 10
86.46159779418088
 20
190.0935951503083
 30
0.0
 10
86.43619779482888
 20
189.7125951600285
 30
0.0
 10
86.41079779547688
 20
189.3315951697486
 30
0.0
 10
86.28379779871693
 20
188.9759951788207
 30
0.0
 10
86.05519780454899
 20
188.6965951859488
 30
0.0
 10
85.82659781038108
 20
188.4171951930769
 30
0.0
 10
85.54719781750916
 20
188.2139951982609
 30
0.0
 10
85.21699782593326
 20
188.061595202149
 30
0.0
 10
85.1407978278773
 20
188.010795203445
 30
0.0
 10
85.03919783046931
 20
187.985395204093
 30
0.0
 10
84.93759783306135
 20
187.959995204741
 30
0.0
 10
84.93759783306135
 20
187.959995204741
 30
0.0
 10
84.93759783306135
 20
188.4679951917808
 30
0.0
 10
84.93759783306135
 20
188.4679951917808
 30
0.0
 10
84.96299783241333
 20
188.4679951917808
 30
0.0
 10
84.98839783176533
 20
188.4933951911328
 30
0.0
 10
85.01379783111733
 20
188.4933951911328
 30
0.0
 10
85.4201978207492
 20
188.6711951865968
 30
0.0
 10
85.67419781426911
 20
188.9505951794687
 30
0.0
 10
85.80119781102908
 20
189.3315951697486
 30
0.0
 10
85.92819780778903
 20
189.7125951600285
 30
0.0
 10
85.90279780843705
 20
190.1443951490123
 30
0.0
 10
85.69959781362111
 20
190.6269951367002
 30
0.0
 10
85.52179781815716
 20
191.00799512698
 30
0.0
 10
85.31859782334123
 20
191.312795119204
 30
0.0
 10
85.03919783046931
 20
191.5159951140199
 30
0.0
 10
85.03919783046931
 20
191.5159951140199
 30
0.0
 10
84.93759783306135
 20
191.236595121148
 30
0.0
 10
84.93759783306135
 20
191.236595121148
 30
0.0
 10
84.93759783306135
 20
191.236595121148
 30
0.0
 10
84.93759783306135
 20
192.4303950906916
 30
0.0
 10
84.93759783306135
 20
192.4303950906916
 30
0.0
  0
HATCH
  5
BB
330
70
100
AcDbEntity
  8
Capa 1
 62
   250
420
  1907995
440
 33554687
100
AcDbHatch
 10
0.0
 20
0.0
 30
0.0
210
0.0
220
0.0
230
1.0
  2
SOLID
 70
     1
 71
     1
 91
        6
 92
        1
 93
        1
 72
     4
 94
        3
 73
     0
 74
     0
 95
       56
 96
       52
 40
0.0
 40
0.0
 40
0.0
 40
0.0
 40
1.0
 40
1.0
 40
1.0
 40
2.0
 40
2.0
 40
2.0
 40
3.0
 40
3.0
 40
3.0
 40
4.0
 40
4.0
 40
4.0
 40
5.0
 40
5.0
 40
5.0
 40
6.0
 40
6.0
 40
6.0
 40
7.0
 40
7.0
 40
7.0
 40
8.0
 40
8.0
 40
8.0
 40
9.0
 40
9.0
 40
9.0
 40
10.0
 40
10.0
 40
10.0
 40
11.0
 40
11.0
 40
11.0
 40
12.0
 40
12.0
 40
12.0
 40
13.0
 40
13.0
 40
13.0
 40
14.0
 40
14.0
 40
14.0
 40
15.0
 40
15.0
 40
15.0
 40
16.0
 40
16.0
 40
16.0
 40
17.0
 40
17.0
 40
17.0
 40
17.0
 10
83.74379786351772
 20
187.6805952118691
 10
83.74379786351772
 20
187.6805952118691
 10
83.61679786675777
 20
187.2487952228852
 10
83.61679786675777
 20
187.2487952228852
 10
83.61679786675777
 20
187.2487952228852
 10
83.26119787582987
 20
187.3757952196452
 10
83.26119787582987
 20
187.3757952196452
 10
83.26119787582987
 20
187.3757952196452
 10
83.48979786999812
 20
188.1123952008529
 10
83.48979786999812
 20
188.1123952008529
 10
83.21039787712589
 20
188.2901951963169
 10
82.98179788295795
 20
188.4679951917808
 10
82.85479788619801
 20
188.6203951878928
 10
82.70239789008604
 20
188.7981951833567
 10
82.57539789332609
 20
189.0013951781727
 10
82.47379789591812
 20
189.2807951710446
 10
82.29599790045449
 20
189.6617951613245
 10
82.21979790239819
 20
190.0681951509563
 10
82.24519790175019
 20
190.4491951412362
 10
82.27059790110219
 20
190.8301951315161
 10
82.39759789786214
 20
191.160395123092
 10
82.62619789203007
 20
191.4397951159639
 10
82.85479788619801
 20
191.7445951081878
 10
83.13419787906992
 20
191.9477951030038
 10
83.48979786999812
 20
192.1001950991157
 10
83.56599786805379
 20
192.1509950978197
 10
83.66759786546174
 20
192.1763950971717
 10
83.74379786351772
 20
192.2017950965237
 10
83.74379786351772
 20
192.2017950965237
 10
83.74379786351772
 20
191.6937951094838
 10
83.74379786351772
 20
191.6937951094838
 10
83.71839786416574
 20
191.6937951094838
 10
83.69299786481406
 20
191.6683951101318
 10
83.66759786546174
 20
191.6683951101318
 10
83.28659787518153
 20
191.4905951146679
 10
83.03259788166194
 20
191.236595121148
 10
82.88019788554999
 20
190.8555951308681
 10
82.72779788943804
 20
190.4745951405882
 10
82.77859788814202
 20
190.0427951516043
 10
83.00719788230995
 20
189.5093951652125
 10
83.08339788036594
 20
189.3061951703966
 10
83.18499787777389
 20
189.1283951749326
 10
83.31199787453385
 20
188.9759951788207
 10
83.38819787258984
 20
188.8743951814127
 10
83.51519786934979
 20
188.7473951846528
 10
83.66759786546174
 20
188.6203951878928
 10
83.66759786546174
 20
188.6203951878928
 10
83.74379786351772
 20
188.8743951814127
 10
83.74379786351772
 20
188.8743951814127
 10
83.74379786351772
 20
188.8743951814127
 10
83.74379786351772
 20
187.6805952118691
 10
83.74379786351772
 20
187.6805952118691
 97
        0
 97
        1
330
B5
 92
        1
 93
        1
 72
     4
 94
        3
 73
     0
 74
     0
 95
       23
 96
       19
 40
0.0
 40
0.0
 40
0.0
 40
0.0
 40
1.0
 40
1.0
 40
1.0
 40
2.0
 40
2.0
 40
2.0
 40
3.0
 40
3.0
 40
3.0
 40
4.0
 40
4.0
 40
4.0
 40
5.0
 40
5.0
 40
5.0
 40
6.0
 40
6.0
 40
6.0
 40
6.0
 10
83.74379786351772
 20
192.2017950965237
 10
83.89619785962999
 20
192.2525950952277
 10
84.02319785638963
 20
192.27799509458
 10
84.15019785314958
 20
192.27799509458
 10
84.22639785120557
 20
192.27799509458
 10
84.27719784990955
 20
192.27799509458
 10
84.35339784796553
 20
192.27799509458
 10
84.35339784796553
 20
192.27799509458
 10
84.35339784796553
 20
191.7699951075398
 10
84.35339784796553
 20
191.7699951075398
 10
84.27719784990955
 20
191.7699951075398
 10
84.20099785185358
 20
191.7953951068918
 10
84.15019785314958
 20
191.7953951068918
 10
84.02319785638963
 20
191.7699951075398
 10
83.89619785962999
 20
191.7445951081878
 10
83.74379786351772
 20
191.6937951094838
 10
83.74379786351772
 20
191.6937951094838
 10
83.74379786351772
 20
192.2017950965237
 10
83.74379786351772
 20
192.2017950965237
 97
        0
 97
        1
330
B6
 92
        1
 93
        1
 72
     4
 94
        3
 73
     0
 74
     0
 95
       32
 96
       28
 40
0.0
 40
0.0
 40
0.0
 40
0.0
 40
1.0
 40
1.0
 40
1.0
 40
2.0
 40
2.0
 40
2.0
 40
3.0
 40
3.0
 40
3.0
 40
4.0
 40
4.0
 40
4.0
 40
5.0
 40
5.0
 40
5.0
 40
6.0
 40
6.0
 40
6.0
 40
7.0
 40
7.0
 40
7.0
 40
8.0
 40
8.0
 40
8.0
 40
9.0
 40
9.0
 40
9.0
 40
9.0
 10
84.35339784796553
 20
187.883795206685
 10
84.20099785185358
 20
187.883795206685
 10
84.04859785574164
 20
187.909195206037
 10
83.84539786092569
 20
187.959995204741
 10
83.84539786092569
 20
187.959995204741
 10
83.74379786351772
 20
187.6805952118691
 10
83.74379786351772
 20
187.6805952118691
 10
83.74379786351772
 20
187.6805952118691
 10
83.74379786351772
 20
188.8743951814127
 10
83.74379786351772
 20
188.8743951814127
 10
83.74379786351772
 20
188.8743951814127
 10
84.35339784796553
 20
190.6777951354045
 10
84.35339784796553
 20
190.6777951354045
 10
84.35339784796553
 20
190.6777951354045
 10
84.35339784796553
 20
189.4839951658605
 10
84.35339784796553
 20
189.4839951658605
 10
84.35339784796553
 20
189.4839951658605
 10
84.02319785638963
 20
188.4425951924289
 10
84.02319785638963
 20
188.4425951924289
 10
84.15019785314958
 20
188.4171951930769
 10
84.25179785055757
 20
188.3917951937249
 10
84.35339784796553
 20
188.3663951943729
 10
84.35339784796553
 20
188.3663951943729
 10
84.35339784796553
 20
187.883795206685
 10
84.35339784796553
 20
187.883795206685
 10
84.35339784796553
 20
187.883795206685
 10
84.35339784796553
 20
187.883795206685
 10
84.35339784796553
 20
187.883795206685
 97
        0
 97
        1
330
B7
 92
        1
 93
        1
 72
     4
 94
        3
 73
     0
 74
     0
 95
       23
 96
       19
 40
0.0
 40
0.0
 40
0.0
 40
0.0
 40
1.0
 40
1.0
 40
1.0
 40
2.0
 40
2.0
 40
2.0
 40
3.0
 40
3.0
 40
3.0
 40
4.0
 40
4.0
 40
4.0
 40
5.0
 40
5.0
 40
5.0
 40
6.0
 40
6.0
 40
6.0
 40
6.0
 10
84.93759783306135
 20
187.959995204741
 10
84.81059783630138
 20
187.909195206037
 10
84.65819784018945
 20
187.883795206685
 10
84.50579784407748
 20
187.883795206685
 10
84.4549978453735
 20
187.883795206685
 10
84.40419784666952
 20
187.883795206685
 10
84.35339784796553
 20
187.883795206685
 10
84.35339784796553
 20
187.883795206685
 10
84.35339784796553
 20
188.3663951943729
 10
84.35339784796553
 20
188.3663951943729
 10
84.40419784666952
 20
188.3663951943729
 10
84.4549978453735
 20
188.3663951943729
 10
84.48039784472548
 20
188.3663951943729
 10
84.63279784083743
 20
188.3917951937249
 10
84.7851978369494
 20
188.4171951930769
 10
84.93759783306135
 20
188.4679951917808
 10
84.93759783306135
 20
188.4679951917808
 10
84.93759783306135
 20
187.959995204741
 10
84.93759783306135
 20
187.959995204741
 97
        0
 97
        1
330
B8
 92
        1
 93
        1
 72
     4
 94
        3
 73
     0
 74
     0
 95
       32
 96
       28
 40
0.0
 40
0.0
 40
0.0
 40
0.0
 40
1.0
 40
1.0
 40
1.0
 40
2.0
 40
2.0
 40
2.0
 40
3.0
 40
3.0
 40
3.0
 40
4.0
 40
4.0
 40
4.0
 40
5.0
 40
5.0
 40
5.0
 40
6.0
 40
6.0
 40
6.0
 40
7.0
 40
7.0
 40
7.0
 40
8.0
 40
8.0
 40
8.0
 40
9.0
 40
9.0
 40
9.0
 40
9.0
 10
84.86139783500538
 20
192.2017950965237
 10
84.86139783500538
 20
192.2017950965237
 10
84.93759783306135
 20
192.4303950906916
 10
84.93759783306135
 20
192.4303950906916
 10
84.93759783306135
 20
192.4303950906916
 10
84.93759783306135
 20
191.236595121148
 10
84.93759783306135
 20
191.236595121148
 10
84.93759783306135
 20
191.236595121148
 10
84.35339784796553
 20
189.4839951658605
 10
84.35339784796553
 20
189.4839951658605
 10
84.35339784796553
 20
189.4839951658605
 10
84.35339784796553
 20
190.6777951354045
 10
84.35339784796553
 20
190.6777951354045
 10
84.35339784796553
 20
190.6777951354045
 10
84.70899783889342
 20
191.6937951094838
 10
84.70899783889342
 20
191.6937951094838
 10
84.58199784213347
 20
191.7445951081878
 10
84.4549978453735
 20
191.7699951075398
 10
84.35339784796553
 20
191.7699951075398
 10
84.35339784796553
 20
191.7699951075398
 10
84.35339784796553
 20
192.27799509458
 10
84.35339784796553
 20
192.27799509458
 10
84.50579784407748
 20
192.27799509458
 10
84.68359783954143
 20
192.2525950952277
 10
84.86139783500538
 20
192.2017950965237
 10
84.86139783500538
 20
192.2017950965237
 10
84.86139783500538
 20
192.2017950965237
 10
84.86139783500538
 20
192.2017950965237
 97
        0
 97
        1
330
B9
 92
        1
 93
        1
 72
     4
 94
        3
 73
     0
 74
     0
 95
       53
 96
       49
 40
0.0
 40
0.0
 40
0.0
 40
0.0
 40
1.0
 40
1.0
 40
1.0
 40
2.0
 40
2.0
 40
2.0
 40
3.0
 40
3.0
 40
3.0
 40
4.0
 40
4.0
 40
4.0
 40
5.0
 40
5.0
 40
5.0
 40
6.0
 40
6.0
 40
6.0
 40
7.0
 40
7.0
 40
7.0
 40
8.0
 40
8.0
 40
8.0
 40
9.0
 40
9.0
 40
9.0
 40
10.0
 40
10.0
 40
10.0
 40
11.0
 40
11.0
 40
11.0
 40
12.0
 40
12.0
 40
12.0
 40
13.0
 40
13.0
 40
13.0
 40
14.0
 40
14.0
 40
14.0
 40
15.0
 40
15.0
 40
15.0
 40
16.0
 40
16.0
 40
16.0
 40
16.0
 10
84.93759783306135
 20
192.4303950906916
 10
84.93759783306135
 20
192.4303950906916
 10
85.11539782852528
 20
192.8875950790274
 10
85.11539782852528
 20
192.8875950790274
 10
85.11539782852528
 20
192.8875950790274
 10
85.47099781945318
 20
192.7859950816195
 10
85.47099781945318
 20
192.7859950816195
 10
85.47099781945318
 20
192.7859950816195
 10
85.21699782593326
 20
192.0493951004117
 10
85.21699782593326
 20
192.0493951004117
 10
85.47099781945318
 20
191.8969951042998
 10
85.67419781426911
 20
191.7445951081878
 10
85.77579781167708
 20
191.5921951120759
 10
85.95359780714103
 20
191.3889951172599
 10
86.105997803253
 20
191.160395123092
 10
86.20759780066094
 20
190.8809951302201
 10
86.38539779612489
 20
190.4745951405882
 10
86.46159779418088
 20
190.0935951503083
 10
86.43619779482888
 20
189.7125951600285
 10
86.41079779547688
 20
189.3315951697486
 10
86.28379779871693
 20
188.9759951788207
 10
86.05519780454899
 20
188.6965951859488
 10
85.82659781038108
 20
188.4171951930769
 10
85.54719781750916
 20
188.2139951982609
 10
85.21699782593326
 20
188.061595202149
 10
85.1407978278773
 20
188.010795203445
 10
85.03919783046931
 20
187.985395204093
 10
84.93759783306135
 20
187.959995204741
 10
84.93759783306135
 20
187.959995204741
 10
84.93759783306135
 20
188.4679951917808
 10
84.93759783306135
 20
188.4679951917808
 10
84.96299783241333
 20
188.4679951917808
 10
84.98839783176533
 20
188.4933951911328
 10
85.01379783111733
 20
188.4933951911328
 10
85.4201978207492
 20
188.6711951865968
 10
85.67419781426911
 20
188.9505951794687
 10
85.80119781102908
 20
189.3315951697486
 10
85.92819780778903
 20
189.7125951600285
 10
85.90279780843705
 20
190.1443951490123
 10
85.69959781362111
 20
190.6269951367002
 10
85.52179781815716
 20
191.00799512698
 10
85.31859782334123
 20
191.312795119204
 10
85.03919783046931
 20
191.5159951140199
 10
85.03919783046931
 20
191.5159951140199
 10
84.93759783306135
 20
191.236595121148
 10
84.93759783306135
 20
191.236595121148
 10
84.93759783306135
 20
191.236595121148
 10
84.93759783306135
 20
192.4303950906916
 10
84.93759783306135
 20
192.4303950906916
 97
        0
 97
        1
330
BA
 75
     2
 76
     1
 98
        1
 10
0.0
 20
0.0
450
        0
451
        0
460
0.0
461
0.0
452
        0
462
0.0
453
        0
470

  0
SPLINE
  5
BC
330
70
100
AcDbEntity
  8
Capa 1
100
AcDbSpline
210
0.0
220
0.0
230
1.0
 70
    11
 71
     3
 72
    26
 73
    22
 74
     0
 42
0.0000000001
 43
0.0000000001
 40
0.0
 40
0.0
 40
0.0
 40
0.0
 40
1.0
 40
1.0
 40
1.0
 40
2.0
 40
2.0
 40
2.0
 40
3.0
 40
3.0
 40
3.0
 40
4.0
 40
4.0
 40
4.0
 40
5.0
 40
5.0
 40
5.0
 40
6.0
 40
6.0
 40
6.0
 40
7.0
 40
7.0
 40
7.0
 40
7.0
 10
41.52899894050697
 20
106.9847972705904
 30
0.0
 10
41.52899894050697
 20
106.9847972705904
 30
0.0
 10
39.72559898651553
 20
108.25479723819
 30
0.0
 10
39.72559898651553
 20
108.25479723819
 30
0.0
 10
39.72559898651553
 20
108.25479723819
 30
0.0
 10
39.72559898651553
 20
108.6611972278219
 30
0.0
 10
39.72559898651553
 20
108.6611972278219
 30
0.0
 10
39.72559898651553
 20
108.6611972278219
 30
0.0
 10
41.52899894050697
 20
108.6611972278219
 30
0.0
 10
41.52899894050697
 20
108.6611972278219
 30
0.0
 10
41.52899894050697
 20
108.6611972278219
 30
0.0
 10
41.52899894050697
 20
108.153197240782
 30
0.0
 10
41.52899894050697
 20
108.153197240782
 30
0.0
 10
41.52899894050697
 20
108.153197240782
 30
0.0
 10
40.56379896513127
 20
108.153197240782
 30
0.0
 10
40.56379896513127
 20
108.153197240782
 30
0.0
 10
40.56379896513127
 20
108.153197240782
 30
0.0
 10
41.52899894050697
 20
107.4927972576303
 30
0.0
 10
41.52899894050697
 20
107.4927972576303
 30
0.0
 10
41.52899894050697
 20
107.4927972576303
 30
0.0
 10
41.52899894050697
 20
106.9847972705904
 30
0.0
 10
41.52899894050697
 20
106.9847972705904
 30
0.0
  0
SPLINE
  5
BD
330
70
100
AcDbEntity
  8
Capa 1
100
AcDbSpline
210
0.0
220
0.0
230
1.0
 70
    11
 71
     3
 72
    50
 73
    46
 74
     0
 42
0.0000000001
 43
0.0000000001
 40
0.0
 40
0.0
 40
0.0
 40
0.0
 40
1.0
 40
1.0
 40
1.0
 40
2.0
 40
2.0
 40
2.0
 40
3.0
 40
3.0
 40
3.0
 40
4.0
 40
4.0
 40
4.0
 40
5.0
 40
5.0
 40
5.0
 40
6.0
 40
6.0
 40
6.0
 40
7.0
 40
7.0
 40
7.0
 40
8.0
 40
8.0
 40
8.0
 40
9.0
 40
9.0
 40
9.0
 40
10.0
 40
10.0
 40
10.0
 40
11.0
 40
11.0
 40
11.0
 40
12.0
 40
12.0
 40
12.0
 40
13.0
 40
13.0
 40
13.0
 40
14.0
 40
14.0
 40
14.0
 40
15.0
 40
15.0
 40
15.0
 40
15.0
 10
43.99279887765019
 20
108.153197240782
 30
0.0
 10
43.99279887765019
 20
108.153197240782
 30
0.0
 10
42.97679890357051
 20
108.153197240782
 30
0.0
 10
42.97679890357051
 20
108.153197240782
 30
0.0
 10
42.97679890357051
 20
108.153197240782
 30
0.0
 10
42.97679890357051
 20
106.2989972880866
 30
0.0
 10
42.97679890357051
 20
106.2989972880866
 30
0.0
 10
42.97679890357051
 20
106.2989972880866
 30
0.0
 10
42.49419891588234
 20
106.2989972880866
 30
0.0
 10
42.49419891588234
 20
106.2989972880866
 30
0.0
 10
42.49419891588234
 20
106.2989972880866
 30
0.0
 10
41.52899894050697
 20
106.9847972705904
 30
0.0
 10
41.52899894050697
 20
106.9847972705904
 30
0.0
 10
41.52899894050697
 20
106.9847972705904
 30
0.0
 10
41.52899894050697
 20
107.4927972576303
 30
0.0
 10
41.52899894050697
 20
107.4927972576303
 30
0.0
 10
41.52899894050697
 20
107.4927972576303
 30
0.0
 10
42.49419891588234
 20
106.8069972751265
 30
0.0
 10
42.49419891588234
 20
106.8069972751265
 30
0.0
 10
42.49419891588234
 20
106.8069972751265
 30
0.0
 10
42.49419891588234
 20
108.153197240782
 30
0.0
 10
42.49419891588234
 20
108.153197240782
 30
0.0
 10
42.49419891588234
 20
108.153197240782
 30
0.0
 10
41.52899894050697
 20
108.153197240782
 30
0.0
 10
41.52899894050697
 20
108.153197240782
 30
0.0
 10
41.52899894050697
 20
108.153197240782
 30
0.0
 10
41.52899894050697
 20
108.6611972278219
 30
0.0
 10
41.52899894050697
 20
108.6611972278219
 30
0.0
 10
41.52899894050697
 20
108.6611972278219
 30
0.0
 10
42.49419891588234
 20
108.6611972278219
 30
0.0
 10
42.49419891588234
 20
108.6611972278219
 30
0.0
 10
42.49419891588234
 20
108.6611972278219
 30
0.0
 10
42.49419891588234
 20
109.2453972129177
 30
0.0
 10
42.49419891588234
 20
109.2453972129177
 30
0.0
 10
42.49419891588234
 20
109.2453972129177
 30
0.0
 10
42.97679890357051
 20
109.2453972129177
 30
0.0
 10
42.97679890357051
 20
109.2453972129177
 30
0.0
 10
42.97679890357051
 20
109.2453972129177
 30
0.0
 10
42.97679890357051
 20
108.6611972278219
 30
0.0
 10
42.97679890357051
 20
108.6611972278219
 30
0.0
 10
42.97679890357051
 20
108.6611972278219
 30
0.0
 10
43.99279887765019
 20
108.6611972278219
 30
0.0
 10
43.99279887765019
 20
108.6611972278219
 30
0.0
 10
43.99279887765019
 20
108.6611972278219
 30
0.0
 10
43.99279887765019
 20
108.153197240782
 30
0.0
 10
43.99279887765019
 20
108.153197240782
 30
0.0
  0
HATCH
  5
BE
330
70
100
AcDbEntity
  8
Capa 1
 62
   250
420
  1907995
440
 33554687
100
AcDbHatch
 10
0.0
 20
0.0
 30
0.0
210
0.0
220
0.0
230
1.0
  2
SOLID
 70
     1
 71
     1
 91
        2
 92
        1
 93
        1
 72
     4
 94
        3
 73
     0
 74
     0
 95
       26
 96
       22
 40
0.0
 40
0.0
 40
0.0
 40
0.0
 40
1.0
 40
1.0
 40
1.0
 40
2.0
 40
2.0
 40
2.0
 40
3.0
 40
3.0
 40
3.0
 40
4.0
 40
4.0
 40
4.0
 40
5.0
 40
5.0
 40
5.0
 40
6.0
 40
6.0
 40
6.0
 40
7.0
 40
7.0
 40
7.0
 40
7.0
 10
41.52899894050697
 20
106.9847972705904
 10
41.52899894050697
 20
106.9847972705904
 10
39.72559898651553
 20
108.25479723819
 10
39.72559898651553
 20
108.25479723819
 10
39.72559898651553
 20
108.25479723819
 10
39.72559898651553
 20
108.6611972278219
 10
39.72559898651553
 20
108.6611972278219
 10
39.72559898651553
 20
108.6611972278219
 10
41.52899894050697
 20
108.6611972278219
 10
41.52899894050697
 20
108.6611972278219
 10
41.52899894050697
 20
108.6611972278219
 10
41.52899894050697
 20
108.153197240782
 10
41.52899894050697
 20
108.153197240782
 10
41.52899894050697
 20
108.153197240782
 10
40.56379896513127
 20
108.153197240782
 10
40.56379896513127
 20
108.153197240782
 10
40.56379896513127
 20
108.153197240782
 10
41.52899894050697
 20
107.4927972576303
 10
41.52899894050697
 20
107.4927972576303
 10
41.52899894050697
 20
107.4927972576303
 10
41.52899894050697
 20
106.9847972705904
 10
41.52899894050697
 20
106.9847972705904
 97
        0
 97
        1
330
BC
 92
        1
 93
        1
 72
     4
 94
        3
 73
     0
 74
     0
 95
       50
 96
       46
 40
0.0
 40
0.0
 40
0.0
 40
0.0
 40
1.0
 40
1.0
 40
1.0
 40
2.0
 40
2.0
 40
2.0
 40
3.0
 40
3.0
 40
3.0
 40
4.0
 40
4.0
 40
4.0
 40
5.0
 40
5.0
 40
5.0
 40
6.0
 40
6.0
 40
6.0
 40
7.0
 40
7.0
 40
7.0
 40
8.0
 40
8.0
 40
8.0
 40
9.0
 40
9.0
 40
9.0
 40
10.0
 40
10.0
 40
10.0
 40
11.0
 40
11.0
 40
11.0
 40
12.0
 40
12.0
 40
12.0
 40
13.0
 40
13.0
 40
13.0
 40
14.0
 40
14.0
 40
14.0
 40
15.0
 40
15.0
 40
15.0
 40
15.0
 10
43.99279887765019
 20
108.153197240782
 10
43.99279887765019
 20
108.153197240782
 10
42.97679890357051
 20
108.153197240782
 10
42.97679890357051
 20
108.153197240782
 10
42.97679890357051
 20
108.153197240782
 10
42.97679890357051
 20
106.2989972880866
 10
42.97679890357051
 20
106.2989972880866
 10
42.97679890357051
 20
106.2989972880866
 10
42.49419891588234
 20
106.2989972880866
 10
42.49419891588234
 20
106.2989972880866
 10
42.49419891588234
 20
106.2989972880866
 10
41.52899894050697
 20
106.9847972705904
 10
41.52899894050697
 20
106.9847972705904
 10
41.52899894050697
 20
106.9847972705904
 10
41.52899894050697
 20
107.4927972576303
 10
41.52899894050697
 20
107.4927972576303
 10
41.52899894050697
 20
107.4927972576303
 10
42.49419891588234
 20
106.8069972751265
 10
42.49419891588234
 20
106.8069972751265
 10
42.49419891588234
 20
106.8069972751265
 10
42.49419891588234
 20
108.153197240782
 10
42.49419891588234
 20
108.153197240782
 10
42.49419891588234
 20
108.153197240782
 10
41.52899894050697
 20
108.153197240782
 10
41.52899894050697
 20
108.153197240782
 10
41.52899894050697
 20
108.153197240782
 10
41.52899894050697
 20
108.6611972278219
 10
41.52899894050697
 20
108.6611972278219
 10
41.52899894050697
 20
108.6611972278219
 10
42.49419891588234
 20
108.6611972278219
 10
42.49419891588234
 20
108.6611972278219
 10
42.49419891588234
 20
108.6611972278219
 10
42.49419891588234
 20
109.2453972129177
 10
42.49419891588234
 20
109.2453972129177
 10
42.49419891588234
 20
109.2453972129177
 10
42.97679890357051
 20
109.2453972129177
 10
42.97679890357051
 20
109.2453972129177
 10
42.97679890357051
 20
109.2453972129177
 10
42.97679890357051
 20
108.6611972278219
 10
42.97679890357051
 20
108.6611972278219
 10
42.97679890357051
 20
108.6611972278219
 10
43.99279887765019
 20
108.6611972278219
 10
43.99279887765019
 20
108.6611972278219
 10
43.99279887765019
 20
108.6611972278219
 10
43.99279887765019
 20
108.153197240782
 10
43.99279887765019
 20
108.153197240782
 97
        0
 97
        1
330
BD
 75
     2
 76
     1
 98
        1
 10
0.0
 20
0.0
450
        0
451
        0
460
0.0
461
0.0
452
        0
462
0.0
453
        0
470

  0
SPLINE
  5
BF
330
70
100
AcDbEntity
  8
Capa 1
100
AcDbSpline
210
0.0
220
0.0
230
1.0
 70
     9
 71
     3
 72
    77
 73
    73
 74
     0
 42
0.0000000001
 43
0.0000000001
 40
0.0
 40
0.0
 40
0.0
 40
0.0
 40
1.0
 40
1.0
 40
1.0
 40
2.0
 40
2.0
 40
2.0
 40
3.0
 40
3.0
 40
3.0
 40
4.0
 40
4.0
 40
4.0
 40
5.0
 40
5.0
 40
5.0
 40
6.0
 40
6.0
 40
6.0
 40
7.0
 40
7.0
 40
7.0
 40
8.0
 40
8.0
 40
8.0
 40
9.0
 40
9.0
 40
9.0
 40
10.0
 40
10.0
 40
10.0
 40
11.0
 40
11.0
 40
11.0
 40
12.0
 40
12.0
 40
12.0
 40
13.0
 40
13.0
 40
13.0
 40
14.0
 40
14.0
 40
14.0
 40
15.0
 40
15.0
 40
15.0
 40
16.0
 40
16.0
 40
16.0
 40
17.0
 40
17.0
 40
17.0
 40
18.0
 40
18.0
 40
18.0
 40
19.0
 40
19.0
 40
19.0
 40
20.0
 40
20.0
 40
20.0
 40
21.0
 40
21.0
 40
21.0
 40
22.0
 40
22.0
 40
22.0
 40
23.0
 40
23.0
 40
23.0
 40
24.0
 40
24.0
 40
24.0
 40
24.0
 10
40.7669989599472
 20
112.4965971299727
 30
0.0
 10
40.7669989599472
 20
112.4965971299727
 30
0.0
 10
40.81779895865119
 20
111.9885971429328
 30
0.0
 10
40.81779895865119
 20
111.9885971429328
 30
0.0
 10
40.61459896383525
 20
111.9377971442289
 30
0.0
 10
40.4621989677233
 20
111.8615971461729
 30
0.0
 10
40.36059897031534
 20
111.7853971481169
 30
0.0
 10
40.20819897420338
 20
111.632997152005
 30
0.0
 10
40.1319989761474
 20
111.455197156541
 30
0.0
 10
40.1319989761474
 20
111.2519971617251
 30
0.0
 10
40.1319989761474
 20
111.0995971656131
 30
0.0
 10
40.18279897485139
 20
110.9471971695012
 30
0.0
 10
40.28439897225935
 20
110.8201971727412
 30
0.0
 10
40.38599896966732
 20
110.6423971772773
 30
0.0
 10
40.56379896513127
 20
110.5153971805173
 30
0.0
 10
40.79239895929919
 20
110.4137971831093
 30
0.0
 10
41.04639895281912
 20
110.3375971850534
 30
0.0
 10
41.35119894504302
 20
110.2867971863494
 30
0.0
 10
41.78299893402689
 20
110.2867971863494
 30
0.0
 10
41.60519893856294
 20
110.4137971831093
 30
0.0
 10
41.45279894245099
 20
110.5661971792213
 30
0.0
 10
41.35119894504302
 20
110.7439971746852
 30
0.0
 10
41.27499894698704
 20
110.9217971701492
 30
0.0
 10
41.22419894828307
 20
111.1249971649651
 30
0.0
 10
41.22419894828307
 20
111.3027971604291
 30
0.0
 10
41.22419894828307
 20
111.6583971513569
 30
0.0
 10
41.35119894504302
 20
111.9631971435808
 30
0.0
 10
41.60519893856294
 20
112.2171971371008
 30
0.0
 10
41.85919893208287
 20
112.4457971312687
 30
0.0
 10
42.18939892365876
 20
112.5727971280287
 30
0.0
 10
42.59579891329063
 20
112.5727971280287
 30
0.0
 10
42.59579891329063
 20
112.5727971280287
 30
0.0
 10
42.64659891199461
 20
112.5727971280287
 30
0.0
 10
42.64659891199461
 20
112.5727971280287
 30
0.0
 10
42.64659891199461
 20
112.5727971280287
 30
0.0
 10
42.64659891199461
 20
112.0393971416368
 30
0.0
 10
42.64659891199461
 20
112.0393971416368
 30
0.0
 10
42.64659891199461
 20
112.0393971416368
 30
0.0
 10
42.64659891199461
 20
112.0393971416368
 30
0.0
 10
42.64659891199461
 20
112.0393971416368
 30
0.0
 10
42.34179891977071
 20
112.0393971416368
 30
0.0
 10
42.11319892560278
 20
111.9631971435808
 30
0.0
 10
41.93539893013884
 20
111.8107971474689
 30
0.0
 10
41.75759893467489
 20
111.632997152005
 30
0.0
 10
41.68139893661892
 20
111.455197156541
 30
0.0
 10
41.68139893661892
 20
111.2011971630211
 30
0.0
 10
41.68139893661892
 20
110.9725971688532
 30
0.0
 10
41.75759893467489
 20
110.7693971740372
 30
0.0
 10
41.93539893013884
 20
110.6169971779253
 30
0.0
 10
42.11319892560278
 20
110.4391971824613
 30
0.0
 10
42.34179891977071
 20
110.3629971844053
 30
0.0
 10
42.59579891329063
 20
110.3629971844053
 30
0.0
 10
42.62119891264262
 20
110.3629971844053
 30
0.0
 10
42.64659891199461
 20
110.3629971844053
 30
0.0
 10
42.64659891199461
 20
110.3629971844053
 30
0.0
 10
42.64659891199461
 20
110.3629971844053
 30
0.0
 10
42.64659891199461
 20
109.8041971986615
 30
0.0
 10
42.64659891199461
 20
109.8041971986615
 30
0.0
 10
42.46879891653067
 20
109.7787971993095
 30
0.0
 10
42.24019892236274
 20
109.7533971999575
 30
0.0
 10
41.98619892884282
 20
109.7533971999575
 30
0.0
 10
41.17339894957908
 20
109.7533971999575
 30
0.0
 10
40.56379896513127
 20
109.9057971960695
 30
0.0
 10
40.20819897420338
 20
110.2105971882934
 30
0.0
 10
39.87799898262749
 20
110.4899971811653
 30
0.0
 10
39.70019898716387
 20
110.8455971720932
 30
0.0
 10
39.70019898716387
 20
111.2773971610771
 30
0.0
 10
39.70019898716387
 20
111.632997152005
 30
0.0
 10
39.80179898457151
 20
111.8869971455249
 30
0.0
 10
39.97959898003546
 20
112.1155971396928
 30
0.0
 10
40.18279897485139
 20
112.3187971345087
 30
0.0
 10
40.43679896837131
 20
112.4457971312687
 30
0.0
 10
40.7669989599472
 20
112.4965971299727
 30
0.0
  0
SPLINE
  5
C0
330
70
100
AcDbEntity
  8
Capa 1
100
AcDbSpline
210
0.0
220
0.0
230
1.0
 70
     9
 71
     3
 72
    41
 73
    37
 74
     0
 42
0.0000000001
 43
0.0000000001
 40
0.0
 40
0.0
 40
0.0
 40
0.0
 40
1.0
 40
1.0
 40
1.0
 40
2.0
 40
2.0
 40
2.0
 40
3.0
 40
3.0
 40
3.0
 40
4.0
 40
4.0
 40
4.0
 40
5.0
 40
5.0
 40
5.0
 40
6.0
 40
6.0
 40
6.0
 40
7.0
 40
7.0
 40
7.0
 40
8.0
 40
8.0
 40
8.0
 40
9.0
 40
9.0
 40
9.0
 40
10.0
 40
10.0
 40
10.0
 40
11.0
 40
11.0
 40
11.0
 40
12.0
 40
12.0
 40
12.0
 40
12.0
 10
42.64659891199461
 20
112.5727971280287
 30
0.0
 10
42.90059890551486
 20
112.5727971280287
 30
0.0
 10
43.12919889968246
 20
112.4965971299727
 30
0.0
 10
43.35779889385039
 20
112.3949971325647
 30
0.0
 10
43.58639888801832
 20
112.2933971351567
 30
0.0
 10
43.76419888348226
 20
112.1155971396928
 30
0.0
 10
43.86579888089023
 20
111.9123971448769
 30
0.0
 10
43.99279887765019
 20
111.7345971494129
 30
0.0
 10
44.06899887570617
 20
111.505997155245
 30
0.0
 10
44.06899887570617
 20
111.2265971623731
 30
0.0
 10
44.06899887570617
 20
110.7947971733892
 30
0.0
 10
43.89119888024191
 20
110.4391971824613
 30
0.0
 10
43.58639888801832
 20
110.1597971895894
 30
0.0
 10
43.35779889385039
 20
109.9819971941255
 30
0.0
 10
43.0529989016265
 20
109.8549971973655
 30
0.0
 10
42.64659891199461
 20
109.8041971986615
 30
0.0
 10
42.64659891199461
 20
109.8041971986615
 30
0.0
 10
42.64659891199461
 20
110.3629971844053
 30
0.0
 10
42.64659891199461
 20
110.3629971844053
 30
0.0
 10
42.82439890745856
 20
110.3629971844053
 30
0.0
 10
42.97679890357051
 20
110.4137971831093
 30
0.0
 10
43.12919889968246
 20
110.4645971818133
 30
0.0
 10
43.28159889579441
 20
110.5407971798693
 30
0.0
 10
43.40859889255438
 20
110.6677971766293
 30
0.0
 10
43.51019888996234
 20
110.7947971733892
 30
0.0
 10
43.58639888801832
 20
110.9217971701492
 30
0.0
 10
43.63719888672231
 20
111.0741971662611
 30
0.0
 10
43.63719888672231
 20
111.2265971623731
 30
0.0
 10
43.63719888672231
 20
111.455197156541
 30
0.0
 10
43.53559888931434
 20
111.632997152005
 30
0.0
 10
43.35779889385039
 20
111.8107971474689
 30
0.0
 10
43.17999889838644
 20
111.9631971435808
 30
0.0
 10
42.95139890421852
 20
112.0393971416368
 30
0.0
 10
42.64659891199461
 20
112.0393971416368
 30
0.0
 10
42.64659891199461
 20
112.0393971416368
 30
0.0
 10
42.64659891199461
 20
112.5727971280287
 30
0.0
 10
42.64659891199461
 20
112.5727971280287
 30
0.0
  0
HATCH
  5
C1
330
70
100
AcDbEntity
  8
Capa 1
 62
   250
420
  1907995
440
 33554687
100
AcDbHatch
 10
0.0
 20
0.0
 30
0.0
210
0.0
220
0.0
230
1.0
  2
SOLID
 70
     1
 71
     1
 91
        2
 92
        1
 93
        1
 72
     4
 94
        3
 73
     0
 74
     0
 95
       77
 96
       73
 40
0.0
 40
0.0
 40
0.0
 40
0.0
 40
1.0
 40
1.0
 40
1.0
 40
2.0
 40
2.0
 40
2.0
 40
3.0
 40
3.0
 40
3.0
 40
4.0
 40
4.0
 40
4.0
 40
5.0
 40
5.0
 40
5.0
 40
6.0
 40
6.0
 40
6.0
 40
7.0
 40
7.0
 40
7.0
 40
8.0
 40
8.0
 40
8.0
 40
9.0
 40
9.0
 40
9.0
 40
10.0
 40
10.0
 40
10.0
 40
11.0
 40
11.0
 40
11.0
 40
12.0
 40
12.0
 40
12.0
 40
13.0
 40
13.0
 40
13.0
 40
14.0
 40
14.0
 40
14.0
 40
15.0
 40
15.0
 40
15.0
 40
16.0
 40
16.0
 40
16.0
 40
17.0
 40
17.0
 40
17.0
 40
18.0
 40
18.0
 40
18.0
 40
19.0
 40
19.0
 40
19.0
 40
20.0
 40
20.0
 40
20.0
 40
21.0
 40
21.0
 40
21.0
 40
22.0
 40
22.0
 40
22.0
 40
23.0
 40
23.0
 40
23.0
 40
24.0
 40
24.0
 40
24.0
 40
24.0
 10
40.7669989599472
 20
112.4965971299727
 10
40.7669989599472
 20
112.4965971299727
 10
40.81779895865119
 20
111.9885971429328
 10
40.81779895865119
 20
111.9885971429328
 10
40.61459896383525
 20
111.9377971442289
 10
40.4621989677233
 20
111.8615971461729
 10
40.36059897031534
 20
111.7853971481169
 10
40.20819897420338
 20
111.632997152005
 10
40.1319989761474
 20
111.455197156541
 10
40.1319989761474
 20
111.2519971617251
 10
40.1319989761474
 20
111.0995971656131
 10
40.18279897485139
 20
110.9471971695012
 10
40.28439897225935
 20
110.8201971727412
 10
40.38599896966732
 20
110.6423971772773
 10
40.56379896513127
 20
110.5153971805173
 10
40.79239895929919
 20
110.4137971831093
 10
41.04639895281912
 20
110.3375971850534
 10
41.35119894504302
 20
110.2867971863494
 10
41.78299893402689
 20
110.2867971863494
 10
41.60519893856294
 20
110.4137971831093
 10
41.45279894245099
 20
110.5661971792213
 10
41.35119894504302
 20
110.7439971746852
 10
41.27499894698704
 20
110.9217971701492
 10
41.22419894828307
 20
111.1249971649651
 10
41.22419894828307
 20
111.3027971604291
 10
41.22419894828307
 20
111.6583971513569
 10
41.35119894504302
 20
111.9631971435808
 10
41.60519893856294
 20
112.2171971371008
 10
41.85919893208287
 20
112.4457971312687
 10
42.18939892365876
 20
112.5727971280287
 10
42.59579891329063
 20
112.5727971280287
 10
42.59579891329063
 20
112.5727971280287
 10
42.64659891199461
 20
112.5727971280287
 10
42.64659891199461
 20
112.5727971280287
 10
42.64659891199461
 20
112.5727971280287
 10
42.64659891199461
 20
112.0393971416368
 10
42.64659891199461
 20
112.0393971416368
 10
42.64659891199461
 20
112.0393971416368
 10
42.64659891199461
 20
112.0393971416368
 10
42.64659891199461
 20
112.0393971416368
 10
42.34179891977071
 20
112.0393971416368
 10
42.11319892560278
 20
111.9631971435808
 10
41.93539893013884
 20
111.8107971474689
 10
41.75759893467489
 20
111.632997152005
 10
41.68139893661892
 20
111.455197156541
 10
41.68139893661892
 20
111.2011971630211
 10
41.68139893661892
 20
110.9725971688532
 10
41.75759893467489
 20
110.7693971740372
 10
41.93539893013884
 20
110.6169971779253
 10
42.11319892560278
 20
110.4391971824613
 10
42.34179891977071
 20
110.3629971844053
 10
42.59579891329063
 20
110.3629971844053
 10
42.62119891264262
 20
110.3629971844053
 10
42.64659891199461
 20
110.3629971844053
 10
42.64659891199461
 20
110.3629971844053
 10
42.64659891199461
 20
110.3629971844053
 10
42.64659891199461
 20
109.8041971986615
 10
42.64659891199461
 20
109.8041971986615
 10
42.46879891653067
 20
109.7787971993095
 10
42.24019892236274
 20
109.7533971999575
 10
41.98619892884282
 20
109.7533971999575
 10
41.17339894957908
 20
109.7533971999575
 10
40.56379896513127
 20
109.9057971960695
 10
40.20819897420338
 20
110.2105971882934
 10
39.87799898262749
 20
110.4899971811653
 10
39.70019898716387
 20
110.8455971720932
 10
39.70019898716387
 20
111.2773971610771
 10
39.70019898716387
 20
111.632997152005
 10
39.80179898457151
 20
111.8869971455249
 10
39.97959898003546
 20
112.1155971396928
 10
40.18279897485139
 20
112.3187971345087
 10
40.43679896837131
 20
112.4457971312687
 10
40.7669989599472
 20
112.4965971299727
 97
        0
 97
        1
330
BF
 92
        1
 93
        1
 72
     4
 94
        3
 73
     0
 74
     0
 95
       41
 96
       37
 40
0.0
 40
0.0
 40
0.0
 40
0.0
 40
1.0
 40
1.0
 40
1.0
 40
2.0
 40
2.0
 40
2.0
 40
3.0
 40
3.0
 40
3.0
 40
4.0
 40
4.0
 40
4.0
 40
5.0
 40
5.0
 40
5.0
 40
6.0
 40
6.0
 40
6.0
 40
7.0
 40
7.0
 40
7.0
 40
8.0
 40
8.0
 40
8.0
 40
9.0
 40
9.0
 40
9.0
 40
10.0
 40
10.0
 40
10.0
 40
11.0
 40
11.0
 40
11.0
 40
12.0
 40
12.0
 40
12.0
 40
12.0
 10
42.64659891199461
 20
112.5727971280287
 10
42.90059890551486
 20
112.5727971280287
 10
43.12919889968246
 20
112.4965971299727
 10
43.35779889385039
 20
112.3949971325647
 10
43.58639888801832
 20
112.2933971351567
 10
43.76419888348226
 20
112.1155971396928
 10
43.86579888089023
 20
111.9123971448769
 10
43.99279887765019
 20
111.7345971494129
 10
44.06899887570617
 20
111.505997155245
 10
44.06899887570617
 20
111.2265971623731
 10
44.06899887570617
 20
110.7947971733892
 10
43.89119888024191
 20
110.4391971824613
 10
43.58639888801832
 20
110.1597971895894
 10
43.35779889385039
 20
109.9819971941255
 10
43.0529989016265
 20
109.8549971973655
 10
42.64659891199461
 20
109.8041971986615
 10
42.64659891199461
 20
109.8041971986615
 10
42.64659891199461
 20
110.3629971844053
 10
42.64659891199461
 20
110.3629971844053
 10
42.82439890745856
 20
110.3629971844053
 10
42.97679890357051
 20
110.4137971831093
 10
43.12919889968246
 20
110.4645971818133
 10
43.28159889579441
 20
110.5407971798693
 10
43.40859889255438
 20
110.6677971766293
 10
43.51019888996234
 20
110.7947971733892
 10
43.58639888801832
 20
110.9217971701492
 10
43.63719888672231
 20
111.0741971662611
 10
43.63719888672231
 20
111.2265971623731
 10
43.63719888672231
 20
111.455197156541
 10
43.53559888931434
 20
111.632997152005
 10
43.35779889385039
 20
111.8107971474689
 10
43.17999889838644
 20
111.9631971435808
 10
42.95139890421852
 20
112.0393971416368
 10
42.64659891199461
 20
112.0393971416368
 10
42.64659891199461
 20
112.0393971416368
 10
42.64659891199461
 20
112.5727971280287
 10
42.64659891199461
 20
112.5727971280287
 97
        0
 97
        1
330
C0
 75
     2
 76
     1
 98
        1
 10
0.0
 20
0.0
450
        0
451
        0
460
0.0
461
0.0
452
        0
462
0.0
453
        0
470

  0
MTEXT
  5
C2
330
70
100
AcDbEntity
  8
Capa 1
100
AcDbMText
 10
90.46209239817441
 20
235.1913288800043
 30
0.0
 40
0.2
 41
0.0
 46
0.0
 71
     7
 72
     1
  1
\C250;\c1776925;\FMyriad Pro|b0|i0|c1;\H4.495800;\W1.000000;130
 73
     1
 44
1.0
  0
MTEXT
  5
C3
330
70
100
AcDbEntity
  8
Capa 1
100
AcDbMText
 10
43.97991670992516
 20
187.2423176615227
 30
0.0
 40
0.2
 41
0.0
 46
0.0
 71
     7
 72
     1
  1
\C250;\c1776925;\FMyriad Pro|b0|i0|c1;\H4.495800;\W1.000000;110
 11
0.0000000000000001
 21
1.0
 31
0.0
 73
     1
 44
1.0
  0
MTEXT
  5
C4
330
70
100
AcDbEntity
  8
Capa 1
100
AcDbMText
 10
60.63471406904271
 20
134.2009385515192
 30
0.0
 40
0.2
 41
0.0
 46
0.0
 71
     7
 72
     1
  1
\C250;\c1776925;\FMyriad Pro|b0|i0|c1;\H4.495800;\W1.000000;32
 73
     1
 44
1.0
  0
MTEXT
  5
C5
330
70
100
AcDbEntity
  8
Capa 1
100
AcDbMText
 10
91.84572887243787
 20
134.2009385515192
 30
0.0
 40
0.2
 41
0.0
 46
0.0
 71
     7
 72
     1
  1
\C250;\c1776925;\FMyriad Pro|b0|i0|c1;\H4.495800;\W1.000000;66
 73
     1
 44
1.0
  0
MTEXT
  5
C6
330
70
100
AcDbEntity
  8
Capa 1
100
AcDbMText
 10
89.37628442861079
 20
188.1504448314346
 30
0.0
 40
0.2
 41
0.0
 46
0.0
 71
     7
 72
     1
  1
\C250;\c1776925;\FMyriad Pro|b0|i0|c1;\H4.495800;\W1.000000;70
 73
     1
 44
1.0
  0
ENDSEC
  0
SECTION
  2
OBJECTS
  0
DICTIONARY
  5
C
330
0
100
AcDbDictionary
281
     1
  3
ACAD_COLOR
350
63
  3
ACAD_DETAILVIEWSTYLE
350
6A
  3
ACAD_GROUP
350
D
  3
ACAD_LAYOUT
350
62
  3
ACAD_MATERIAL
350
10
  3
ACAD_MLEADERSTYLE
350
66
  3
ACAD_MLINESTYLE
350
5F
  3
ACAD_PLOTSETTINGS
350
61
  3
ACAD_PLOTSTYLENAME
350
E
  3
ACAD_SCALELIST
350
42
  3
ACAD_SECTIONVIEWSTYLE
350
68
  3
ACAD_TABLESTYLE
350
64
  3
ACAD_VISUALSTYLE
350
29
  3
ACDB_RECOMPOSE_DATA
350
D0
  3
AcDbVariableDictionary
350
C7
  0
DICTIONARY
  5
63
102
{ACAD_REACTORS
330
C
102
}
330
C
100
AcDbDictionary
281
     1
  0
DICTIONARY
  5
6A
102
{ACAD_REACTORS
330
C
102
}
330
C
100
AcDbDictionary
281
     1
  3
Imperial24
350
6B
  0
DICTIONARY
  5
D
102
{ACAD_REACTORS
330
C
102
}
330
C
100
AcDbDictionary
281
     1
  0
DICTIONARY
  5
62
102
{ACAD_REACTORS
330
C
102
}
330
C
100
AcDbDictionary
281
     1
  3
Layout1
350
6F
  3
Layout2
350
77
  3
Model
350
73
  0
DICTIONARY
  5
10
102
{ACAD_REACTORS
330
C
102
}
330
C
100
AcDbDictionary
281
     1
  3
ByBlock
350
19
  3
ByLayer
350
11
  3
Global
350
21
  0
DICTIONARY
  5
66
102
{ACAD_REACTORS
330
C
102
}
330
C
100
AcDbDictionary
281
     1
  3
Standard
350
67
  0
DICTIONARY
  5
5F
102
{ACAD_REACTORS
330
C
102
}
330
C
100
AcDbDictionary
281
     1
  3
Standard
350
60
  0
DICTIONARY
  5
61
102
{ACAD_REACTORS
330
C
102
}
330
C
100
AcDbDictionary
281
     1
  0
ACDBDICTIONARYWDFLT
  5
E
102
{ACAD_REACTORS
330
C
102
}
330
C
100
AcDbDictionary
281
     1
  3
Normal
350
F
100
AcDbDictionaryWithDefault
340
F
  0
DICTIONARY
  5
42
102
{ACAD_REACTORS
330
C
102
}
330
C
100
AcDbDictionary
281
     1
  3
A0
350
43
  3
A1
350
44
  3
A2
350
45
  3
A3
350
46
  3
A4
350
47
  3
A5
350
48
  3
A6
350
49
  3
A7
350
4A
  3
A8
350
4B
  3
A9
350
4C
  3
B0
350
4D
  3
B1
350
4E
  3
B2
350
4F
  3
B3
350
50
  3
B4
350
51
  3
B5
350
52
  3
B6
350
53
  0
DICTIONARY
  5
68
102
{ACAD_REACTORS
330
C
102
}
330
C
100
AcDbDictionary
281
     1
  3
Imperial24
350
69
  0
DICTIONARY
  5
64
102
{ACAD_REACTORS
330
C
102
}
330
C
100
AcDbDictionary
281
     1
  3
Standard
350
65
  0
DICTIONARY
  5
29
102
{ACAD_REACTORS
330
C
102
}
330
C
100
AcDbDictionary
281
     1
  3
2dWireframe
350
2F
  3
Basic
350
2E
  3
Brighten
350
35
  3
ColorChange
350
39
  3
Conceptual
350
32
  3
Dim
350
34
  3
EdgeColorOff
350
41
  3
Facepattern
350
38
  3
Flat
350
2A
  3
FlatWithEdges
350
2B
  3
Gouraud
350
2C
  3
GouraudWithEdges
350
2D
  3
Hidden
350
31
  3
JitterOff
350
3F
  3
Linepattern
350
37
  3
OverhangOff
350
40
  3
Realistic
350
33
  3
Shaded
350
3E
  3
Shaded with edges
350
3D
  3
Shades of Gray
350
3A
  3
Sketchy
350
3B
  3
Thicken
350
36
  3
Wireframe
350
30
  3
X-Ray
350
3C
  0
XRECORD
  5
D0
102
{ACAD_REACTORS
330
C
102
}
330
C
100
AcDbXrecord
280
     1
 90
        1
330
65
  0
DICTIONARY
  5
C7
102
{ACAD_REACTORS
330
C
102
}
330
C
100
AcDbDictionary
281
     1
  3
CANNOSCALE
350
CC
  3
CMLEADERSTYLE
350
C9
  3
CTABLESTYLE
350
C8
  3
CVIEWDETAILSTYLE
350
CA
  3
CVIEWSECTIONSTYLE
350
CB
  0
ACDBDETAILVIEWSTYLE
  5
6B
102
{ACAD_XDICTIONARY
360
D3
102
}
102
{ACAD_REACTORS
330
6A
102
}
330
6A
100
AcDbModelDocViewStyle
 70
     0
  3
Imperial24
290
     0
100
AcDbDetailViewStyle
 70
     0
 71
     0
 90
        3
 71
     1
340
55
 62
   256
 40
0.24
340
0
 62
   256
 40
0.24
300

 40
0.36
280
     3
 71
     2
340
5D
 90
       25
 62
   256
 71
     3
340
55
 62
   256
 40
0.24
 90
        1
 40
0.75
 90
        1
300
%<\AcVar ViewType \f "%tc1">% %<\AcVar ViewDetailId>%\PSCALE %<\AcVar ViewScale \f "%sn">%
 71
     4
340
5D
 90
       25
 62
   256
340
5D
 90
       25
 62
   256
280
     0
  0
LAYOUT
  5
6F
102
{ACAD_REACTORS
330
62
102
}
330
62
100
AcDbPlotSettings
  1

  2

  4

  6

 40
0.0
 41
0.0
 42
0.0
 43
0.0
 44
0.0
 45
0.0
 46
0.0
 47
0.0
 48
0.0
 49
0.0
140
0.0
141
0.0
142
1.0
143
1.0
 70
   688
 72
     0
 73
     0
 74
     5
  7

 75
    16
147
1.0
 76
     0
 77
     2
 78
   300
148
0.0
149
0.0
100
AcDbLayout
  1
Layout1
 70
     1
 71
     1
 10
0.0
 20
0.0
 11
12.0
 21
9.0
 12
0.0
 22
0.0
 32
0.0
 14
0.0
 24
0.0
 34
0.0
 15
0.0
 25
0.0
 35
0.0
146
0.0
 13
0.0
 23
0.0
 33
0.0
 16
1.0
 26
0.0
 36
0.0
 17
0.0
 27
1.0
 37
0.0
 76
     0
330
6C
  0
LAYOUT
  5
77
102
{ACAD_REACTORS
330
62
102
}
330
62
100
AcDbPlotSettings
  1

  2

  4

  6

 40
0.0
 41
0.0
 42
0.0
 43
0.0
 44
0.0
 45
0.0
 46
0.0
 47
0.0
 48
0.0
 49
0.0
140
0.0
141
0.0
142
1.0
143
1.0
 70
   688
 72
     0
 73
     0
 74
     5
  7

 75
    16
147
1.0
 76
     0
 77
     2
 78
   300
148
0.0
149
0.0
100
AcDbLayout
  1
Layout2
 70
     1
 71
     2
 10
0.0
 20
0.0
 11
12.0
 21
9.0
 12
0.0
 22
0.0
 32
0.0
 14
0.0
 24
0.0
 34
0.0
 15
0.0
 25
0.0
 35
0.0
146
0.0
 13
0.0
 23
0.0
 33
0.0
 16
1.0
 26
0.0
 36
0.0
 17
0.0
 27
1.0
 37
0.0
 76
     0
330
74
  0
LAYOUT
  5
73
102
{ACAD_REACTORS
330
62
102
}
330
62
100
AcDbPlotSettings
  1

  2

  4

  6

 40
0.0
 41
0.0
 42
0.0
 43
0.0
 44
0.0
 45
0.0
 46
0.0
 47
0.0
 48
0.0
 49
0.0
140
0.0
141
0.0
142
1.0
143
1.0
 70
  1712
 72
     0
 73
     0
 74
     0
  7

 75
     0
147
1.0
 76
     0
 77
     2
 78
   300
148
0.0
149
0.0
100
AcDbLayout
  1
Model
 70
     1
 71
     0
 10
0.0
 20
0.0
 11
12.0
 21
9.0
 12
0.0
 22
0.0
 32
0.0
 14
0.0
 24
0.0
 34
0.0
 15
0.0
 25
0.0
 35
0.0
146
0.0
 13
0.0
 23
0.0
 33
0.0
 16
1.0
 26
0.0
 36
0.0
 17
0.0
 27
1.0
 37
0.0
 76
     0
330
70
  0
MATERIAL
  5
19
102
{ACAD_XDICTIONARY
360
1A
102
}
102
{ACAD_REACTORS
330
10
102
}
330
10
100
AcDbMaterial
  1
ByBlock
 72
     0
 43
0.0208333333333333
 43
0.0
 43
0.0
 43
0.0
 43
0.0
 43
0.0208333333333333
 43
0.0
 43
0.0
 43
0.0
 43
0.0
 43
1.0
 43
0.0
 43
0.0
 43
0.0
 43
0.0
 43
1.0
 77
     0
 47
0.0208333333333333
 47
0.0
 47
0.0
 47
0.0
 47
0.0
 47
0.0208333333333333
 47
0.0
 47
0.0
 47
0.0
 47
0.0
 47
1.0
 47
0.0
 47
0.0
 47
0.0
 47
0.0
 47
1.0
171
     0
 49
0.0208333333333333
 49
0.0
 49
0.0
 49
0.0
 49
0.0
 49
0.0208333333333333
 49
0.0
 49
0.0
 49
0.0
 49
0.0
 49
1.0
 49
0.0
 49
0.0
 49
0.0
 49
0.0
 49
1.0
175
     0
142
0.0208333333333333
142
0.0
142
0.0
142
0.0
142
0.0
142
0.0208333333333333
142
0.0
142
0.0
142
0.0
142
0.0
142
1.0
142
0.0
142
0.0
142
0.0
142
0.0
142
1.0
179
     0
144
0.0208333333333333
144
0.0
144
0.0
144
0.0
144
0.0
144
0.0208333333333333
144
0.0
144
0.0
144
0.0
144
0.0
144
1.0
144
0.0
144
0.0
144
0.0
144
0.0
144
1.0
147
0.0208333333333333
147
0.0
147
0.0
147
0.0
147
0.0
147
0.0208333333333333
147
0.0
147
0.0
147
0.0
147
0.0
147
1.0
147
0.0
147
0.0
147
0.0
147
0.0
147
1.0
  0
MATERIAL
  5
11
102
{ACAD_XDICTIONARY
360
12
102
}
102
{ACAD_REACTORS
330
10
102
}
330
10
100
AcDbMaterial
  1
ByLayer
 72
     0
 43
0.0208333333333333
 43
0.0
 43
0.0
 43
0.0
 43
0.0
 43
0.0208333333333333
 43
0.0
 43
0.0
 43
0.0
 43
0.0
 43
1.0
 43
0.0
 43
0.0
 43
0.0
 43
0.0
 43
1.0
 77
     0
 47
0.0208333333333333
 47
0.0
 47
0.0
 47
0.0
 47
0.0
 47
0.0208333333333333
 47
0.0
 47
0.0
 47
0.0
 47
0.0
 47
1.0
 47
0.0
 47
0.0
 47
0.0
 47
0.0
 47
1.0
171
     0
 49
0.0208333333333333
 49
0.0
 49
0.0
 49
0.0
 49
0.0
 49
0.0208333333333333
 49
0.0
 49
0.0
 49
0.0
 49
0.0
 49
1.0
 49
0.0
 49
0.0
 49
0.0
 49
0.0
 49
1.0
175
     0
142
0.0208333333333333
142
0.0
142
0.0
142
0.0
142
0.0
142
0.0208333333333333
142
0.0
142
0.0
142
0.0
142
0.0
142
1.0
142
0.0
142
0.0
142
0.0
142
0.0
142
1.0
179
     0
144
0.0208333333333333
144
0.0
144
0.0
144
0.0
144
0.0
144
0.0208333333333333
144
0.0
144
0.0
144
0.0
144
0.0
144
1.0
144
0.0
144
0.0
144
0.0
144
0.0
144
1.0
147
0.0208333333333333
147
0.0
147
0.0
147
0.0
147
0.0
147
0.0208333333333333
147
0.0
147
0.0
147
0.0
147
0.0
147
1.0
147
0.0
147
0.0
147
0.0
147
0.0
147
1.0
  0
MATERIAL
  5
21
102
{ACAD_XDICTIONARY
360
22
102
}
102
{ACAD_REACTORS
330
10
102
}
330
10
100
AcDbMaterial
  1
Global
 72
     0
 43
0.0208333333333333
 43
0.0
 43
0.0
 43
0.0
 43
0.0
 43
0.0208333333333333
 43
0.0
 43
0.0
 43
0.0
 43
0.0
 43
1.0
 43
0.0
 43
0.0
 43
0.0
 43
0.0
 43
1.0
 77
     0
 47
0.0208333333333333
 47
0.0
 47
0.0
 47
0.0
 47
0.0
 47
0.0208333333333333
 47
0.0
 47
0.0
 47
0.0
 47
0.0
 47
1.0
 47
0.0
 47
0.0
 47
0.0
 47
0.0
 47
1.0
171
     0
 49
0.0208333333333333
 49
0.0
 49
0.0
 49
0.0
 49
0.0
 49
0.0208333333333333
 49
0.0
 49
0.0
 49
0.0
 49
0.0
 49
1.0
 49
0.0
 49
0.0
 49
0.0
 49
0.0
 49
1.0
175
     0
142
0.0208333333333333
142
0.0
142
0.0
142
0.0
142
0.0
142
0.0208333333333333
142
0.0
142
0.0
142
0.0
142
0.0
142
1.0
142
0.0
142
0.0
142
0.0
142
0.0
142
1.0
179
     0
144
0.0208333333333333
144
0.0
144
0.0
144
0.0
144
0.0
144
0.0208333333333333
144
0.0
144
0.0
144
0.0
144
0.0
144
1.0
144
0.0
144
0.0
144
0.0
144
0.0
144
1.0
147
0.0208333333333333
147
0.0
147
0.0
147
0.0
147
0.0
147
0.0208333333333333
147
0.0
147
0.0
147
0.0
147
0.0
147
1.0
147
0.0
147
0.0
147
0.0
147
0.0
147
1.0
  0
MLEADERSTYLE
  5
67
102
{ACAD_REACTORS
330
66
102
}
330
66
100
AcDbMLeaderStyle
179
     2
170
     2
171
     1
172
     0
 90
        2
 40
0.0
 41
0.0
173
     1
 91
-1056964608
340
5B
 92
       -2
290
     1
 42
0.09
291
     1
 43
0.36
  3
Standard
 44
0.18
300

342
55
174
     1
178
     6
175
     1
176
     0
 93
-1056964608
 45
0.18
292
     0
297
     0
 46
0.18
 94
-1056964608
 47
1.0
 49
1.0
140
1.0
293
     1
141
0.0
294
     1
177
     0
142
1.0
295
     0
296
     0
143
0.125
271
     0
272
     9
273
     9
298
     1
  0
MLINESTYLE
  5
60
102
{ACAD_REACTORS
330
5F
102
}
330
5F
100
AcDbMlineStyle
  2
STANDARD
 70
     0
  3

 62
   256
 51
90.0
 52
90.0
 71
     2
 49
0.5
 62
   256
  6
BYLAYER
 49
-0.5
 62
   256
  6
BYLAYER
  0
ACDBPLACEHOLDER
  5
F
102
{ACAD_REACTORS
330
E
102
}
330
E
  0
SCALE
  5
43
102
{ACAD_REACTORS
330
42
102
}
330
42
100
AcDbScale
 70
     0
300
1:1
140
1.0
141
1.0
290
     1
  0
SCALE
  5
44
102
{ACAD_REACTORS
330
42
102
}
330
42
100
AcDbScale
 70
     0
300
1/128" = 1'-0"
140
0.0078125
141
12.0
290
     0
  0
SCALE
  5
45
102
{ACAD_REACTORS
330
42
102
}
330
42
100
AcDbScale
 70
     0
300
1/64" = 1'-0"
140
0.015625
141
12.0
290
     0
  0
SCALE
  5
46
102
{ACAD_REACTORS
330
42
102
}
330
42
100
AcDbScale
 70
     0
300
1/32" = 1'-0"
140
0.03125
141
12.0
290
     0
  0
SCALE
  5
47
102
{ACAD_REACTORS
330
42
102
}
330
42
100
AcDbScale
 70
     0
300
1/16" = 1'-0"
140
0.0625
141
12.0
290
     0
  0
SCALE
  5
48
102
{ACAD_REACTORS
330
42
102
}
330
42
100
AcDbScale
 70
     0
300
3/32" = 1'-0"
140
0.09375
141
12.0
290
     0
  0
SCALE
  5
49
102
{ACAD_REACTORS
330
42
102
}
330
42
100
AcDbScale
 70
     0
300
1/8" = 1'-0"
140
0.125
141
12.0
290
     0
  0
SCALE
  5
4A
102
{ACAD_REACTORS
330
42
102
}
330
42
100
AcDbScale
 70
     0
300
3/16" = 1'-0"
140
0.1875
141
12.0
290
     0
  0
SCALE
  5
4B
102
{ACAD_REACTORS
330
42
102
}
330
42
100
AcDbScale
 70
     0
300
1/4" = 1'-0"
140
0.25
141
12.0
290
     0
  0
SCALE
  5
4C
102
{ACAD_REACTORS
330
42
102
}
330
42
100
AcDbScale
 70
     0
300
3/8" = 1'-0"
140
0.375
141
12.0
290
     0
  0
SCALE
  5
4D
102
{ACAD_REACTORS
330
42
102
}
330
42
100
AcDbScale
 70
     0
300
1/2" = 1'-0"
140
0.5
141
12.0
290
     0
  0
SCALE
  5
4E
102
{ACAD_REACTORS
330
42
102
}
330
42
100
AcDbScale
 70
     0
300
3/4" = 1'-0"
140
0.75
141
12.0
290
     0
  0
SCALE
  5
4F
102
{ACAD_REACTORS
330
42
102
}
330
42
100
AcDbScale
 70
     0
300
1" = 1'-0"
140
1.0
141
12.0
290
     0
  0
SCALE
  5
50
102
{ACAD_REACTORS
330
42
102
}
330
42
100
AcDbScale
 70
     0
300
1-1/2" = 1'-0"
140
1.5
141
12.0
290
     0
  0
SCALE
  5
51
102
{ACAD_REACTORS
330
42
102
}
330
42
100
AcDbScale
 70
     0
300
3" = 1'-0"
140
3.0
141
12.0
290
     0
  0
SCALE
  5
52
102
{ACAD_REACTORS
330
42
102
}
330
42
100
AcDbScale
 70
     0
300
6" = 1'-0"
140
6.0
141
12.0
290
     0
  0
SCALE
  5
53
102
{ACAD_REACTORS
330
42
102
}
330
42
100
AcDbScale
 70
     0
300
1'-0" = 1'-0"
140
12.0
141
12.0
290
     0
  0
ACDBSECTIONVIEWSTYLE
  5
69
102
{ACAD_XDICTIONARY
360
D1
102
}
102
{ACAD_REACTORS
330
68
102
}
330
68
100
AcDbModelDocViewStyle
 70
     0
  3
Imperial24
290
     0
100
AcDbSectionViewStyle
 70
     0
 71
     0
 90
       78
 71
     1
340
55
 62
   256
 40
0.24
340
0
340
0
 62
   256
 40
0.24
300
I, O, Q, S, X, Z
 40
0.48
 90
        3
 40
0.18
 90
        1
 71
     2
340
5D
 90
       25
 62
   256
340
5D
 90
       50
 62
   256
 40
0.24
 40
0.0
 40
0.24
 71
     3
340
55
 62
   256
 40
0.24
 90
        1
 40
0.75
 90
        1
300
%<\AcVar ViewType \f "%tc1">% %<\AcVar ViewSectionStartId>%-%<\AcVar ViewSectionEndId>%\PSCALE %<\AcVar ViewScale \f "%sn">%
 71
     4
 62
   256
 62
   257
300
ANSI31
 40
1.0
 90
        0
290
     0
290
     0
 90
        6
 40
0.0
 40
1.570796326794896
 40
0.2617993877991494
 40
1.308996938995747
 40
-0.2617993877991494
 40
1.832595714594046
  0
TABLESTYLE
  5
65
102
{ACAD_XDICTIONARY
360
CD
102
}
102
{ACAD_REACTORS
330
64
102
}
330
64
100
AcDbTableStyle
280
     0
  3
Standard
 70
     0
 71
     0
 40
0.06
 41
0.06
280
     0
281
     0
  7
Standard
140
0.18
170
     2
 62
     0
 63
     7
283
     0
 90
      512
 91
        0
  1

274
    -2
284
     1
 64
     0
275
    -2
285
     1
 65
     0
276
    -2
286
     1
 66
     0
277
    -2
287
     1
 67
     0
278
    -2
288
     1
 68
     0
279
    -2
289
     1
 69
     0
  7
Standard
140
0.25
170
     5
 62
     0
 63
     7
283
     0
 90
      512
 91
        0
  1

274
    -2
284
     1
 64
     0
275
    -2
285
     1
 65
     0
276
    -2
286
     1
 66
     0
277
    -2
287
     1
 67
     0
278
    -2
288
     1
 68
     0
279
    -2
289
     1
 69
     0
  7
Standard
140
0.18
170
     5
 62
     0
 63
     7
283
     0
 90
      512
 91
        0
  1

274
    -2
284
     1
 64
     0
275
    -2
285
     1
 65
     0
276
    -2
286
     1
 66
     0
277
    -2
287
     1
 67
     0
278
    -2
288
     1
 68
     0
279
    -2
289
     1
 69
     0
  0
VISUALSTYLE
  5
2F
102
{ACAD_REACTORS
330
29
102
}
330
29
100
AcDbVisualStyle
  2
2dWireframe
 70
     4
177
     3
291
     0
 70
    58
 90
        0
176
     1
 90
        2
176
     1
 90
        0
176
     1
 90
        0
176
     1
 40
0.6
176
     1
 40
30.0
176
     1
 62
     7
420
 16777215
176
     1
 90
        1
176
     1
 90
        4
176
     1
 62
     7
176
     1
 62
   257
176
     1
 90
        1
176
     1
 90
        1
176
     1
 40
1.0
176
     1
 90
        0
176
     1
 62
   257
176
     1
 40
1.0
176
     1
 90
        1
176
     1
 90
        6
176
     1
 90
        2
176
     1
 62
     7
176
     1
 90
        5
176
     1
 90
        0
176
     1
 90
        0
176
     1
290
     0
176
     1
 90
        1
176
     1
 40
0.0
176
     1
 90
        0
176
     1
290
     1
176
     1
290
     1
176
     1
290
     0
176
     1
290
     0
176
     1
290
     0
176
     1
290
     0
176
     1
290
     0
176
     1
290
     0
176
     1
290
     0
176
     1
 90
       50
176
     1
 40
0.0
176
     1
 40
1.0
176
     1
 90
        0
176
     1
 62
    18
420
        0
176
     1
 90
       50
176
     1
 90
        3
176
     1
 62
     5
420
      255
176
     1
290
     0
176
     1
 90
       50
176
     1
 90
       50
176
     1
 90
       50
176
     1
290
     0
176
     1
 90
       50
176
     1
 62
   256
176
     0
 40
1.0
176
     0
 90
        2
176
     1
  1
strokes_ogs.tif
176
     1
290
     0
176
     1
 40
1.0
176
     1
 40
1.0
176
     1
1001
ACAD
1000
AcDbSavedByObjectVersion
1070
     0
  0
VISUALSTYLE
  5
2E
102
{ACAD_REACTORS
330
29
102
}
330
29
100
AcDbVisualStyle
  2
Basic
 70
     7
177
     3
291
     1
 70
    58
 90
        1
176
     1
 90
        0
176
     1
 90
        1
176
     1
 90
        0
176
     1
 40
0.6
176
     1
 40
30.0
176
     1
 62
     7
420
 16777215
176
     1
 90
        0
176
     1
 90
        4
176
     1
 62
     7
176
     1
 62
   257
176
     1
 90
        1
176
     1
 90
        1
176
     1
 40
1.0
176
     1
 90
        8
176
     1
 62
     7
176
     1
 40
1.0
176
     1
 90
        1
176
     1
 90
        6
176
     1
 90
        2
176
     1
 62
     7
176
     1
 90
        5
176
     1
 90
        0
176
     1
 90
        0
176
     1
290
     0
176
     1
 90
        1
176
     1
 40
0.0
176
     1
 90
        0
176
     1
290
     0
176
     1
290
     1
176
     1
290
     1
176
     1
290
     0
176
     1
290
     0
176
     1
290
     0
176
     1
290
     0
176
     1
290
     0
176
     1
290
     0
176
     1
 90
       50
176
     1
 40
0.0
176
     1
 40
1.0
176
     1
 90
        0
176
     1
 62
    18
420
        0
176
     1
 90
       50
176
     1
 90
        3
176
     1
 62
     5
420
      255
176
     1
290
     0
176
     1
 90
       50
176
     1
 90
       50
176
     1
 90
       50
176
     1
290
     0
176
     1
 90
       50
176
     1
 62
   256
176
     0
 40
1.0
176
     0
 90
        2
176
     1
  1
strokes_ogs.tif
176
     1
290
     0
176
     1
 40
1.0
176
     1
 40
1.0
176
     1
1001
ACAD
1000
AcDbSavedByObjectVersion
1070
     0
  0
VISUALSTYLE
  5
35
102
{ACAD_REACTORS
330
29
102
}
330
29
100
AcDbVisualStyle
  2
Brighten
 70
    12
177
     3
291
     1
 70
    58
 90
        2
176
     1
 90
        2
176
     1
 90
        0
176
     1
 90
        0
176
     1
 40
0.6
176
     1
 40
30.0
176
     1
 62
     7
420
 16777215
176
     1
 90
        1
176
     1
 90
        4
176
     1
 62
     7
176
     1
 62
   257
176
     1
 90
        1
176
     1
 90
        1
176
     1
 40
1.0
176
     1
 90
        8
176
     1
 62
     7
176
     1
 40
1.0
176
     1
 90
        1
176
     1
 90
        6
176
     1
 90
        2
176
     1
 62
     7
176
     1
 90
        5
176
     1
 90
        0
176
     1
 90
        0
176
     1
290
     0
176
     1
 90
        1
176
     1
 40
50.0
176
     1
 90
        0
176
     1
290
     0
176
     1
290
     1
176
     1
290
     1
176
     1
290
     0
176
     1
290
     0
176
     1
290
     0
176
     1
290
     0
176
     1
290
     0
176
     1
290
     0
176
     1
 90
       50
176
     1
 40
0.0
176
     1
 40
1.0
176
     1
 90
        0
176
     1
 62
    18
420
        0
176
     1
 90
       50
176
     1
 90
        3
176
     1
 62
     5
420
      255
176
     1
290
     0
176
     1
 90
       50
176
     1
 90
       50
176
     1
 90
       50
176
     1
290
     0
176
     1
 90
       50
176
     1
 62
   256
176
     0
 40
1.0
176
     0
 90
        2
176
     1
  1
strokes_ogs.tif
176
     1
290
     0
176
     1
 40
1.0
176
     1
 40
1.0
176
     1
1001
ACAD
1000
AcDbSavedByObjectVersion
1070
     0
  0
VISUALSTYLE
  5
39
102
{ACAD_REACTORS
330
29
102
}
330
29
100
AcDbVisualStyle
  2
ColorChange
 70
    16
177
     3
291
     1
 70
    58
 90
        2
176
     1
 90
        2
176
     1
 90
        3
176
     1
 90
        0
176
     1
 40
0.6
176
     1
 40
30.0
176
     1
 62
     8
420
  8421504
176
     1
 90
        1
176
     1
 90
        4
176
     1
 62
     7
176
     1
 62
   257
176
     1
 90
        1
176
     1
 90
        1
176
     1
 40
1.0
176
     1
 90
        8
176
     1
 62
     8
420
  8421504
176
     1
 40
1.0
176
     1
 90
        1
176
     1
 90
        6
176
     1
 90
        2
176
     1
 62
     7
176
     1
 90
        5
176
     1
 90
        0
176
     1
 90
        0
176
     1
290
     0
176
     1
 90
        1
176
     1
 40
0.0
176
     1
 90
        0
176
     1
290
     0
176
     1
290
     1
176
     1
290
     1
176
     1
290
     0
176
     1
290
     0
176
     1
290
     0
176
     1
290
     0
176
     1
290
     0
176
     1
290
     0
176
     1
 90
       50
176
     1
 40
0.0
176
     1
 40
1.0
176
     1
 90
        0
176
     1
 62
    18
420
        0
176
     1
 90
       50
176
     1
 90
        3
176
     1
 62
     5
420
      255
176
     1
290
     0
176
     1
 90
       50
176
     1
 90
       50
176
     1
 90
       50
176
     1
290
     0
176
     1
 90
       50
176
     1
 62
   256
176
     0
 40
1.0
176
     0
 90
        2
176
     1
  1
strokes_ogs.tif
176
     1
290
     0
176
     1
 40
1.0
176
     1
 40
1.0
176
     1
1001
ACAD
1000
AcDbSavedByObjectVersion
1070
     0
  0
VISUALSTYLE
  5
32
102
{ACAD_REACTORS
330
29
102
}
330
29
100
AcDbVisualStyle
  2
Conceptual
 70
     9
177
     3
291
     0
 70
    58
 90
        3
176
     1
 90
        2
176
     1
 90
        0
176
     1
 90
        0
176
     1
 40
0.6
176
     1
 40
30.0
176
     1
 62
     7
420
 16777215
176
     1
 90
        2
176
     1
 90
        2
176
     1
 62
     7
176
     1
 62
   257
176
     1
 90
        1
176
     1
 90
        1
176
     1
 40
179.0
176
     1
 90
        8
176
     1
 62
     7
176
     1
 40
1.0
176
     1
 90
        1
176
     1
 90
        6
176
     1
 90
        2
176
     1
 62
     7
176
     1
 90
        3
176
     1
 90
        0
176
     1
 90
        0
176
     1
290
     0
176
     1
 90
        1
176
     1
 40
0.0
176
     1
 90
        0
176
     1
290
     0
176
     1
290
     1
176
     1
290
     1
176
     1
290
     0
176
     1
290
     0
176
     1
290
     0
176
     1
290
     0
176
     1
290
     0
176
     1
290
     0
176
     1
 90
       50
176
     1
 40
0.0
176
     1
 40
1.0
176
     1
 90
        0
176
     1
 62
    18
420
        0
176
     1
 90
       50
176
     1
 90
        3
176
     1
 62
     5
420
      255
176
     1
290
     0
176
     1
 90
       50
176
     1
 90
       50
176
     1
 90
       50
176
     1
290
     0
176
     1
 90
       50
176
     1
 62
   256
176
     0
 40
1.0
176
     0
 90
        2
176
     1
  1
strokes_ogs.tif
176
     1
290
     0
176
     1
 40
1.0
176
     1
 40
1.0
176
     1
1001
ACAD
1000
AcDbSavedByObjectVersion
1070
     0
  0
VISUALSTYLE
  5
34
102
{ACAD_REACTORS
330
29
102
}
330
29
100
AcDbVisualStyle
  2
Dim
 70
    11
177
     3
291
     1
 70
    58
 90
        2
176
     1
 90
        2
176
     1
 90
        0
176
     1
 90
        0
176
     1
 40
0.6
176
     1
 40
30.0
176
     1
 62
     7
420
 16777215
176
     1
 90
        1
176
     1
 90
        4
176
     1
 62
     7
176
     1
 62
   257
176
     1
 90
        1
176
     1
 90
        1
176
     1
 40
1.0
176
     1
 90
        8
176
     1
 62
     7
176
     1
 40
1.0
176
     1
 90
        1
176
     1
 90
        6
176
     1
 90
        2
176
     1
 62
     7
176
     1
 90
        5
176
     1
 90
        0
176
     1
 90
        0
176
     1
290
     0
176
     1
 90
        1
176
     1
 40
-50.0
176
     1
 90
        0
176
     1
290
     0
176
     1
290
     1
176
     1
290
     1
176
     1
290
     0
176
     1
290
     0
176
     1
290
     0
176
     1
290
     0
176
     1
290
     0
176
     1
290
     0
176
     1
 90
       50
176
     1
 40
0.0
176
     1
 40
1.0
176
     1
 90
        0
176
     1
 62
    18
420
        0
176
     1
 90
       50
176
     1
 90
        3
176
     1
 62
     5
420
      255
176
     1
290
     0
176
     1
 90
       50
176
     1
 90
       50
176
     1
 90
       50
176
     1
290
     0
176
     1
 90
       50
176
     1
 62
   256
176
     0
 40
1.0
176
     0
 90
        2
176
     1
  1
strokes_ogs.tif
176
     1
290
     0
176
     1
 40
1.0
176
     1
 40
1.0
176
     1
1001
ACAD
1000
AcDbSavedByObjectVersion
1070
     0
  0
VISUALSTYLE
  5
41
102
{ACAD_REACTORS
330
29
102
}
330
29
100
AcDbVisualStyle
  2
EdgeColorOff
 70
    22
177
     3
291
     1
 70
    58
 90
        2
176
     0
 90
        2
176
     0
 90
        0
176
     0
 90
        0
176
     0
 40
0.6
176
     0
 40
30.0
176
     0
 62
     7
420
 16777215
176
     0
 90
        1
176
     0
 90
        4
176
     0
 62
     7
176
     0
 62
   257
176
     0
 90
        1
176
     0
 90
        1
176
     0
 40
1.0
176
     0
 90
        8
176
     2
 62
     7
176
     0
 40
1.0
176
     0
 90
        1
176
     0
 90
        6
176
     0
 90
        2
176
     0
 62
     7
176
     0
 90
        5
176
     0
 90
        0
176
     0
 90
        0
176
     0
290
     0
176
     0
 90
        1
176
     0
 40
0.0
176
     0
 90
        0
176
     0
290
     0
176
     0
290
     1
176
     0
290
     1
176
     0
290
     0
176
     0
290
     0
176
     0
290
     0
176
     0
290
     0
176
     0
290
     0
176
     0
290
     0
176
     0
 90
       50
176
     0
 40
0.0
176
     0
 40
1.0
176
     0
 90
        0
176
     0
 62
    18
420
        0
176
     0
 90
       50
176
     0
 90
        3
176
     0
 62
     5
420
      255
176
     0
290
     0
176
     0
 90
       50
176
     0
 90
       50
176
     0
 90
       50
176
     0
290
     0
176
     0
 90
       50
176
     0
 62
   256
176
     0
 40
1.0
176
     0
 90
        2
176
     0
  1
strokes_ogs.tif
176
     0
290
     0
176
     0
 40
1.0
176
     0
 40
1.0
176
     0
1001
ACAD
1000
AcDbSavedByObjectVersion
1070
     0
  0
VISUALSTYLE
  5
38
102
{ACAD_REACTORS
330
29
102
}
330
29
100
AcDbVisualStyle
  2
Facepattern
 70
    15
177
     3
291
     1
 70
    58
 90
        2
176
     1
 90
        2
176
     1
 90
        0
176
     1
 90
        0
176
     1
 40
0.6
176
     1
 40
30.0
176
     1
 62
     7
420
 16777215
176
     1
 90
        1
176
     1
 90
        4
176
     1
 62
     7
176
     1
 62
   257
176
     1
 90
        1
176
     1
 90
        1
176
     1
 40
1.0
176
     1
 90
        8
176
     1
 62
     7
176
     1
 40
1.0
176
     1
 90
        1
176
     1
 90
        6
176
     1
 90
        2
176
     1
 62
     7
176
     1
 90
        5
176
     1
 90
        0
176
     1
 90
        0
176
     1
290
     0
176
     1
 90
        1
176
     1
 40
0.0
176
     1
 90
        0
176
     1
290
     0
176
     1
290
     1
176
     1
290
     1
176
     1
290
     0
176
     1
290
     0
176
     1
290
     0
176
     1
290
     0
176
     1
290
     0
176
     1
290
     0
176
     1
 90
       50
176
     1
 40
0.0
176
     1
 40
1.0
176
     1
 90
        0
176
     1
 62
    18
420
        0
176
     1
 90
       50
176
     1
 90
        3
176
     1
 62
     5
420
      255
176
     1
290
     0
176
     1
 90
       50
176
     1
 90
       50
176
     1
 90
       50
176
     1
290
     0
176
     1
 90
       50
176
     1
 62
   256
176
     0
 40
1.0
176
     0
 90
        2
176
     1
  1
strokes_ogs.tif
176
     1
290
     0
176
     1
 40
1.0
176
     1
 40
1.0
176
     1
1001
ACAD
1000
AcDbSavedByObjectVersion
1070
     0
  0
VISUALSTYLE
  5
2A
102
{ACAD_REACTORS
330
29
102
}
330
29
100
AcDbVisualStyle
  2
Flat
 70
     0
177
     3
291
     1
 70
    58
 90
        2
176
     1
 90
        1
176
     1
 90
        1
176
     1
 90
        2
176
     1
 40
0.6
176
     1
 40
30.0
176
     1
 62
     7
420
 16777215
176
     1
 90
        0
176
     1
 90
        0
176
     1
 62
     7
176
     1
 62
   257
176
     1
 90
        1
176
     1
 90
        1
176
     1
 40
1.0
176
     1
 90
        8
176
     1
 62
     7
176
     1
 40
1.0
176
     1
 90
        1
176
     1
 90
        6
176
     1
 90
        2
176
     1
 62
     7
176
     1
 90
        5
176
     1
 90
        0
176
     1
 90
        0
176
     1
290
     0
176
     1
 90
       13
176
     1
 40
0.0
176
     1
 90
        0
176
     1
290
     0
176
     1
290
     1
176
     1
290
     1
176
     1
290
     0
176
     1
290
     0
176
     1
290
     0
176
     1
290
     0
176
     1
290
     0
176
     1
290
     0
176
     1
 90
       50
176
     1
 40
0.0
176
     1
 40
1.0
176
     1
 90
        0
176
     1
 62
    18
420
        0
176
     1
 90
       50
176
     1
 90
        3
176
     1
 62
     5
420
      255
176
     1
290
     0
176
     1
 90
       50
176
     1
 90
       50
176
     1
 90
       50
176
     1
290
     0
176
     1
 90
       50
176
     1
 62
   256
176
     0
 40
1.0
176
     0
 90
        2
176
     1
  1
strokes_ogs.tif
176
     1
290
     0
176
     1
 40
1.0
176
     1
 40
1.0
176
     1
1001
ACAD
1000
AcDbSavedByObjectVersion
1070
     0
  0
VISUALSTYLE
  5
2B
102
{ACAD_REACTORS
330
29
102
}
330
29
100
AcDbVisualStyle
  2
FlatWithEdges
 70
     1
177
     3
291
     1
 70
    58
 90
        2
176
     1
 90
        1
176
     1
 90
        1
176
     1
 90
        2
176
     1
 40
0.6
176
     1
 40
30.0
176
     1
 62
     7
420
 16777215
176
     1
 90
        1
176
     1
 90
        0
176
     1
 62
     7
176
     1
 62
   257
176
     1
 90
        1
176
     1
 90
        1
176
     1
 40
1.0
176
     1
 90
        0
176
     1
 62
   257
176
     1
 40
1.0
176
     1
 90
        1
176
     1
 90
        6
176
     1
 90
        2
176
     1
 62
     7
176
     1
 90
        5
176
     1
 90
        0
176
     1
 90
        0
176
     1
290
     0
176
     1
 90
       13
176
     1
 40
0.0
176
     1
 90
        0
176
     1
290
     0
176
     1
290
     1
176
     1
290
     1
176
     1
290
     0
176
     1
290
     0
176
     1
290
     0
176
     1
290
     0
176
     1
290
     0
176
     1
290
     0
176
     1
 90
       50
176
     1
 40
0.0
176
     1
 40
1.0
176
     1
 90
        0
176
     1
 62
    18
420
        0
176
     1
 90
       50
176
     1
 90
        3
176
     1
 62
     5
420
      255
176
     1
290
     0
176
     1
 90
       50
176
     1
 90
       50
176
     1
 90
       50
176
     1
290
     0
176
     1
 90
       50
176
     1
 62
   256
176
     0
 40
1.0
176
     0
 90
        2
176
     1
  1
strokes_ogs.tif
176
     1
290
     0
176
     1
 40
1.0
176
     1
 40
1.0
176
     1
1001
ACAD
1000
AcDbSavedByObjectVersion
1070
     0
  0
VISUALSTYLE
  5
2C
102
{ACAD_REACTORS
330
29
102
}
330
29
100
AcDbVisualStyle
  2
Gouraud
 70
     2
177
     3
291
     1
 70
    58
 90
        2
176
     1
 90
        2
176
     1
 90
        1
176
     1
 90
        2
176
     1
 40
0.6
176
     1
 40
30.0
176
     1
 62
     7
420
 16777215
176
     1
 90
        0
176
     1
 90
        0
176
     1
 62
     7
176
     1
 62
   257
176
     1
 90
        1
176
     1
 90
        1
176
     1
 40
1.0
176
     1
 90
        0
176
     1
 62
     7
176
     1
 40
1.0
176
     1
 90
        1
176
     1
 90
        6
176
     1
 90
        2
176
     1
 62
     7
176
     1
 90
        5
176
     1
 90
        0
176
     1
 90
        0
176
     1
290
     0
176
     1
 90
       13
176
     1
 40
0.0
176
     1
 90
        0
176
     1
290
     0
176
     1
290
     1
176
     1
290
     1
176
     1
290
     0
176
     1
290
     0
176
     1
290
     0
176
     1
290
     0
176
     1
290
     0
176
     1
290
     0
176
     1
 90
       50
176
     1
 40
0.0
176
     1
 40
1.0
176
     1
 90
        0
176
     1
 62
    18
420
        0
176
     1
 90
       50
176
     1
 90
        3
176
     1
 62
     5
420
      255
176
     1
290
     0
176
     1
 90
       50
176
     1
 90
       50
176
     1
 90
       50
176
     1
290
     0
176
     1
 90
       50
176
     1
 62
   256
176
     0
 40
1.0
176
     0
 90
        2
176
     1
  1
strokes_ogs.tif
176
     1
290
     0
176
     1
 40
1.0
176
     1
 40
1.0
176
     1
1001
ACAD
1000
AcDbSavedByObjectVersion
1070
     0
  0
VISUALSTYLE
  5
2D
102
{ACAD_REACTORS
330
29
102
}
330
29
100
AcDbVisualStyle
  2
GouraudWithEdges
 70
     3
177
     3
291
     1
 70
    58
 90
        2
176
     1
 90
        2
176
     1
 90
        1
176
     1
 90
        2
176
     1
 40
0.6
176
     1
 40
30.0
176
     1
 62
     7
420
 16777215
176
     1
 90
        1
176
     1
 90
        0
176
     1
 62
     7
176
     1
 62
   257
176
     1
 90
        1
176
     1
 90
        1
176
     1
 40
1.0
176
     1
 90
        0
176
     1
 62
   257
176
     1
 40
1.0
176
     1
 90
        1
176
     1
 90
        6
176
     1
 90
        2
176
     1
 62
     7
176
     1
 90
        5
176
     1
 90
        0
176
     1
 90
        0
176
     1
290
     0
176
     1
 90
       13
176
     1
 40
0.0
176
     1
 90
        0
176
     1
290
     0
176
     1
290
     1
176
     1
290
     1
176
     1
290
     0
176
     1
290
     0
176
     1
290
     0
176
     1
290
     0
176
     1
290
     0
176
     1
290
     0
176
     1
 90
       50
176
     1
 40
0.0
176
     1
 40
1.0
176
     1
 90
        0
176
     1
 62
    18
420
        0
176
     1
 90
       50
176
     1
 90
        3
176
     1
 62
     5
420
      255
176
     1
290
     0
176
     1
 90
       50
176
     1
 90
       50
176
     1
 90
       50
176
     1
290
     0
176
     1
 90
       50
176
     1
 62
   256
176
     0
 40
1.0
176
     0
 90
        2
176
     1
  1
strokes_ogs.tif
176
     1
290
     0
176
     1
 40
1.0
176
     1
 40
1.0
176
     1
1001
ACAD
1000
AcDbSavedByObjectVersion
1070
     0
  0
VISUALSTYLE
  5
31
102
{ACAD_REACTORS
330
29
102
}
330
29
100
AcDbVisualStyle
  2
Hidden
 70
     6
177
     3
291
     0
 70
    58
 90
        1
176
     1
 90
        2
176
     1
 90
        2
176
     1
 90
        0
176
     1
 40
0.6
176
     1
 40
30.0
176
     1
 62
     7
420
 16777215
176
     1
 90
        2
176
     1
 90
        2
176
     1
 62
     7
176
     1
 62
   257
176
     1
 90
        2
176
     1
 90
        1
176
     1
 40
40.0
176
     1
 90
        0
176
     1
 62
   257
176
     1
 40
1.0
176
     1
 90
        1
176
     1
 90
        6
176
     1
 90
        2
176
     1
 62
     7
176
     1
 90
        3
176
     1
 90
        0
176
     1
 90
        0
176
     1
290
     0
176
     1
 90
        1
176
     1
 40
0.0
176
     1
 90
        0
176
     1
290
     0
176
     1
290
     1
176
     1
290
     1
176
     1
290
     0
176
     1
290
     0
176
     1
290
     0
176
     1
290
     0
176
     1
290
     0
176
     1
290
     0
176
     1
 90
       50
176
     1
 40
0.0
176
     1
 40
1.0
176
     1
 90
        0
176
     1
 62
    18
420
        0
176
     1
 90
       50
176
     1
 90
        3
176
     1
 62
     5
420
      255
176
     1
290
     0
176
     1
 90
       50
176
     1
 90
       50
176
     1
 90
       50
176
     1
290
     0
176
     1
 90
       50
176
     1
 62
   256
176
     0
 40
1.0
176
     0
 90
        2
176
     1
  1
strokes_ogs.tif
176
     1
290
     0
176
     1
 40
1.0
176
     1
 40
1.0
176
     1
1001
ACAD
1000
AcDbSavedByObjectVersion
1070
     0
  0
VISUALSTYLE
  5
3F
102
{ACAD_REACTORS
330
29
102
}
330
29
100
AcDbVisualStyle
  2
JitterOff
 70
    20
177
     3
291
     1
 70
    58
 90
        2
176
     0
 90
        2
176
     0
 90
        0
176
     0
 90
        0
176
     0
 40
0.6
176
     0
 40
30.0
176
     0
 62
     7
420
 16777215
176
     0
 90
        1
176
     0
 90
        4
176
     0
 62
     7
176
     0
 62
   257
176
     0
 90
        1
176
     0
 90
        1
176
     0
 40
1.0
176
     0
 90
       10
176
     2
 62
     7
176
     0
 40
1.0
176
     0
 90
        1
176
     0
 90
        6
176
     0
 90
        2
176
     0
 62
     7
176
     0
 90
        5
176
     0
 90
        0
176
     0
 90
        0
176
     0
290
     0
176
     0
 90
        1
176
     0
 40
0.0
176
     0
 90
        0
176
     0
290
     0
176
     0
290
     1
176
     0
290
     1
176
     0
290
     0
176
     0
290
     0
176
     0
290
     0
176
     0
290
     0
176
     0
290
     0
176
     0
290
     0
176
     0
 90
       50
176
     0
 40
0.0
176
     0
 40
1.0
176
     0
 90
        0
176
     0
 62
    18
420
        0
176
     0
 90
       50
176
     0
 90
        3
176
     0
 62
     5
420
      255
176
     0
290
     0
176
     0
 90
       50
176
     0
 90
       50
176
     0
 90
       50
176
     0
290
     0
176
     0
 90
       50
176
     0
 62
   256
176
     0
 40
1.0
176
     0
 90
        2
176
     0
  1
strokes_ogs.tif
176
     0
290
     0
176
     0
 40
1.0
176
     0
 40
1.0
176
     0
1001
ACAD
1000
AcDbSavedByObjectVersion
1070
     0
  0
VISUALSTYLE
  5
37
102
{ACAD_REACTORS
330
29
102
}
330
29
100
AcDbVisualStyle
  2
Linepattern
 70
    14
177
     3
291
     1
 70
    58
 90
        2
176
     1
 90
        2
176
     1
 90
        0
176
     1
 90
        0
176
     1
 40
0.6
176
     1
 40
30.0
176
     1
 62
     7
420
 16777215
176
     1
 90
        1
176
     1
 90
        4
176
     1
 62
     7
176
     1
 62
   257
176
     1
 90
        7
176
     1
 90
        7
176
     1
 40
1.0
176
     1
 90
        8
176
     1
 62
     7
176
     1
 40
1.0
176
     1
 90
        1
176
     1
 90
        6
176
     1
 90
        2
176
     1
 62
     7
176
     1
 90
        5
176
     1
 90
        0
176
     1
 90
        0
176
     1
290
     0
176
     1
 90
        1
176
     1
 40
0.0
176
     1
 90
        0
176
     1
290
     0
176
     1
290
     1
176
     1
290
     1
176
     1
290
     0
176
     1
290
     0
176
     1
290
     0
176
     1
290
     0
176
     1
290
     0
176
     1
290
     0
176
     1
 90
       50
176
     1
 40
0.0
176
     1
 40
1.0
176
     1
 90
        0
176
     1
 62
    18
420
        0
176
     1
 90
       50
176
     1
 90
        3
176
     1
 62
     5
420
      255
176
     1
290
     0
176
     1
 90
       50
176
     1
 90
       50
176
     1
 90
       50
176
     1
290
     0
176
     1
 90
       50
176
     1
 62
   256
176
     0
 40
1.0
176
     0
 90
        2
176
     1
  1
strokes_ogs.tif
176
     1
290
     0
176
     1
 40
1.0
176
     1
 40
1.0
176
     1
1001
ACAD
1000
AcDbSavedByObjectVersion
1070
     0
  0
VISUALSTYLE
  5
40
102
{ACAD_REACTORS
330
29
102
}
330
29
100
AcDbVisualStyle
  2
OverhangOff
 70
    21
177
     3
291
     1
 70
    58
 90
        2
176
     0
 90
        2
176
     0
 90
        0
176
     0
 90
        0
176
     0
 40
0.6
176
     0
 40
30.0
176
     0
 62
     7
420
 16777215
176
     0
 90
        1
176
     0
 90
        4
176
     0
 62
     7
176
     0
 62
   257
176
     0
 90
        1
176
     0
 90
        1
176
     0
 40
1.0
176
     0
 90
        9
176
     2
 62
     7
176
     0
 40
1.0
176
     0
 90
        1
176
     0
 90
        6
176
     0
 90
        2
176
     0
 62
     7
176
     0
 90
        5
176
     0
 90
        0
176
     0
 90
        0
176
     0
290
     0
176
     0
 90
        1
176
     0
 40
0.0
176
     0
 90
        0
176
     0
290
     0
176
     0
290
     1
176
     0
290
     1
176
     0
290
     0
176
     0
290
     0
176
     0
290
     0
176
     0
290
     0
176
     0
290
     0
176
     0
290
     0
176
     0
 90
       50
176
     0
 40
0.0
176
     0
 40
1.0
176
     0
 90
        0
176
     0
 62
    18
420
        0
176
     0
 90
       50
176
     0
 90
        3
176
     0
 62
     5
420
      255
176
     0
290
     0
176
     0
 90
       50
176
     0
 90
       50
176
     0
 90
       50
176
     0
290
     0
176
     0
 90
       50
176
     0
 62
   256
176
     0
 40
1.0
176
     0
 90
        2
176
     0
  1
strokes_ogs.tif
176
     0
290
     0
176
     0
 40
1.0
176
     0
 40
1.0
176
     0
1001
ACAD
1000
AcDbSavedByObjectVersion
1070
     0
  0
VISUALSTYLE
  5
33
102
{ACAD_REACTORS
330
29
102
}
330
29
100
AcDbVisualStyle
  2
Realistic
 70
     8
177
     3
291
     0
 70
    58
 90
        2
176
     1
 90
        3
176
     1
 90
        0
176
     1
 90
        2
176
     1
 40
0.6
176
     1
 40
30.0
176
     1
 62
     7
420
 16777215
176
     1
 90
        0
176
     1
 90
        0
176
     1
 62
     7
176
     1
 62
   257
176
     1
 90
        1
176
     1
 90
        1
176
     1
 40
1.0
176
     1
 90
        8
176
     1
 62
   257
176
     1
 40
1.0
176
     1
 90
        1
176
     1
 90
        6
176
     1
 90
        2
176
     1
 62
     7
176
     1
 90
        3
176
     1
 90
        0
176
     1
 90
        0
176
     1
290
     0
176
     1
 90
       13
176
     1
 40
0.0
176
     1
 90
        0
176
     1
290
     0
176
     1
290
     1
176
     1
290
     1
176
     1
290
     0
176
     1
290
     0
176
     1
290
     0
176
     1
290
     0
176
     1
290
     0
176
     1
290
     0
176
     1
 90
       50
176
     1
 40
0.0
176
     1
 40
1.0
176
     1
 90
        0
176
     1
 62
    18
420
        0
176
     1
 90
       50
176
     1
 90
        3
176
     1
 62
     5
420
      255
176
     1
290
     0
176
     1
 90
       50
176
     1
 90
       50
176
     1
 90
       50
176
     1
290
     0
176
     1
 90
       50
176
     1
 62
   256
176
     0
 40
1.0
176
     0
 90
        2
176
     1
  1
strokes_ogs.tif
176
     1
290
     0
176
     1
 40
1.0
176
     1
 40
1.0
176
     1
1001
ACAD
1000
AcDbSavedByObjectVersion
1070
     0
  0
VISUALSTYLE
  5
3E
102
{ACAD_REACTORS
330
29
102
}
330
29
100
AcDbVisualStyle
  2
Shaded
 70
    27
177
     3
291
     0
 70
    58
 90
        2
176
     1
 90
        2
176
     1
 90
        1
176
     1
 90
        2
176
     1
 40
0.6
176
     1
 40
30.0
176
     1
 62
     7
420
 16777215
176
     1
 90
        0
176
     1
 90
        4
176
     1
 62
     7
176
     1
 62
   257
176
     1
 90
        1
176
     1
 90
        1
176
     1
 40
1.0
176
     1
 90
        8
176
     1
 62
   257
176
     1
 40
1.0
176
     1
 90
        1
176
     1
 90
        6
176
     1
 90
        2
176
     1
 62
     8
420
  7895160
176
     1
 90
        3
176
     1
 90
        0
176
     1
 90
        0
176
     1
290
     0
176
     1
 90
        5
176
     1
 40
0.0
176
     1
 90
        0
176
     1
290
     0
176
     1
290
     1
176
     1
290
     1
176
     1
290
     0
176
     1
290
     0
176
     1
290
     0
176
     1
290
     0
176
     1
290
     0
176
     1
290
     0
176
     1
 90
       50
176
     1
 40
0.0
176
     1
 40
1.0
176
     1
 90
        0
176
     1
 62
    18
420
        0
176
     1
 90
       50
176
     1
 90
        3
176
     1
 62
     5
420
      255
176
     1
290
     0
176
     1
 90
       50
176
     1
 90
       50
176
     1
 90
       50
176
     1
290
     0
176
     1
 90
       50
176
     1
 62
   256
176
     0
 40
1.0
176
     0
 90
        2
176
     1
  1
strokes_ogs.tif
176
     1
290
     0
176
     1
 40
1.0
176
     1
 40
1.0
176
     1
1001
ACAD
1000
AcDbSavedByObjectVersion
1070
     0
  0
VISUALSTYLE
  5
3D
102
{ACAD_REACTORS
330
29
102
}
330
29
100
AcDbVisualStyle
  2
Shaded with edges
 70
    26
177
     3
291
     0
 70
    58
 90
        2
176
     1
 90
        2
176
     1
 90
        1
176
     1
 90
        2
176
     1
 40
0.6
176
     1
 40
30.0
176
     1
 62
     7
420
 16777215
176
     1
 90
        1
176
     1
 90
        2
176
     1
 62
     7
176
     1
 62
   257
176
     1
 90
        2
176
     1
 90
        1
176
     1
 40
1.0
176
     1
 90
        8
176
     1
 62
   257
176
     1
 40
1.0
176
     1
 90
        1
176
     1
 90
        6
176
     1
 90
        2
176
     1
 62
     7
176
     1
 90
        3
176
     1
 90
        0
176
     1
 90
        0
176
     1
290
     0
176
     1
 90
        5
176
     1
 40
0.0
176
     1
 90
        0
176
     1
290
     0
176
     1
290
     1
176
     1
290
     1
176
     1
290
     0
176
     1
290
     0
176
     1
290
     0
176
     1
290
     0
176
     1
290
     0
176
     1
290
     0
176
     1
 90
       50
176
     1
 40
0.0
176
     1
 40
1.0
176
     1
 90
        0
176
     1
 62
    18
420
        0
176
     1
 90
       50
176
     1
 90
        3
176
     1
 62
     5
420
      255
176
     1
290
     0
176
     1
 90
       50
176
     1
 90
       50
176
     1
 90
       50
176
     1
290
     0
176
     1
 90
       50
176
     1
 62
   256
176
     0
 40
1.0
176
     0
 90
        2
176
     1
  1
strokes_ogs.tif
176
     1
290
     0
176
     1
 40
1.0
176
     1
 40
1.0
176
     1
1001
ACAD
1000
AcDbSavedByObjectVersion
1070
     0
  0
VISUALSTYLE
  5
3A
102
{ACAD_REACTORS
330
29
102
}
330
29
100
AcDbVisualStyle
  2
Shades of Gray
 70
    23
177
     3
291
     0
 70
    58
 90
        2
176
     1
 90
        2
176
     1
 90
        3
176
     1
 90
        0
176
     1
 40
0.6
176
     1
 40
30.0
176
     1
 62
     7
420
 16777215
176
     1
 90
        2
176
     1
 90
        2
176
     1
 62
     7
176
     1
 62
     7
176
     1
 90
        1
176
     1
 90
        1
176
     1
 40
40.0
176
     1
 90
        8
176
     1
 62
     7
176
     1
 40
1.0
176
     1
 90
        1
176
     1
 90
        6
176
     1
 90
        2
176
     1
 62
     7
176
     1
 90
        3
176
     1
 90
        0
176
     1
 90
        0
176
     1
290
     0
176
     1
 90
        1
176
     1
 40
0.0
176
     1
 90
        0
176
     1
290
     0
176
     1
290
     1
176
     1
290
     1
176
     1
290
     0
176
     1
290
     0
176
     1
290
     0
176
     1
290
     0
176
     1
290
     0
176
     1
290
     0
176
     1
 90
       50
176
     1
 40
0.0
176
     1
 40
1.0
176
     1
 90
        0
176
     1
 62
    18
420
        0
176
     1
 90
       50
176
     1
 90
        3
176
     1
 62
     5
420
      255
176
     1
290
     0
176
     1
 90
       50
176
     1
 90
       50
176
     1
 90
       50
176
     1
290
     0
176
     1
 90
       50
176
     1
 62
   256
176
     0
 40
1.0
176
     0
 90
        2
176
     1
  1
strokes_ogs.tif
176
     1
290
     0
176
     1
 40
1.0
176
     1
 40
1.0
176
     1
1001
ACAD
1000
AcDbSavedByObjectVersion
1070
     0
  0
VISUALSTYLE
  5
3B
102
{ACAD_REACTORS
330
29
102
}
330
29
100
AcDbVisualStyle
  2
Sketchy
 70
    24
177
     3
291
     0
 70
    58
 90
        1
176
     1
 90
        2
176
     1
 90
        2
176
     1
 90
        0
176
     1
 40
0.6
176
     1
 40
30.0
176
     1
 62
     7
420
 16777215
176
     1
 90
        2
176
     1
 90
        2
176
     1
 62
     7
176
     1
 62
     7
176
     1
 90
        1
176
     1
 90
        1
176
     1
 40
40.0
176
     1
 90
       11
176
     1
 62
     7
176
     1
 40
1.0
176
     1
 90
        1
176
     1
 90
        6
176
     1
 90
        2
176
     1
 62
     7
176
     1
 90
        6
176
     1
 90
        0
176
     1
 90
        0
176
     1
290
     0
176
     1
 90
        1
176
     1
 40
0.0
176
     1
 90
        0
176
     1
290
     0
176
     1
290
     1
176
     1
290
     1
176
     1
290
     0
176
     1
290
     0
176
     1
290
     0
176
     1
290
     0
176
     1
290
     0
176
     1
290
     0
176
     1
 90
       50
176
     1
 40
0.0
176
     1
 40
1.0
176
     1
 90
        0
176
     1
 62
    18
420
        0
176
     1
 90
       50
176
     1
 90
        3
176
     1
 62
     5
420
      255
176
     1
290
     0
176
     1
 90
       50
176
     1
 90
       50
176
     1
 90
       50
176
     1
290
     0
176
     1
 90
       50
176
     1
 62
   256
176
     0
 40
1.0
176
     0
 90
        2
176
     1
  1
strokes_ogs.tif
176
     1
290
     0
176
     1
 40
1.0
176
     1
 40
1.0
176
     1
1001
ACAD
1000
AcDbSavedByObjectVersion
1070
     0
  0
VISUALSTYLE
  5
36
102
{ACAD_REACTORS
330
29
102
}
330
29
100
AcDbVisualStyle
  2
Thicken
 70
    13
177
     3
291
     1
 70
    58
 90
        2
176
     1
 90
        2
176
     1
 90
        0
176
     1
 90
        0
176
     1
 40
0.6
176
     1
 40
30.0
176
     1
 62
     7
420
 16777215
176
     1
 90
        1
176
     1
 90
        4
176
     1
 62
     7
176
     1
 62
   257
176
     1
 90
        1
176
     1
 90
        1
176
     1
 40
1.0
176
     1
 90
       12
176
     1
 62
     7
176
     1
 40
1.0
176
     1
 90
        1
176
     1
 90
        6
176
     1
 90
        2
176
     1
 62
     7
176
     1
 90
        5
176
     1
 90
        0
176
     1
 90
        0
176
     1
290
     0
176
     1
 90
        1
176
     1
 40
0.0
176
     1
 90
        0
176
     1
290
     0
176
     1
290
     1
176
     1
290
     1
176
     1
290
     0
176
     1
290
     0
176
     1
290
     0
176
     1
290
     0
176
     1
290
     0
176
     1
290
     0
176
     1
 90
       50
176
     1
 40
0.0
176
     1
 40
1.0
176
     1
 90
        0
176
     1
 62
    18
420
        0
176
     1
 90
       50
176
     1
 90
        3
176
     1
 62
     5
420
      255
176
     1
290
     0
176
     1
 90
       50
176
     1
 90
       50
176
     1
 90
       50
176
     1
290
     0
176
     1
 90
       50
176
     1
 62
   256
176
     0
 40
1.0
176
     0
 90
        2
176
     1
  1
strokes_ogs.tif
176
     1
290
     0
176
     1
 40
1.0
176
     1
 40
1.0
176
     1
1001
ACAD
1000
AcDbSavedByObjectVersion
1070
     0
  0
VISUALSTYLE
  5
30
102
{ACAD_REACTORS
330
29
102
}
330
29
100
AcDbVisualStyle
  2
Wireframe
 70
     5
177
     3
291
     0
 70
    58
 90
        0
176
     1
 90
        2
176
     1
 90
        0
176
     1
 90
        0
176
     1
 40
0.6
176
     1
 40
30.0
176
     1
 62
     7
420
 16777215
176
     1
 90
        1
176
     1
 90
        4
176
     1
 62
     7
176
     1
 62
   257
176
     1
 90
        1
176
     1
 90
        1
176
     1
 40
1.0
176
     1
 90
        0
176
     1
 62
   257
176
     1
 40
1.0
176
     1
 90
        1
176
     1
 90
        6
176
     1
 90
        2
176
     1
 62
     7
176
     1
 90
        3
176
     1
 90
        0
176
     1
 90
        0
176
     1
290
     0
176
     1
 90
        1
176
     1
 40
0.0
176
     1
 90
        0
176
     1
290
     0
176
     1
290
     1
176
     1
290
     1
176
     1
290
     0
176
     1
290
     0
176
     1
290
     0
176
     1
290
     0
176
     1
290
     0
176
     1
290
     0
176
     1
 90
       50
176
     1
 40
0.0
176
     1
 40
1.0
176
     1
 90
        0
176
     1
 62
    18
420
        0
176
     1
 90
       50
176
     1
 90
        3
176
     1
 62
     5
420
      255
176
     1
290
     0
176
     1
 90
       50
176
     1
 90
       50
176
     1
 90
       50
176
     1
290
     0
176
     1
 90
       50
176
     1
 62
   256
176
     0
 40
1.0
176
     0
 90
        2
176
     1
  1
strokes_ogs.tif
176
     1
290
     0
176
     1
 40
1.0
176
     1
 40
1.0
176
     1
1001
ACAD
1000
AcDbSavedByObjectVersion
1070
     0
  0
VISUALSTYLE
  5
3C
102
{ACAD_REACTORS
330
29
102
}
330
29
100
AcDbVisualStyle
  2
X-Ray
 70
    25
177
     3
291
     0
 70
    58
 90
        2
176
     1
 90
        2
176
     1
 90
        1
176
     1
 90
        1
176
     1
 40
0.5
176
     1
 40
30.0
176
     1
 62
     7
420
 16777215
176
     1
 90
        1
176
     1
 90
        0
176
     1
 62
     7
176
     1
 62
   257
176
     1
 90
        1
176
     1
 90
        1
176
     1
 40
1.0
176
     1
 90
        8
176
     1
 62
     7
176
     1
 40
1.0
176
     1
 90
        1
176
     1
 90
        6
176
     1
 90
        2
176
     1
 62
     7
176
     1
 90
        3
176
     1
 90
        0
176
     1
 90
        0
176
     1
290
     0
176
     1
 90
       13
176
     1
 40
0.0
176
     1
 90
        0
176
     1
290
     0
176
     1
290
     1
176
     1
290
     1
176
     1
290
     0
176
     1
290
     0
176
     1
290
     0
176
     1
290
     0
176
     1
290
     0
176
     1
290
     0
176
     1
 90
       50
176
     1
 40
0.0
176
     1
 40
1.0
176
     1
 90
        0
176
     1
 62
    18
420
        0
176
     1
 90
       50
176
     1
 90
        3
176
     1
 62
     5
420
      255
176
     1
290
     0
176
     1
 90
       50
176
     1
 90
       50
176
     1
 90
       50
176
     1
290
     0
176
     1
 90
       50
176
     1
 62
   256
176
     0
 40
1.0
176
     0
 90
        2
176
     1
  1
strokes_ogs.tif
176
     1
290
     0
176
     1
 40
1.0
176
     1
 40
1.0
176
     1
1001
ACAD
1000
AcDbSavedByObjectVersion
1070
     0
  0
DICTIONARYVAR
  5
CC
102
{ACAD_REACTORS
330
C7
102
}
330
C7
100
DictionaryVariables
280
     0
  1
1:1
  0
DICTIONARYVAR
  5
C9
102
{ACAD_REACTORS
330
C7
102
}
330
C7
100
DictionaryVariables
280
     0
  1
STANDARD
  0
DICTIONARYVAR
  5
C8
102
{ACAD_REACTORS
330
C7
102
}
330
C7
100
DictionaryVariables
280
     0
  1
STANDARD
  0
DICTIONARYVAR
  5
CA
102
{ACAD_REACTORS
330
C7
102
}
330
C7
100
DictionaryVariables
280
     0
  1
Imperial24
  0
DICTIONARYVAR
  5
CB
102
{ACAD_REACTORS
330
C7
102
}
330
C7
100
DictionaryVariables
280
     0
  1
Imperial24
  0
DICTIONARY
  5
D3
330
6B
100
AcDbDictionary
280
     1
281
     1
  3
ACAD_XREC_ROUNDTRIP
360
D4
  0
DICTIONARY
  5
1A
330
19
100
AcDbDictionary
280
     1
281
     1
  3
BUMPTILE
360
1C
  3
DIFFUSETILE
360
1B
  3
OPACITYTILE
360
1F
  3
REFLECTIONTILE
360
1E
  3
REFRACTIONTILE
360
20
  3
SPECULARTILE
360
1D
  0
DICTIONARY
  5
12
330
11
100
AcDbDictionary
280
     1
281
     1
  3
BUMPTILE
360
14
  3
DIFFUSETILE
360
13
  3
OPACITYTILE
360
17
  3
REFLECTIONTILE
360
16
  3
REFRACTIONTILE
360
18
  3
SPECULARTILE
360
15
  0
DICTIONARY
  5
22
330
21
100
AcDbDictionary
280
     1
281
     1
  3
BUMPTILE
360
24
  3
DIFFUSETILE
360
23
  3
OPACITYTILE
360
27
  3
REFLECTIONTILE
360
26
  3
REFRACTIONTILE
360
28
  3
SPECULARTILE
360
25
  0
DICTIONARY
  5
D1
330
69
100
AcDbDictionary
280
     1
281
     1
  3
ACAD_XREC_ROUNDTRIP
360
D2
  0
DICTIONARY
  5
CD
330
65
100
AcDbDictionary
280
     1
281
     1
  3
ACAD_ROUNDTRIP_2008_TABLESTYLE_CELLSTYLEMAP
360
CE
  0
XRECORD
  5
D4
102
{ACAD_REACTORS
330
D3
102
}
330
D3
100
AcDbXrecord
280
     1
102
DISPLAYNAME
  1
Imperial24
102
FLAGS
 90
        0
  0
XRECORD
  5
1C
102
{ACAD_REACTORS
330
1A
102
}
330
1A
100
AcDbXrecord
280
     1
270
     1
271
     1
  0
XRECORD
  5
1B
102
{ACAD_REACTORS
330
1A
102
}
330
1A
100
AcDbXrecord
280
     1
270
     1
271
     1
  0
XRECORD
  5
1F
102
{ACAD_REACTORS
330
1A
102
}
330
1A
100
AcDbXrecord
280
     1
270
     1
271
     1
  0
XRECORD
  5
1E
102
{ACAD_REACTORS
330
1A
102
}
330
1A
100
AcDbXrecord
280
     1
270
     1
271
     1
  0
XRECORD
  5
20
102
{ACAD_REACTORS
330
1A
102
}
330
1A
100
AcDbXrecord
280
     1
270
     1
271
     1
  0
XRECORD
  5
1D
102
{ACAD_REACTORS
330
1A
102
}
330
1A
100
AcDbXrecord
280
     1
270
     1
271
     1
  0
XRECORD
  5
14
102
{ACAD_REACTORS
330
12
102
}
330
12
100
AcDbXrecord
280
     1
270
     1
271
     1
  0
XRECORD
  5
13
102
{ACAD_REACTORS
330
12
102
}
330
12
100
AcDbXrecord
280
     1
270
     1
271
     1
  0
XRECORD
  5
17
102
{ACAD_REACTORS
330
12
102
}
330
12
100
AcDbXrecord
280
     1
270
     1
271
     1
  0
XRECORD
  5
16
102
{ACAD_REACTORS
330
12
102
}
330
12
100
AcDbXrecord
280
     1
270
     1
271
     1
  0
XRECORD
  5
18
102
{ACAD_REACTORS
330
12
102
}
330
12
100
AcDbXrecord
280
     1
270
     1
271
     1
  0
XRECORD
  5
15
102
{ACAD_REACTORS
330
12
102
}
330
12
100
AcDbXrecord
280
     1
270
     1
271
     1
  0
XRECORD
  5
24
102
{ACAD_REACTORS
330
22
102
}
330
22
100
AcDbXrecord
280
     1
270
     1
271
     1
  0
XRECORD
  5
23
102
{ACAD_REACTORS
330
22
102
}
330
22
100
AcDbXrecord
280
     1
270
     1
271
     1
  0
XRECORD
  5
27
102
{ACAD_REACTORS
330
22
102
}
330
22
100
AcDbXrecord
280
     1
270
     1
271
     1
  0
XRECORD
  5
26
102
{ACAD_REACTORS
330
22
102
}
330
22
100
AcDbXrecord
280
     1
270
     1
271
     1
  0
XRECORD
  5
28
102
{ACAD_REACTORS
330
22
102
}
330
22
100
AcDbXrecord
280
     1
270
     1
271
     1
  0
XRECORD
  5
25
102
{ACAD_REACTORS
330
22
102
}
330
22
100
AcDbXrecord
280
     1
270
     1
271
     1
  0
XRECORD
  5
D2
102
{ACAD_REACTORS
330
D1
102
}
330
D1
100
AcDbXrecord
280
     1
102
DISPLAYNAME
  1
Imperial24
102
FLAGS
 90
        0
  0
CELLSTYLEMAP
  5
CE
102
{ACAD_REACTORS
330
CD
102
}
330
CD
100
AcDbCellStyleMap
 90
        3
300
CELLSTYLE
  1
TABLEFORMAT_BEGIN
 90
        5
170
     1
 91
        0
 92
    32768
 62
   257
 93
        1
300
CONTENTFORMAT
  1
CONTENTFORMAT_BEGIN
 90
        0
 91
        0
 92
      512
 93
        0
300

 40
0.0
140
1.0
 94
        5
 62
     0
340
55
144
0.25
309
CONTENTFORMAT_END
171
     0
 94
        0
309
TABLEFORMAT_END
  1
CELLSTYLE_BEGIN
 90
        1
 91
        1
300
_TITLE
309
CELLSTYLE_END
300
CELLSTYLE
  1
TABLEFORMAT_BEGIN
 90
        5
170
     1
 91
        0
 92
        0
 62
   257
 93
        1
300
CONTENTFORMAT
  1
CONTENTFORMAT_BEGIN
 90
        0
 91
        0
 92
      512
 93
        0
300

 40
0.0
140
1.0
 94
        5
 62
     0
340
55
144
0.18
309
CONTENTFORMAT_END
171
     0
 94
        0
309
TABLEFORMAT_END
  1
CELLSTYLE_BEGIN
 90
        2
 91
        1
300
_HEADER
309
CELLSTYLE_END
300
CELLSTYLE
  1
TABLEFORMAT_BEGIN
 90
        5
170
     1
 91
        0
 92
        0
 62
   257
 93
        1
300
CONTENTFORMAT
  1
CONTENTFORMAT_BEGIN
 90
        0
 91
        0
 92
      512
 93
        0
300

 40
0.0
140
1.0
 94
        2
 62
     0
340
55
144
0.18
309
CONTENTFORMAT_END
171
     0
 94
        0
309
TABLEFORMAT_END
  1
CELLSTYLE_BEGIN
 90
        3
 91
        2
300
_DATA
309
CELLSTYLE_END
  0
ENDSEC
  0
EOF
