  0
SECTION
  2
HEADER
  9
$ACADVER
  1
AC1018
  9
$ACADMAINTVER
 70
     0
  9
$DWGCODEPAGE
  3
ANSI_1252
  9
$INSBASE
 10
0.0
 20
0.0
 30
0.0
  9
$EXTMIN
 10
1.000000000000000E+20
 20
1.000000000000000E+20
 30
1.000000000000000E+20
  9
$EXTMAX
 10
-1.000000000000000E+20
 20
-1.000000000000000E+20
 30
-1.000000000000000E+20
  9
$LIMMIN
 10
0.0
 20
0.0
  9
$LIMMAX
 10
12.0
 20
9.0
  9
$ORTHOMODE
 70
     0
  9
$REGENMODE
 70
     1
  9
$FILLMODE
 70
     1
  9
$QTEXTMODE
 70
     0
  9
$MIRRTEXT
 70
     1
  9
$LTSCALE
 40
1.0
  9
$ATTMODE
 70
     1
  9
$TEXTSIZE
 40
0.2
  9
$TRACEWID
 40
0.05
  9
$TEXTSTYLE
  7
Standard
  9
$CLAYER
  8
0
  9
$CELTYPE
  6
ByLayer
  9
$CECOLOR
 62
   256
  9
$CELTSCALE
 40
1.0
  9
$DISPSILH
 70
     0
  9
$DIMSCALE
 40
1.0
  9
$DIMASZ
 40
0.18
  9
$DIMEXO
 40
0.0625
  9
$DIMDLI
 40
0.38
  9
$DIMRND
 40
0.0
  9
$DIMDLE
 40
0.0
  9
$DIMEXE
 40
0.18
  9
$DIMTP
 40
0.0
  9
$DIMTM
 40
0.0
  9
$DIMTXT
 40
0.18
  9
$DIMCEN
 40
0.09
  9
$DIMTSZ
 40
0.0
  9
$DIMTOL
 70
     0
  9
$DIMLIM
 70
     0
  9
$DIMTIH
 70
     1
  9
$DIMTOH
 70
     1
  9
$DIMSE1
 70
     0
  9
$DIMSE2
 70
     0
  9
$DIMTAD
 70
     0
  9
$DIMZIN
 70
     0
  9
$DIMBLK
  1

  9
$DIMASO
 70
     1
  9
$DIMSHO
 70
     1
  9
$DIMPOST
  1

  9
$DIMAPOST
  1

  9
$DIMALT
 70
     0
  9
$DIMALTD
 70
     2
  9
$DIMALTF
 40
25.4
  9
$DIMLFAC
 40
1.0
  9
$DIMTOFL
 70
     0
  9
$DIMTVP
 40
0.0
  9
$DIMTIX
 70
     0
  9
$DIMSOXD
 70
     0
  9
$DIMSAH
 70
     0
  9
$DIMBLK1
  1

  9
$DIMBLK2
  1

  9
$DIMSTYLE
  2
Standard
  9
$DIMCLRD
 70
     0
  9
$DIMCLRE
 70
     0
  9
$DIMCLRT
 70
     0
  9
$DIMTFAC
 40
1.0
  9
$DIMGAP
 40
0.09
  9
$DIMJUST
 70
     0
  9
$DIMSD1
 70
     0
  9
$DIMSD2
 70
     0
  9
$DIMTOLJ
 70
     1
  9
$DIMTZIN
 70
     0
  9
$DIMALTZ
 70
     0
  9
$DIMALTTZ
 70
     0
  9
$DIMUPT
 70
     0
  9
$DIMDEC
 70
     4
  9
$DIMTDEC
 70
     4
  9
$DIMALTU
 70
     2
  9
$DIMALTTD
 70
     2
  9
$DIMTXSTY
  7
Standard
  9
$DIMAUNIT
 70
     0
  9
$DIMADEC
 70
     0
  9
$DIMALTRND
 40
0.0
  9
$DIMAZIN
 70
     0
  9
$DIMDSEP
 70
    46
  9
$DIMATFIT
 70
     3
  9
$DIMFRAC
 70
     0
  9
$DIMLDRBLK
  1

  9
$DIMLUNIT
 70
     2
  9
$DIMLWD
 70
    -2
  9
$DIMLWE
 70
    -2
  9
$DIMTMOVE
 70
     0
  9
$LUNITS
 70
     2
  9
$LUPREC
 70
     4
  9
$SKETCHINC
 40
0.1
  9
$FILLETRAD
 40
0.5
  9
$AUNITS
 70
     0
  9
$AUPREC
 70
     0
  9
$MENU
  1
.
  9
$ELEVATION
 40
0.0
  9
$PELEVATION
 40
0.0
  9
$THICKNESS
 40
0.0
  9
$LIMCHECK
 70
     0
  9
$CHAMFERA
 40
0.5
  9
$CHAMFERB
 40
0.5
  9
$CHAMFERC
 40
1.0
  9
$CHAMFERD
 40
0.0
  9
$SKPOLY
 70
     0
  9
$TDCREATE
 40
2459031.508031227
  9
$TDUCREATE
 40
2459031.424697894
  9
$TDUPDATE
 40
2459031.508031238
  9
$TDUUPDATE
 40
2459031.424697905
  9
$TDINDWG
 40
0.0000000116
  9
$TDUSRTIMER
 40
0.0000000116
  9
$USRTIMER
 70
     1
  9
$ANGBASE
 50
0.0
  9
$ANGDIR
 70
     0
  9
$PDMODE
 70
     0
  9
$PDSIZE
 40
0.0
  9
$PLINEWID
 40
0.0
  9
$SPLFRAME
 70
     0
  9
$SPLINETYPE
 70
     6
  9
$SPLINESEGS
 70
     8
  9
$HANDSEED
  5
1DA
  9
$SURFTAB1
 70
     6
  9
$SURFTAB2
 70
     6
  9
$SURFTYPE
 70
     6
  9
$SURFU
 70
     6
  9
$SURFV
 70
     6
  9
$UCSBASE
  2

  9
$UCSNAME
  2

  9
$UCSORG
 10
0.0
 20
0.0
 30
0.0
  9
$UCSXDIR
 10
1.0
 20
0.0
 30
0.0
  9
$UCSYDIR
 10
0.0
 20
1.0
 30
0.0
  9
$UCSORTHOREF
  2

  9
$UCSORTHOVIEW
 70
     0
  9
$UCSORGTOP
 10
0.0
 20
0.0
 30
0.0
  9
$UCSORGBOTTOM
 10
0.0
 20
0.0
 30
0.0
  9
$UCSORGLEFT
 10
0.0
 20
0.0
 30
0.0
  9
$UCSORGRIGHT
 10
0.0
 20
0.0
 30
0.0
  9
$UCSORGFRONT
 10
0.0
 20
0.0
 30
0.0
  9
$UCSORGBACK
 10
0.0
 20
0.0
 30
0.0
  9
$PUCSBASE
  2

  9
$PUCSNAME
  2

  9
$PUCSORG
 10
0.0
 20
0.0
 30
0.0
  9
$PUCSXDIR
 10
1.0
 20
0.0
 30
0.0
  9
$PUCSYDIR
 10
0.0
 20
1.0
 30
0.0
  9
$PUCSORTHOREF
  2

  9
$PUCSORTHOVIEW
 70
     0
  9
$PUCSORGTOP
 10
0.0
 20
0.0
 30
0.0
  9
$PUCSORGBOTTOM
 10
0.0
 20
0.0
 30
0.0
  9
$PUCSORGLEFT
 10
0.0
 20
0.0
 30
0.0
  9
$PUCSORGRIGHT
 10
0.0
 20
0.0
 30
0.0
  9
$PUCSORGFRONT
 10
0.0
 20
0.0
 30
0.0
  9
$PUCSORGBACK
 10
0.0
 20
0.0
 30
0.0
  9
$USERI1
 70
     0
  9
$USERI2
 70
     0
  9
$USERI3
 70
     0
  9
$USERI4
 70
     0
  9
$USERI5
 70
     0
  9
$USERR1
 40
0.0
  9
$USERR2
 40
0.0
  9
$USERR3
 40
0.0
  9
$USERR4
 40
0.0
  9
$USERR5
 40
0.0
  9
$WORLDVIEW
 70
     1
  9
$SHADEDGE
 70
     3
  9
$SHADEDIF
 70
    70
  9
$TILEMODE
 70
     1
  9
$MAXACTVP
 70
    64
  9
$PINSBASE
 10
0.0
 20
0.0
 30
0.0
  9
$PLIMCHECK
 70
     0
  9
$PEXTMIN
 10
1.000000000000000E+20
 20
1.000000000000000E+20
 30
1.000000000000000E+20
  9
$PEXTMAX
 10
-1.000000000000000E+20
 20
-1.000000000000000E+20
 30
-1.000000000000000E+20
  9
$PLIMMIN
 10
0.0
 20
0.0
  9
$PLIMMAX
 10
12.0
 20
9.0
  9
$UNITMODE
 70
     0
  9
$VISRETAIN
 70
     1
  9
$PLINEGEN
 70
     0
  9
$PSLTSCALE
 70
     1
  9
$TREEDEPTH
 70
  3020
  9
$CMLSTYLE
  2
Standard
  9
$CMLJUST
 70
     0
  9
$CMLSCALE
 40
1.0
  9
$PROXYGRAPHICS
 70
     1
  9
$MEASUREMENT
 70
     0
  9
$CELWEIGHT
370
    -1
  9
$ENDCAPS
280
     0
  9
$JOINSTYLE
280
     0
  9
$LWDISPLAY
290
     1
  9
$INSUNITS
 70
     1
  9
$HYPERLINKBASE
  1

  9
$STYLESHEET
  1

  9
$XEDIT
290
     1
  9
$CEPSNTYPE
380
     0
  9
$PSTYLEMODE
290
     1
  9
$FINGERPRINTGUID
  2
{28488D62-4C3A-45E9-877B-A175F92B1FD8}
  9
$VERSIONGUID
  2
{FAEB1C32-E019-11D5-929B-00C0DF256EC4}
  9
$EXTNAMES
290
     1
  9
$PSVPSCALE
 40
0.0
  9
$OLESTARTUP
290
     0
  9
$SORTENTS
280
   127
  9
$INDEXCTL
280
     0
  9
$HIDETEXT
280
     1
  9
$XCLIPFRAME
290
     0
  9
$HALOGAP
280
     0
  9
$OBSCOLOR
 70
   257
  9
$OBSLTYPE
280
     0
  9
$INTERSECTIONDISPLAY
280
     0
  9
$INTERSECTIONCOLOR
 70
   257
  9
$DIMASSOC
280
     2
  9
$PROJECTNAME
  1

  0
ENDSEC
  0
SECTION
  2
CLASSES
  0
CLASS
  1
ACDBDICTIONARYWDFLT
  2
AcDbDictionaryWithDefault
  3
ObjectDBX Classes
 90
        0
 91
        3
280
     0
281
     0
  0
CLASS
  1
VISUALSTYLE
  2
AcDbVisualStyle
  3
ObjectDBX Classes
 90
     4095
 91
        3
280
     0
281
     0
  0
ENDSEC
  0
SECTION
  2
TABLES
  0
TABLE
  2
VPORT
  5
8
330
0
100
AcDbSymbolTable
 70
     1
  0
VPORT
  5
29
330
8
100
AcDbSymbolTableRecord
100
AcDbViewportTableRecord
  2
*Active
 70
     0
 10
0.0
 20
0.0
 11
1.0
 21
1.0
 12
0.0
 22
0.0
 13
0.0
 23
0.0
 14
0.5
 24
0.5
 15
0.5
 25
0.5
 16
0.0
 26
0.0
 36
1.0
 17
105.0008259828644
 27
-89.95833331084376
 37
0.0
 40
135.4666666328
 41
1.550209045410156
 42
50.0
 43
0.0
 44
0.0
 50
0.0
 51
0.0
 71
     0
 72
   100
 73
     1
 74
     3
 75
     0
 76
     0
 77
     0
 78
     0
281
     0
 65
     1
110
0.0
120
0.0
130
0.0
111
1.0
121
0.0
131
0.0
112
0.0
122
1.0
132
0.0
 79
     0
146
0.0
  0
ENDTAB
  0
TABLE
  2
LTYPE
  5
5
330
0
100
AcDbSymbolTable
 70
     1
  0
LTYPE
  5
14
330
5
100
AcDbSymbolTableRecord
100
AcDbLinetypeTableRecord
  2
ByBlock
 70
     0
  3

 72
    65
 73
     0
 40
0.0
  0
LTYPE
  5
15
330
5
100
AcDbSymbolTableRecord
100
AcDbLinetypeTableRecord
  2
ByLayer
 70
     0
  3

 72
    65
 73
     0
 40
0.0
  0
LTYPE
  5
16
330
5
100
AcDbSymbolTableRecord
100
AcDbLinetypeTableRecord
  2
Continuous
 70
     0
  3
Solid line
 72
    65
 73
     0
 40
0.0
  0
ENDTAB
  0
TABLE
  2
LAYER
  5
2
330
0
100
AcDbSymbolTable
 70
     4
  0
LAYER
  5
10
330
2
100
AcDbSymbolTableRecord
100
AcDbLayerTableRecord
  2
0
 70
     0
 62
     7
  6
Continuous
370
    -3
390
F
  0
LAYER
  5
3B
330
2
100
AcDbSymbolTableRecord
100
AcDbLayerTableRecord
  2
ORIGINAL
 70
     5
 62
     7
  6
Continuous
370
    -3
390
F
  0
LAYER
  5
3C
330
2
100
AcDbSymbolTableRecord
100
AcDbLayerTableRecord
  2
Equip
 70
     0
 62
     7
  6
Continuous
370
    -3
390
F
  0
LAYER
  5
17D
330
2
100
AcDbSymbolTableRecord
100
AcDbLayerTableRecord
  2
Cotes
 70
     0
 62
     7
  6
Continuous
370
    -3
390
F
  0
ENDTAB
  0
TABLE
  2
STYLE
  5
3
330
0
100
AcDbSymbolTable
 70
     1
  0
STYLE
  5
11
330
3
100
AcDbSymbolTableRecord
100
AcDbTextStyleTableRecord
  2
Standard
 70
     0
 40
0.0
 41
1.0
 50
0.0
 71
     0
 42
0.2
  3
txt
  4

  0
ENDTAB
  0
TABLE
  2
VIEW
  5
6
330
0
100
AcDbSymbolTable
 70
     0
  0
ENDTAB
  0
TABLE
  2
UCS
  5
7
330
0
100
AcDbSymbolTable
 70
     0
  0
ENDTAB
  0
TABLE
  2
APPID
  5
9
330
0
100
AcDbSymbolTable
 70
     1
  0
APPID
  5
12
330
9
100
AcDbSymbolTableRecord
100
AcDbRegAppTableRecord
  2
ACAD
 70
     0
  0
ENDTAB
  0
TABLE
  2
DIMSTYLE
  5
A
330
0
100
AcDbSymbolTable
 70
     1
100
AcDbDimStyleTable
  0
DIMSTYLE
105
27
330
A
100
AcDbSymbolTableRecord
100
AcDbDimStyleTableRecord
  2
Standard
 70
     0
340
11
  0
ENDTAB
  0
TABLE
  2
BLOCK_RECORD
  5
1
330
0
100
AcDbSymbolTable
 70
     3
  0
BLOCK_RECORD
  5
1F
330
1
100
AcDbSymbolTableRecord
100
AcDbBlockTableRecord
  2
*Model_Space
340
22
  0
BLOCK_RECORD
  5
1B
330
1
100
AcDbSymbolTableRecord
100
AcDbBlockTableRecord
  2
*Paper_Space
340
1E
  0
BLOCK_RECORD
  5
23
330
1
100
AcDbSymbolTableRecord
100
AcDbBlockTableRecord
  2
*Paper_Space0
340
26
  0
BLOCK_RECORD
  5
153
330
1
100
AcDbSymbolTableRecord
100
AcDbBlockTableRecord
  2
block 2
340
0
102
{BLKREFS
331
154
102
}
  0
BLOCK_RECORD
  5
164
330
1
100
AcDbSymbolTableRecord
100
AcDbBlockTableRecord
  2
block 3
340
0
102
{BLKREFS
331
165
102
}
  0
ENDTAB
  0
ENDSEC
  0
SECTION
  2
BLOCKS
  0
BLOCK
  5
20
330
1F
100
AcDbEntity
  8
0
100
AcDbBlockBegin
  2
*Model_Space
 70
     0
 71
     0
 10
0.0
 20
0.0
 30
0.0
  3
*Model_Space
  1

  0
ENDBLK
  5
21
330
1F
100
AcDbEntity
  8
0
100
AcDbBlockEnd
  0
BLOCK
  5
1C
330
1B
100
AcDbEntity
 67
     1
  8
0
100
AcDbBlockBegin
  2
*Paper_Space
 70
     0
 71
     0
 10
0.0
 20
0.0
 30
0.0
  3
*Paper_Space
  1

  0
ENDBLK
  5
1D
330
1B
100
AcDbEntity
 67
     1
  8
0
100
AcDbBlockEnd
  0
BLOCK
  5
24
330
23
100
AcDbEntity
  8
0
100
AcDbBlockBegin
  2
*Paper_Space0
 70
     0
 71
     0
 10
0.0
 20
0.0
 30
0.0
  3
*Paper_Space0
  1

  0
ENDBLK
  5
25
330
23
100
AcDbEntity
  8
0
100
AcDbBlockEnd
  0
BLOCK
  5
155
330
153
100
AcDbEntity
  8
0
100
AcDbBlockBegin
  2
block 2
 70
     0
 71
     0
 10
0.0
 20
0.0
 30
0.0
  3
block 2
  1

  0
SPLINE
  5
157
330
153
100
AcDbEntity
  8
Equip
 62
   250
370
    18
100
AcDbSpline
210
0.0
220
0.0
230
1.0
 70
    11
 71
     3
 72
    29
 73
    25
 74
     0
 42
0.0000000001
 43
0.0000000001
 40
0.0
 40
0.0
 40
0.0
 40
0.0
 40
1.0
 40
1.0
 40
1.0
 40
2.0
 40
2.0
 40
2.0
 40
3.0
 40
3.0
 40
3.0
 40
4.0
 40
4.0
 40
4.0
 40
5.0
 40
5.0
 40
5.0
 40
6.0
 40
6.0
 40
6.0
 40
7.0
 40
7.0
 40
7.0
 40
8.0
 40
8.0
 40
8.0
 40
8.0
 10
135.3312743802297
 20
-51.11712102671725
 30
0.0
 10
135.3312743802297
 20
-52.48103432932766
 30
0.0
 10
134.225743239013
 20
-53.58656547054434
 30
0.0
 10
132.8618299364026
 20
-53.58656547054434
 30
0.0
 10
132.8618299364026
 20
-53.58656547054434
 30
0.0
 10
132.1335367508208
 20
-53.58656547054434
 30
0.0
 10
132.1335367508208
 20
-53.58656547054434
 30
0.0
 10
130.7696234482104
 20
-53.58656547054434
 30
0.0
 10
129.6640923069937
 20
-52.48103432932766
 30
0.0
 10
129.6640923069937
 20
-51.11712102671725
 30
0.0
 10
129.6640923069937
 20
-51.11712102671725
 30
0.0
 10
129.6640923069937
 20
-47.40623642478039
 30
0.0
 10
129.6640923069937
 20
-47.40623642478039
 30
0.0
 10
129.6640923069937
 20
-46.04232312216998
 30
0.0
 10
130.7696234482104
 20
-44.9367919809533
 30
0.0
 10
132.1335367508208
 20
-44.9367919809533
 30
0.0
 10
132.1335367508208
 20
-44.9367919809533
 30
0.0
 10
132.8618299364026
 20
-44.9367919809533
 30
0.0
 10
132.8618299364026
 20
-44.9367919809533
 30
0.0
 10
134.225743239013
 20
-44.9367919809533
 30
0.0
 10
135.3312743802297
 20
-46.04232312216998
 30
0.0
 10
135.3312743802297
 20
-47.40623642478039
 30
0.0
 10
135.3312743802297
 20
-47.40623642478039
 30
0.0
 10
135.3312743802297
 20
-51.11712102671725
 30
0.0
 10
135.3312743802297
 20
-51.11712102671725
 30
0.0
  0
POLYLINE
  5
158
330
153
100
AcDbEntity
  8
Equip
 62
   250
370
    18
100
AcDb2dPolyline
 66
     1
 10
0.0
 20
0.0
 30
0.0
  0
VERTEX
  5
159
330
158
100
AcDbEntity
  8
Equip
 62
   250
370
    18
100
AcDbVertex
100
AcDb2dVertex
 10
132.4976833436117
 20
-44.9367919809533
 30
0.0
  0
VERTEX
  5
15A
330
158
100
AcDbEntity
  8
Equip
 62
   250
370
    18
100
AcDbVertex
100
AcDb2dVertex
 10
132.4976833436117
 20
-53.55934921621086
 30
0.0
  0
SEQEND
  5
15B
330
158
100
AcDbEntity
  8
Equip
370
    18
  0
POLYLINE
  5
15C
330
153
100
AcDbEntity
  8
Equip
 62
   250
370
    18
100
AcDb2dPolyline
 66
     1
 10
0.0
 20
0.0
 30
0.0
  0
VERTEX
  5
15D
330
15C
100
AcDbEntity
  8
Equip
 62
   250
370
    18
100
AcDbVertex
100
AcDb2dVertex
 10
129.6640923069937
 20
-47.24156086058544
 30
0.0
  0
VERTEX
  5
15E
330
15C
100
AcDbEntity
  8
Equip
 62
   250
370
    18
100
AcDbVertex
100
AcDb2dVertex
 10
135.3312743802297
 20
-47.24156086058544
 30
0.0
  0
SEQEND
  5
15F
330
15C
100
AcDbEntity
  8
Equip
370
    18
  0
POLYLINE
  5
160
330
153
100
AcDbEntity
  8
Equip
 62
   250
370
    18
100
AcDb2dPolyline
 66
     1
 10
0.0
 20
0.0
 30
0.0
  0
VERTEX
  5
161
330
160
100
AcDbEntity
  8
Equip
 62
   250
370
    18
100
AcDbVertex
100
AcDb2dVertex
 10
129.6913085613272
 20
-50.92919106799687
 30
0.0
  0
VERTEX
  5
162
330
160
100
AcDbEntity
  8
Equip
 62
   250
370
    18
100
AcDbVertex
100
AcDb2dVertex
 10
135.3040581258962
 20
-50.92919106799687
 30
0.0
  0
SEQEND
  5
163
330
160
100
AcDbEntity
  8
Equip
370
    18
  0
ENDBLK
  5
156
330
153
100
AcDbEntity
  8
0
100
AcDbBlockEnd
  0
BLOCK
  5
166
330
164
100
AcDbEntity
  8
0
100
AcDbBlockBegin
  2
block 3
 70
     0
 71
     0
 10
0.0
 20
0.0
 30
0.0
  3
block 3
  1

  0
SPLINE
  5
168
330
164
100
AcDbEntity
  8
Equip
 62
   250
370
    18
100
AcDbSpline
210
0.0
220
0.0
230
1.0
 70
    11
 71
     3
 72
    29
 73
    25
 74
     0
 42
0.0000000001
 43
0.0000000001
 40
0.0
 40
0.0
 40
0.0
 40
0.0
 40
1.0
 40
1.0
 40
1.0
 40
2.0
 40
2.0
 40
2.0
 40
3.0
 40
3.0
 40
3.0
 40
4.0
 40
4.0
 40
4.0
 40
5.0
 40
5.0
 40
5.0
 40
6.0
 40
6.0
 40
6.0
 40
7.0
 40
7.0
 40
7.0
 40
8.0
 40
8.0
 40
8.0
 40
8.0
 10
178.1055799250917
 20
-126.8761487855553
 30
0.0
 10
178.1055799250917
 20
-128.2400620881657
 30
0.0
 10
177.000048783875
 20
-129.3455932293824
 30
0.0
 10
175.6361354812646
 20
-129.3455932293824
 30
0.0
 10
175.6361354812646
 20
-129.3455932293824
 30
0.0
 10
174.9078422956828
 20
-129.3455932293824
 30
0.0
 10
174.9078422956828
 20
-129.3455932293824
 30
0.0
 10
173.5439289930724
 20
-129.3455932293824
 30
0.0
 10
172.4383978518557
 20
-128.2400620881657
 30
0.0
 10
172.4383978518557
 20
-126.8761487855553
 30
0.0
 10
172.4383978518557
 20
-126.8761487855553
 30
0.0
 10
172.4383978518557
 20
-123.1652641836184
 30
0.0
 10
172.4383978518557
 20
-123.1652641836184
 30
0.0
 10
172.4383978518557
 20
-121.801350881008
 30
0.0
 10
173.5439289930724
 20
-120.6958197397913
 30
0.0
 10
174.9078422956828
 20
-120.6958197397913
 30
0.0
 10
174.9078422956828
 20
-120.6958197397913
 30
0.0
 10
175.6361354812646
 20
-120.6958197397913
 30
0.0
 10
175.6361354812646
 20
-120.6958197397913
 30
0.0
 10
177.000048783875
 20
-120.6958197397913
 30
0.0
 10
178.1055799250917
 20
-121.801350881008
 30
0.0
 10
178.1055799250917
 20
-123.1652641836184
 30
0.0
 10
178.1055799250917
 20
-123.1652641836184
 30
0.0
 10
178.1055799250917
 20
-126.8761487855553
 30
0.0
 10
178.1055799250917
 20
-126.8761487855553
 30
0.0
  0
POLYLINE
  5
169
330
164
100
AcDbEntity
  8
Equip
 62
   250
370
    18
100
AcDb2dPolyline
 66
     1
 10
0.0
 20
0.0
 30
0.0
  0
VERTEX
  5
16A
330
169
100
AcDbEntity
  8
Equip
 62
   250
370
    18
100
AcDbVertex
100
AcDb2dVertex
 10
175.2719888884737
 20
-120.6958197397913
 30
0.0
  0
VERTEX
  5
16B
330
169
100
AcDbEntity
  8
Equip
 62
   250
370
    18
100
AcDbVertex
100
AcDb2dVertex
 10
175.2719888884737
 20
-129.3183769750489
 30
0.0
  0
SEQEND
  5
16C
330
169
100
AcDbEntity
  8
Equip
370
    18
  0
POLYLINE
  5
16D
330
164
100
AcDbEntity
  8
Equip
 62
   250
370
    18
100
AcDb2dPolyline
 66
     1
 10
0.0
 20
0.0
 30
0.0
  0
VERTEX
  5
16E
330
16D
100
AcDbEntity
  8
Equip
 62
   250
370
    18
100
AcDbVertex
100
AcDb2dVertex
 10
172.4383978518557
 20
-123.0005886194235
 30
0.0
  0
VERTEX
  5
16F
330
16D
100
AcDbEntity
  8
Equip
 62
   250
370
    18
100
AcDbVertex
100
AcDb2dVertex
 10
178.1055799250917
 20
-123.0005886194235
 30
0.0
  0
SEQEND
  5
170
330
16D
100
AcDbEntity
  8
Equip
370
    18
  0
POLYLINE
  5
171
330
164
100
AcDbEntity
  8
Equip
 62
   250
370
    18
100
AcDb2dPolyline
 66
     1
 10
0.0
 20
0.0
 30
0.0
  0
VERTEX
  5
172
330
171
100
AcDbEntity
  8
Equip
 62
   250
370
    18
100
AcDbVertex
100
AcDb2dVertex
 10
172.4656141061892
 20
-126.6882188268349
 30
0.0
  0
VERTEX
  5
173
330
171
100
AcDbEntity
  8
Equip
 62
   250
370
    18
100
AcDbVertex
100
AcDb2dVertex
 10
178.0783636707582
 20
-126.6882188268349
 30
0.0
  0
SEQEND
  5
174
330
171
100
AcDbEntity
  8
Equip
370
    18
  0
ENDBLK
  5
167
330
164
100
AcDbEntity
  8
0
100
AcDbBlockEnd
  0
ENDSEC
  0
SECTION
  2
ENTITIES
  0
SPLINE
  5
3D
330
1F
100
AcDbEntity
  8
Equip
 62
   250
370
    53
100
AcDbSpline
210
0.0
220
0.0
230
1.0
 70
    11
 71
     3
 72
   155
 73
   151
 74
     0
 42
0.0000000001
 43
0.0000000001
 40
0.0
 40
0.0
 40
0.0
 40
0.0
 40
1.0
 40
1.0
 40
1.0
 40
2.0
 40
2.0
 40
2.0
 40
3.0
 40
3.0
 40
3.0
 40
4.0
 40
4.0
 40
4.0
 40
5.0
 40
5.0
 40
5.0
 40
6.0
 40
6.0
 40
6.0
 40
7.0
 40
7.0
 40
7.0
 40
8.0
 40
8.0
 40
8.0
 40
9.0
 40
9.0
 40
9.0
 40
10.0
 40
10.0
 40
10.0
 40
11.0
 40
11.0
 40
11.0
 40
12.0
 40
12.0
 40
12.0
 40
13.0
 40
13.0
 40
13.0
 40
14.0
 40
14.0
 40
14.0
 40
15.0
 40
15.0
 40
15.0
 40
16.0
 40
16.0
 40
16.0
 40
17.0
 40
17.0
 40
17.0
 40
18.0
 40
18.0
 40
18.0
 40
19.0
 40
19.0
 40
19.0
 40
20.0
 40
20.0
 40
20.0
 40
21.0
 40
21.0
 40
21.0
 40
22.0
 40
22.0
 40
22.0
 40
23.0
 40
23.0
 40
23.0
 40
24.0
 40
24.0
 40
24.0
 40
25.0
 40
25.0
 40
25.0
 40
26.0
 40
26.0
 40
26.0
 40
27.0
 40
27.0
 40
27.0
 40
28.0
 40
28.0
 40
28.0
 40
29.0
 40
29.0
 40
29.0
 40
30.0
 40
30.0
 40
30.0
 40
31.0
 40
31.0
 40
31.0
 40
32.0
 40
32.0
 40
32.0
 40
33.0
 40
33.0
 40
33.0
 40
34.0
 40
34.0
 40
34.0
 40
35.0
 40
35.0
 40
35.0
 40
36.0
 40
36.0
 40
36.0
 40
37.0
 40
37.0
 40
37.0
 40
38.0
 40
38.0
 40
38.0
 40
39.0
 40
39.0
 40
39.0
 40
40.0
 40
40.0
 40
40.0
 40
41.0
 40
41.0
 40
41.0
 40
42.0
 40
42.0
 40
42.0
 40
43.0
 40
43.0
 40
43.0
 40
44.0
 40
44.0
 40
44.0
 40
45.0
 40
45.0
 40
45.0
 40
46.0
 40
46.0
 40
46.0
 40
47.0
 40
47.0
 40
47.0
 40
48.0
 40
48.0
 40
48.0
 40
49.0
 40
49.0
 40
49.0
 40
50.0
 40
50.0
 40
50.0
 40
50.0
 10
25.39982773887574
 20
-42.20104165611641
 30
0.0
 10
25.39982773887574
 20
-42.20104165611641
 30
0.0
 10
33.20503607025777
 20
-42.20104165611641
 30
0.0
 10
33.20503607025777
 20
-42.20104165611641
 30
0.0
 10
33.20503607025777
 20
-42.20104165611641
 30
0.0
 10
34.74843884764969
 20
-42.06874998948282
 30
0.0
 10
34.74843884764969
 20
-44.09722221119792
 30
0.0
 10
34.74843884764969
 20
-44.09722221119792
 30
0.0
 10
34.74843884764969
 20
-48.46284721010651
 30
0.0
 10
34.74843884764969
 20
-48.46284721010651
 30
0.0
 10
34.74843884764969
 20
-48.46284721010651
 30
0.0
 10
51.41718884348251
 20
-48.46284721010651
 30
0.0
 10
51.41718884348251
 20
-48.46284721010651
 30
0.0
 10
51.41718884348251
 20
-48.46284721010651
 30
0.0
 10
55.43003606470152
 20
-44.44999998888751
 30
0.0
 10
55.43003606470152
 20
-44.44999998888751
 30
0.0
 10
55.43003606470152
 20
-44.44999998888751
 30
0.0
 10
69.76163328334084
 20
-44.44999998888751
 30
0.0
 10
69.76163328334084
 20
-44.44999998888751
 30
0.0
 10
69.76163328334084
 20
-44.44999998888751
 30
0.0
 10
71.34913328294397
 20
-44.09722221119792
 30
0.0
 10
72.05468883832313
 20
-46.34618054396901
 30
0.0
 10
72.05468883832313
 20
-46.34618054396901
 30
0.0
 10
73.99496661561585
 20
-53.62222220881667
 30
0.0
 10
73.99496661561585
 20
-53.62222220881667
 30
0.0
 10
73.99496661561585
 20
-53.62222220881667
 30
0.0
 10
79.81579994749397
 20
-53.62222220881667
 30
0.0
 10
79.81579994749397
 20
-53.62222220881667
 30
0.0
 10
79.81579994749397
 20
-53.62222220881667
 30
0.0
 10
81.1828138360411
 20
-51.90243054257995
 30
0.0
 10
81.1828138360411
 20
-51.90243054257995
 30
0.0
 10
81.1828138360411
 20
-51.90243054257995
 30
0.0
 10
102.0407999419377
 20
-51.90243054257995
 30
0.0
 10
102.0407999419377
 20
-51.90243054257995
 30
0.0
 10
102.0407999419377
 20
-51.90243054257995
 30
0.0
 10
104.6423637976241
 20
-51.59374998710157
 30
0.0
 10
104.6423637976241
 20
-55.29791665284219
 30
0.0
 10
104.6423637976241
 20
-55.29791665284219
 30
0.0
 10
108.0819471300976
 20
-55.29791665284219
 30
0.0
 10
108.0819471300976
 20
-55.29791665284219
 30
0.0
 10
108.0819471300976
 20
-55.29791665284219
 30
0.0
 10
109.2725721297999
 20
-55.38611109726459
 30
0.0
 10
109.2725721297999
 20
-56.75312498581172
 30
0.0
 10
109.2725721297999
 20
-56.75312498581172
 30
0.0
 10
109.8899332407567
 20
-69.8940972047487
 30
0.0
 10
109.8899332407567
 20
-69.8940972047487
 30
0.0
 10
109.8899332407567
 20
-69.8940972047487
 30
0.0
 10
110.860072129403
 20
-69.8940972047487
 30
0.0
 10
110.860072129403
 20
-69.8940972047487
 30
0.0
 10
110.860072129403
 20
-69.8940972047487
 30
0.0
 10
112.2270860179502
 20
-69.7177083159039
 30
0.0
 10
112.2270860179502
 20
-71.48159720435183
 30
0.0
 10
112.2270860179502
 20
-71.48159720435183
 30
0.0
 10
112.2270860179502
 20
-101.5999999746
 30
0.0
 10
112.2270860179502
 20
-101.5999999746
 30
0.0
 10
112.2270860179502
 20
-101.5999999746
 30
0.0
 10
112.5357665734286
 20
-103.3197916408367
 30
0.0
 10
110.5954887961359
 20
-103.3197916408367
 30
0.0
 10
110.5954887961359
 20
-103.3197916408367
 30
0.0
 10
109.8899332407567
 20
-103.3197916408367
 30
0.0
 10
109.8899332407567
 20
-103.3197916408367
 30
0.0
 10
109.8899332407567
 20
-103.3197916408367
 30
0.0
 10
109.3607665742223
 20
-116.1961805265065
 30
0.0
 10
109.3607665742223
 20
-116.1961805265065
 30
0.0
 10
109.3607665742223
 20
-116.1961805265065
 30
0.0
 10
109.5812526852783
 20
-117.6072916372649
 30
0.0
 10
107.8614610190416
 20
-117.7395833038984
 30
0.0
 10
107.8614610190416
 20
-117.7395833038984
 30
0.0
 10
104.7305582420465
 20
-117.7395833038984
 30
0.0
 10
104.7305582420465
 20
-117.7395833038984
 30
0.0
 10
104.7305582420465
 20
-117.7395833038984
 30
0.0
 10
105.2156276863697
 20
-121.1350694141607
 30
0.0
 10
101.5998277198257
 20
-121.1350694141607
 30
0.0
 10
101.5998277198257
 20
-121.1350694141607
 30
0.0
 10
81.13871661382991
 20
-121.1350694141607
 30
0.0
 10
81.13871661382991
 20
-121.1350694141607
 30
0.0
 10
81.13871661382991
 20
-121.1350694141607
 30
0.0
 10
79.77170272528278
 20
-119.4593749701352
 30
0.0
 10
79.77170272528278
 20
-119.4593749701352
 30
0.0
 10
79.77170272528278
 20
-119.4593749701352
 30
0.0
 10
73.95086939340464
 20
-119.4593749701352
 30
0.0
 10
73.95086939340464
 20
-119.4593749701352
 30
0.0
 10
73.95086939340464
 20
-119.4593749701352
 30
0.0
 10
71.74600828284476
 20
-127.440972190362
 30
0.0
 10
71.74600828284476
 20
-127.440972190362
 30
0.0
 10
71.74600828284476
 20
-127.440972190362
 30
0.0
 10
71.52552217178877
 20
-128.7197916344867
 30
0.0
 10
70.02621661660804
 20
-128.7197916344867
 30
0.0
 10
70.02621661660804
 20
-128.7197916344867
 30
0.0
 10
55.29774439806793
 20
-128.6315971900643
 30
0.0
 10
55.29774439806793
 20
-128.6315971900643
 30
0.0
 10
55.29774439806793
 20
-128.6315971900643
 30
0.0
 10
52.69600828760725
 20
-126.0298610796036
 30
0.0
 10
52.69600828760725
 20
-126.0298610796036
 30
0.0
 10
52.69600828760725
 20
-126.0298610796036
 30
0.0
 10
34.6602444032273
 20
-126.0298610796036
 30
0.0
 10
34.6602444032273
 20
-126.0298610796036
 30
0.0
 10
34.6602444032273
 20
-126.0298610796036
 30
0.0
 10
34.6602444032273
 20
-129.4253471898659
 30
0.0
 10
34.6602444032273
 20
-129.4253471898659
 30
0.0
 10
34.6602444032273
 20
-129.4253471898659
 30
0.0
 10
34.88073051428329
 20
-130.9246527450466
 30
0.0
 10
33.33732773689136
 20
-130.9246527450466
 30
0.0
 10
31.79392495949944
 20
-130.9246527450466
 30
0.0
 10
25.44392496108694
 20
-130.9246527450466
 30
0.0
 10
25.44392496108694
 20
-130.9246527450466
 30
0.0
 10
25.44392496108694
 20
-130.9246527450466
 30
0.0
 10
25.44392496108694
 20
-109.0965277505037
 30
0.0
 10
25.44392496108694
 20
-109.0965277505037
 30
0.0
 10
25.44392496108694
 20
-109.0965277505037
 30
0.0
 10
27.69288329385803
 20
-106.494791640043
 30
0.0
 10
27.69288329385803
 20
-106.494791640043
 30
0.0
 10
27.69288329385803
 20
-106.494791640043
 30
0.0
 10
28.61892496029319
 20
-106.494791640043
 30
0.0
 10
28.61892496029319
 20
-106.494791640043
 30
0.0
 10
28.61892496029319
 20
-106.494791640043
 30
0.0
 10
29.01579996019397
 20
-107.9059027508013
 30
0.0
 10
29.01579996019397
 20
-107.9059027508013
 30
0.0
 10
29.01579996019397
 20
-107.9059027508013
 30
0.0
 10
30.16232773768511
 20
-107.9059027508013
 30
0.0
 10
30.16232773768511
 20
-107.9059027508013
 30
0.0
 10
30.16232773768511
 20
-107.9059027508013
 30
0.0
 10
30.16232773768511
 20
-97.10208330905782
 30
0.0
 10
30.16232773768511
 20
-97.10208330905782
 30
0.0
 10
30.16232773768511
 20
-97.10208330905782
 30
0.0
 10
25.92899440541011
 20
-97.10208330905782
 30
0.0
 10
25.92899440541011
 20
-97.10208330905782
 30
0.0
 10
25.92899440541011
 20
-97.10208330905782
 30
0.0
 10
25.92899440541011
 20
-75.93541664768281
 30
0.0
 10
25.92899440541011
 20
-75.93541664768281
 30
0.0
 10
25.92899440541011
 20
-75.93541664768281
 30
0.0
 10
30.25052218210751
 20
-75.93541664768281
 30
0.0
 10
30.25052218210751
 20
-75.93541664768281
 30
0.0
 10
30.25052218210751
 20
-75.93541664768281
 30
0.0
 10
30.25052218210751
 20
-65.7489583168961
 30
0.0
 10
30.25052218210751
 20
-65.7489583168961
 30
0.0
 10
30.25052218210751
 20
-65.7489583168961
 30
0.0
 10
28.354341627026
 20
-65.7489583168961
 30
0.0
 10
28.354341627026
 20
-65.7489583168961
 30
0.0
 10
28.354341627026
 20
-65.7489583168961
 30
0.0
 10
28.00156384933642
 20
-67.38055553871042
 30
0.0
 10
28.00156384933642
 20
-67.38055553871042
 30
0.0
 10
28.00156384933642
 20
-67.38055553871042
 30
0.0
 10
27.20781384953485
 20
-67.38055553871042
 30
0.0
 10
27.20781384953485
 20
-67.38055553871042
 30
0.0
 10
27.20781384953485
 20
-67.38055553871042
 30
0.0
 10
25.39982773887574
 20
-62.39756942884505
 30
0.0
 10
25.39982773887574
 20
-62.39756942884505
 30
0.0
 10
25.39982773887574
 20
-62.39756942884505
 30
0.0
 10
25.39982773887574
 20
-42.20104165611641
 30
0.0
 10
25.39982773887574
 20
-42.20104165611641
 30
0.0
  0
POLYLINE
  5
3E
330
1F
100
AcDbEntity
  8
Equip
 62
   250
370
    18
100
AcDb2dPolyline
 66
     1
 10
0.0
 20
0.0
 30
0.0
  0
VERTEX
  5
3F
330
3E
100
AcDbEntity
  8
Equip
 62
   250
370
    18
100
AcDbVertex
100
AcDb2dVertex
 10
56.0032999534471
 20
-44.36180554446511
 30
0.0
  0
VERTEX
  5
40
330
3E
100
AcDbEntity
  8
Equip
 62
   250
370
    18
100
AcDbVertex
100
AcDb2dVertex
 10
56.0032999534471
 20
-69.32927379994199
 30
0.0
  0
VERTEX
  5
41
330
3E
100
AcDbEntity
  8
Equip
 62
   250
370
    18
100
AcDbVertex
100
AcDb2dVertex
 10
59.17847220742761
 20
-69.32927379994199
 30
0.0
  0
VERTEX
  5
42
330
3E
100
AcDbEntity
  8
Equip
 62
   250
370
    18
100
AcDbVertex
100
AcDb2dVertex
 10
59.17847220742761
 20
-72.21402450451595
 30
0.0
  0
VERTEX
  5
43
330
3E
100
AcDbEntity
  8
Equip
 62
   250
370
    18
100
AcDbVertex
100
AcDb2dVertex
 10
56.0032999534471
 20
-72.21402450451595
 30
0.0
  0
VERTEX
  5
44
330
3E
100
AcDbEntity
  8
Equip
 62
   250
370
    18
100
AcDbVertex
100
AcDb2dVertex
 10
56.0032999534471
 20
-128.6756944122755
 30
0.0
  0
SEQEND
  5
45
330
3E
100
AcDbEntity
  8
Equip
370
    18
  0
SPLINE
  5
46
330
1F
100
AcDbEntity
  8
Equip
 62
   250
370
    18
100
AcDbSpline
210
0.0
220
0.0
230
1.0
 70
     8
 71
     3
 72
    20
 73
    16
 74
     0
 42
0.0000000001
 43
0.0000000001
 40
0.0
 40
0.0
 40
0.0
 40
0.0
 40
1.0
 40
1.0
 40
1.0
 40
2.0
 40
2.0
 40
2.0
 40
3.0
 40
3.0
 40
3.0
 40
4.0
 40
4.0
 40
4.0
 40
5.0
 40
5.0
 40
5.0
 40
5.0
 10
30.14975313916395
 20
-107.9860012208334
 30
0.0
 10
30.14975313916395
 20
-107.9860012208334
 30
0.0
 10
51.16518010873649
 20
-107.9860012208334
 30
0.0
 10
51.16518010873649
 20
-107.9860012208334
 30
0.0
 10
51.35311006745686
 20
-107.9860012208334
 30
0.0
 10
51.50538328790491
 20
-107.8280435928347
 30
0.0
 10
51.50538328790491
 20
-107.6332234431438
 30
0.0
 10
51.50538328790491
 20
-107.6332234431438
 30
0.0
 10
51.50538328790491
 20
-105.5606539992175
 30
0.0
 10
51.50538328790491
 20
-105.5606539992175
 30
0.0
 10
51.50538328790491
 20
-105.3658338495266
 30
0.0
 10
51.35311006745686
 20
-105.2078762215279
 30
0.0
 10
51.16518010873649
 20
-105.2078762215279
 30
0.0
 10
51.16518010873649
 20
-105.2078762215279
 30
0.0
 10
30.14975313916395
 20
-105.2078762215279
 30
0.0
 10
30.14975313916395
 20
-105.2078762215279
 30
0.0
  0
POLYLINE
  5
47
330
1F
100
AcDbEntity
  8
Equip
 62
   250
370
    18
100
AcDb2dPolyline
 66
     1
 10
0.0
 20
0.0
 30
0.0
  0
VERTEX
  5
48
330
47
100
AcDbEntity
  8
Equip
 62
   250
370
    18
100
AcDbVertex
100
AcDb2dVertex
 10
52.82829995424085
 20
-112.0429456642636
 30
0.0
  0
VERTEX
  5
49
330
47
100
AcDbEntity
  8
Equip
 62
   250
370
    18
100
AcDbVertex
100
AcDb2dVertex
 10
55.98125134234149
 20
-112.0429456642636
 30
0.0
  0
VERTEX
  5
4A
330
47
100
AcDbEntity
  8
Equip
 62
   250
370
    18
100
AcDbVertex
100
AcDb2dVertex
 10
55.98125134234149
 20
-105.2078762215279
 30
0.0
  0
VERTEX
  5
4B
330
47
100
AcDbEntity
  8
Equip
 62
   250
370
    18
100
AcDbVertex
100
AcDb2dVertex
 10
52.82829995424085
 20
-105.2078762215279
 30
0.0
  0
VERTEX
  5
4C
330
47
100
AcDbEntity
  8
Equip
 62
   250
370
    18
100
AcDbVertex
100
AcDb2dVertex
 10
52.82829995424085
 20
-112.0429456642636
 30
0.0
  0
SEQEND
  5
4D
330
47
100
AcDbEntity
  8
Equip
370
    18
  0
SPLINE
  5
4E
330
1F
100
AcDbEntity
  8
Equip
 62
   250
370
    18
100
AcDbSpline
210
0.0
220
0.0
230
1.0
 70
     8
 71
     3
 72
    20
 73
    16
 74
     0
 42
0.0000000001
 43
0.0000000001
 40
0.0
 40
0.0
 40
0.0
 40
0.0
 40
1.0
 40
1.0
 40
1.0
 40
2.0
 40
2.0
 40
2.0
 40
3.0
 40
3.0
 40
3.0
 40
4.0
 40
4.0
 40
4.0
 40
5.0
 40
5.0
 40
5.0
 40
5.0
 10
30.14975313916395
 20
-68.47506237437429
 30
0.0
 10
30.14975313916395
 20
-68.47506237437429
 30
0.0
 10
51.16518010873649
 20
-68.47506237437429
 30
0.0
 10
51.16518010873649
 20
-68.47506237437429
 30
0.0
 10
51.35311006745686
 20
-68.47506237437429
 30
0.0
 10
51.50538328790491
 20
-68.31710474637559
 30
0.0
 10
51.50538328790491
 20
-68.12228459668471
 30
0.0
 10
51.50538328790491
 20
-68.12228459668471
 30
0.0
 10
51.50538328790491
 20
-66.04971515275841
 30
0.0
 10
51.50538328790491
 20
-66.04971515275841
 30
0.0
 10
51.50538328790491
 20
-65.85489500306753
 30
0.0
 10
51.35311006745686
 20
-65.69693737506883
 30
0.0
 10
51.16518010873649
 20
-65.69693737506883
 30
0.0
 10
51.16518010873649
 20
-65.69693737506883
 30
0.0
 10
30.14975313916395
 20
-65.69693737506883
 30
0.0
 10
30.14975313916395
 20
-65.69693737506883
 30
0.0
  0
POLYLINE
  5
4F
330
1F
100
AcDbEntity
  8
Equip
 62
   250
370
    18
100
AcDb2dPolyline
 66
     1
 10
0.0
 20
0.0
 30
0.0
  0
VERTEX
  5
50
330
4F
100
AcDbEntity
  8
Equip
 62
   250
370
    18
100
AcDbVertex
100
AcDb2dVertex
 10
52.82829995424085
 20
-67.88698457504215
 30
0.0
  0
VERTEX
  5
51
330
4F
100
AcDbEntity
  8
Equip
 62
   250
370
    18
100
AcDbVertex
100
AcDb2dVertex
 10
55.98125134234149
 20
-67.88698457504215
 30
0.0
  0
VERTEX
  5
52
330
4F
100
AcDbEntity
  8
Equip
 62
   250
370
    18
100
AcDbVertex
100
AcDb2dVertex
 10
55.98125134234149
 20
-61.05191513230647
 30
0.0
  0
VERTEX
  5
53
330
4F
100
AcDbEntity
  8
Equip
 62
   250
370
    18
100
AcDbVertex
100
AcDb2dVertex
 10
52.82829995424085
 20
-61.05191513230647
 30
0.0
  0
VERTEX
  5
54
330
4F
100
AcDbEntity
  8
Equip
 62
   250
370
    18
100
AcDbVertex
100
AcDb2dVertex
 10
52.82829995424085
 20
-67.88698457504215
 30
0.0
  0
SEQEND
  5
55
330
4F
100
AcDbEntity
  8
Equip
370
    18
  0
POLYLINE
  5
56
330
1F
100
AcDbEntity
  8
Equip
 62
   250
370
    18
100
AcDb2dPolyline
 66
     1
 10
0.0
 20
0.0
 30
0.0
  0
VERTEX
  5
57
330
56
100
AcDbEntity
  8
Equip
 62
   250
370
    18
100
AcDbVertex
100
AcDb2dVertex
 10
34.6602444032273
 20
-126.0298610796036
 30
0.0
  0
VERTEX
  5
58
330
56
100
AcDbEntity
  8
Equip
 62
   250
370
    18
100
AcDbVertex
100
AcDb2dVertex
 10
34.6602444032273
 20
-116.475405515586
 30
0.0
  0
VERTEX
  5
59
330
56
100
AcDbEntity
  8
Equip
 62
   250
370
    18
100
AcDbVertex
100
AcDb2dVertex
 10
51.5935777323273
 20
-116.475405515586
 30
0.0
  0
VERTEX
  5
5A
330
56
100
AcDbEntity
  8
Equip
 62
   250
370
    18
100
AcDbVertex
100
AcDb2dVertex
 10
51.5935777323273
 20
-124.6187499688453
 30
0.0
  0
VERTEX
  5
5B
330
56
100
AcDbEntity
  8
Equip
 62
   250
370
    18
100
AcDbVertex
100
AcDb2dVertex
 10
52.69600828760725
 20
-126.0298610796036
 30
0.0
  0
SEQEND
  5
5C
330
56
100
AcDbEntity
  8
Equip
370
    18
  0
POLYLINE
  5
5D
330
1F
100
AcDbEntity
  8
Equip
 62
   250
370
    18
100
AcDb2dPolyline
 66
     1
 10
0.0
 20
0.0
 30
0.0
  0
VERTEX
  5
5E
330
5D
100
AcDbEntity
  8
Equip
 62
   250
370
    18
100
AcDbVertex
100
AcDb2dVertex
 10
34.8145846809665
 20
-46.94149304382019
 30
0.0
  0
VERTEX
  5
5F
330
5D
100
AcDbEntity
  8
Equip
 62
   250
370
    18
100
AcDbVertex
100
AcDb2dVertex
 10
52.87239717645204
 20
-46.94149304382019
 30
0.0
  0
SEQEND
  5
60
330
5D
100
AcDbEntity
  8
Equip
370
    18
  0
POLYLINE
  5
61
330
1F
100
AcDbEntity
  8
Equip
 62
   250
370
    18
100
AcDb2dPolyline
 66
     1
 10
0.0
 20
0.0
 30
0.0
  0
VERTEX
  5
62
330
61
100
AcDbEntity
  8
Equip
 62
   250
370
    18
100
AcDbVertex
100
AcDb2dVertex
 10
30.16232773768511
 20
-107.9059027508013
 30
0.0
  0
VERTEX
  5
63
330
61
100
AcDbEntity
  8
Equip
 62
   250
370
    18
100
AcDbVertex
100
AcDb2dVertex
 10
30.16232773768511
 20
-110.6626681580982
 30
0.0
  0
VERTEX
  5
64
330
61
100
AcDbEntity
  8
Equip
 62
   250
370
    18
100
AcDbVertex
100
AcDb2dVertex
 10
25.45288220934859
 20
-110.6626681580982
 30
0.0
  0
SEQEND
  5
65
330
61
100
AcDbEntity
  8
Equip
370
    18
  0
POLYLINE
  5
66
330
1F
100
AcDbEntity
  8
Equip
 62
   250
370
    18
100
AcDb2dPolyline
 66
     1
 10
0.0
 20
0.0
 30
0.0
  0
VERTEX
  5
67
330
66
100
AcDbEntity
  8
Equip
 62
   250
370
    18
100
AcDbVertex
100
AcDb2dVertex
 10
30.25052218210751
 20
-65.7489583168961
 30
0.0
  0
VERTEX
  5
68
330
66
100
AcDbEntity
  8
Equip
 62
   250
370
    18
100
AcDbVertex
100
AcDb2dVertex
 10
30.25052218210751
 20
-62.36277396444403
 30
0.0
  0
VERTEX
  5
69
330
66
100
AcDbEntity
  8
Equip
 62
   250
370
    18
100
AcDbVertex
100
AcDb2dVertex
 10
25.39982773887574
 20
-62.36277396444403
 30
0.0
  0
SEQEND
  5
6A
330
66
100
AcDbEntity
  8
Equip
370
    18
  0
POLYLINE
  5
6B
330
1F
100
AcDbEntity
  8
Equip
 62
   250
370
    18
100
AcDb2dPolyline
 66
     1
 10
0.0
 20
0.0
 30
0.0
  0
VERTEX
  5
6C
330
6B
100
AcDbEntity
  8
Equip
 62
   250
370
    18
100
AcDbVertex
100
AcDb2dVertex
 10
28.33246527069466
 20
-65.86919214933131
 30
0.0
  0
VERTEX
  5
6D
330
6B
100
AcDbEntity
  8
Equip
 62
   250
370
    18
100
AcDbVertex
100
AcDb2dVertex
 10
29.03113063510333
 20
-62.33590221965908
 30
0.0
  0
SEQEND
  5
6E
330
6B
100
AcDbEntity
  8
Equip
370
    18
  0
SPLINE
  5
6F
330
1F
100
AcDbEntity
  8
Equip
 62
   250
370
    18
100
AcDbSpline
210
0.0
220
0.0
230
1.0
 70
     8
 71
     3
 72
    11
 73
     7
 74
     0
 42
0.0000000001
 43
0.0000000001
 40
0.0
 40
0.0
 40
0.0
 40
0.0
 40
1.0
 40
1.0
 40
1.0
 40
2.0
 40
2.0
 40
2.0
 40
2.0
 10
79.66886662504807
 20
-53.65167777521555
 30
0.0
 10
79.66886662504807
 20
-53.65167777521555
 30
0.0
 10
102.3053832752049
 20
-53.65167777521555
 30
0.0
 10
102.3053832752049
 20
-53.65167777521555
 30
0.0
 10
102.3053832752049
 20
-53.65167777521555
 30
0.0
 10
104.216377740873
 20
-53.73987221963795
 30
0.0
 10
104.6423637976241
 20
-55.29791665284219
 30
0.0
  0
POLYLINE
  5
70
330
1F
100
AcDbEntity
  8
Equip
 62
   250
370
    18
100
AcDb2dPolyline
 66
     1
 10
0.0
 20
0.0
 30
0.0
  0
VERTEX
  5
71
330
70
100
AcDbEntity
  8
Equip
 62
   250
370
    18
100
AcDbVertex
100
AcDb2dVertex
 10
82.46163328016584
 20
-51.85833332036875
 30
0.0
  0
VERTEX
  5
72
330
70
100
AcDbEntity
  8
Equip
 62
   250
370
    18
100
AcDbVertex
100
AcDb2dVertex
 10
82.57928329098712
 20
-53.65167777521555
 30
0.0
  0
SEQEND
  5
73
330
70
100
AcDbEntity
  8
Equip
370
    18
  0
POLYLINE
  5
74
330
1F
100
AcDbEntity
  8
Equip
 62
   250
370
    18
100
AcDb2dPolyline
 66
     1
 10
0.0
 20
0.0
 30
0.0
  0
VERTEX
  5
75
330
74
100
AcDbEntity
  8
Equip
 62
   250
370
    18
100
AcDbVertex
100
AcDb2dVertex
 10
84.28426104663727
 20
-53.65167777521555
 30
0.0
  0
VERTEX
  5
76
330
74
100
AcDbEntity
  8
Equip
 62
   250
370
    18
100
AcDbVertex
100
AcDb2dVertex
 10
84.60775551270223
 20
-51.88778888676764
 30
0.0
  0
SEQEND
  5
77
330
74
100
AcDbEntity
  8
Equip
370
    18
  0
POLYLINE
  5
78
330
1F
100
AcDbEntity
  8
Equip
 62
   250
370
    18
100
AcDb2dPolyline
 66
     1
 10
0.0
 20
0.0
 30
0.0
  0
VERTEX
  5
79
330
78
100
AcDbEntity
  8
Equip
 62
   250
370
    18
100
AcDbVertex
100
AcDb2dVertex
 10
104.5982665754129
 20
-55.41556666366347
 30
0.0
  0
VERTEX
  5
7A
330
78
100
AcDbEntity
  8
Equip
 62
   250
370
    18
100
AcDbVertex
100
AcDb2dVertex
 10
104.5982665754129
 20
-83.81435002244919
 30
0.0
  0
VERTEX
  5
7B
330
78
100
AcDbEntity
  8
Equip
 62
   250
370
    18
100
AcDbVertex
100
AcDb2dVertex
 10
78.25775551428973
 20
-83.81435002244919
 30
0.0
  0
VERTEX
  5
7C
330
78
100
AcDbEntity
  8
Equip
 62
   250
370
    18
100
AcDbVertex
100
AcDb2dVertex
 10
78.25775551428973
 20
-89.54698890990493
 30
0.0
  0
VERTEX
  5
7D
330
78
100
AcDbEntity
  8
Equip
 62
   250
370
    18
100
AcDbVertex
100
AcDb2dVertex
 10
104.7453721526331
 20
-89.54698890990493
 30
0.0
  0
VERTEX
  5
7E
330
78
100
AcDbEntity
  8
Equip
 62
   250
370
    18
100
AcDbVertex
100
AcDb2dVertex
 10
104.7453721526331
 20
-117.7395833038984
 30
0.0
  0
SEQEND
  5
7F
330
78
100
AcDbEntity
  8
Equip
370
    18
  0
SPLINE
  5
80
330
1F
100
AcDbEntity
  8
Equip
 62
   250
370
    18
100
AcDbSpline
210
0.0
220
0.0
230
1.0
 70
     8
 71
     3
 72
     8
 73
     4
 74
     0
 42
0.0000000001
 43
0.0000000001
 40
0.0
 40
0.0
 40
0.0
 40
0.0
 40
1.0
 40
1.0
 40
1.0
 40
1.0
 10
99.15312090620131
 20
-83.8289916782615
 30
0.0
 10
99.15312090620131
 20
-83.8289916782615
 30
0.0
 10
97.5797457980877
 20
-86.67050643449558
 30
0.0
 10
99.29402531154803
 20
-89.53510333048081
 30
0.0
  0
POLYLINE
  5
81
330
1F
100
AcDbEntity
  8
Equip
 62
   250
370
    18
100
AcDb2dPolyline
 66
     1
 10
0.0
 20
0.0
 30
0.0
  0
VERTEX
  5
82
330
81
100
AcDbEntity
  8
Equip
 62
   250
370
    18
100
AcDbVertex
100
AcDb2dVertex
 10
90.06582028998355
 20
-83.85259058233547
 30
0.0
  0
VERTEX
  5
83
330
81
100
AcDbEntity
  8
Equip
 62
   250
370
    18
100
AcDbVertex
100
AcDb2dVertex
 10
90.06582028998355
 20
-89.51150442640684
 30
0.0
  0
VERTEX
  5
84
330
81
100
AcDbEntity
  8
Equip
 62
   250
370
    18
100
AcDbVertex
100
AcDb2dVertex
 10
88.21098088072503
 20
-89.51150442640684
 30
0.0
  0
VERTEX
  5
85
330
81
100
AcDbEntity
  8
Equip
 62
   250
370
    18
100
AcDbVertex
100
AcDb2dVertex
 10
88.21098088072503
 20
-87.64064532314192
 30
0.0
  0
VERTEX
  5
86
330
81
100
AcDbEntity
  8
Equip
 62
   250
370
    18
100
AcDbVertex
100
AcDb2dVertex
 10
87.17745223515008
 20
-87.64064532314192
 30
0.0
  0
VERTEX
  5
87
330
81
100
AcDbEntity
  8
Equip
 62
   250
370
    18
100
AcDbVertex
100
AcDb2dVertex
 10
87.17745223515008
 20
-85.41683618741315
 30
0.0
  0
VERTEX
  5
88
330
81
100
AcDbEntity
  8
Equip
 62
   250
370
    18
100
AcDbVertex
100
AcDb2dVertex
 10
88.21098088072503
 20
-85.41683618741315
 30
0.0
  0
VERTEX
  5
89
330
81
100
AcDbEntity
  8
Equip
 62
   250
370
    18
100
AcDbVertex
100
AcDb2dVertex
 10
88.21098088072503
 20
-83.85259058233547
 30
0.0
  0
VERTEX
  5
8A
330
81
100
AcDbEntity
  8
Equip
 62
   250
370
    18
100
AcDbVertex
100
AcDb2dVertex
 10
90.06582028998355
 20
-83.85259058233547
 30
0.0
  0
SEQEND
  5
8B
330
81
100
AcDbEntity
  8
Equip
370
    18
  0
POLYLINE
  5
8C
330
1F
100
AcDbEntity
  8
Equip
 62
   250
370
    18
100
AcDb2dPolyline
 66
     1
 10
0.0
 20
0.0
 30
0.0
  0
VERTEX
  5
8D
330
8C
100
AcDbEntity
  8
Equip
 62
   250
370
    18
100
AcDbVertex
100
AcDb2dVertex
 10
109.8899332407567
 20
-69.8940972047487
 30
0.0
  0
VERTEX
  5
8E
330
8C
100
AcDbEntity
  8
Equip
 62
   250
370
    18
100
AcDbVertex
100
AcDb2dVertex
 10
109.8899332407567
 20
-103.3197916408367
 30
0.0
  0
SEQEND
  5
8F
330
8C
100
AcDbEntity
  8
Equip
370
    18
  0
POLYLINE
  5
90
330
1F
100
AcDbEntity
  8
Equip
 62
   250
370
    18
100
AcDb2dPolyline
 66
     1
 10
0.0
 20
0.0
 30
0.0
  0
VERTEX
  5
91
330
90
100
AcDbEntity
  8
Equip
 62
   250
370
    18
100
AcDbVertex
100
AcDb2dVertex
 10
108.150504530254
 20
-64.2977118437346
 30
0.0
  0
VERTEX
  5
92
330
90
100
AcDbEntity
  8
Equip
 62
   250
370
    18
100
AcDbVertex
100
AcDb2dVertex
 10
104.6123914669025
 20
-64.2977118437346
 30
0.0
  0
VERTEX
  5
93
330
90
100
AcDbEntity
  8
Equip
 62
   250
370
    18
100
AcDbVertex
100
AcDb2dVertex
 10
104.6123914669025
 20
-59.04859210763369
 30
0.0
  0
VERTEX
  5
94
330
90
100
AcDbEntity
  8
Equip
 62
   250
370
    18
100
AcDbVertex
100
AcDb2dVertex
 10
108.150504530254
 20
-59.04859210763369
 30
0.0
  0
VERTEX
  5
95
330
90
100
AcDbEntity
  8
Equip
 62
   250
370
    18
100
AcDbVertex
100
AcDb2dVertex
 10
108.150504530254
 20
-64.2977118437346
 30
0.0
  0
SEQEND
  5
96
330
90
100
AcDbEntity
  8
Equip
370
    18
  0
POLYLINE
  5
97
330
1F
100
AcDbEntity
  8
Equip
 62
   250
370
    18
100
AcDb2dPolyline
 66
     1
 10
0.0
 20
0.0
 30
0.0
  0
VERTEX
  5
98
330
97
100
AcDbEntity
  8
Equip
 62
   250
370
    18
100
AcDbVertex
100
AcDb2dVertex
 10
108.3268934190988
 20
-113.9220729966931
 30
0.0
  0
VERTEX
  5
99
330
97
100
AcDbEntity
  8
Equip
 62
   250
370
    18
100
AcDbVertex
100
AcDb2dVertex
 10
104.7887803557472
 20
-113.9220729966931
 30
0.0
  0
VERTEX
  5
9A
330
97
100
AcDbEntity
  8
Equip
 62
   250
370
    18
100
AcDbVertex
100
AcDb2dVertex
 10
104.7887803557472
 20
-108.6729532605922
 30
0.0
  0
VERTEX
  5
9B
330
97
100
AcDbEntity
  8
Equip
 62
   250
370
    18
100
AcDbVertex
100
AcDb2dVertex
 10
108.3268934190988
 20
-108.6729532605922
 30
0.0
  0
VERTEX
  5
9C
330
97
100
AcDbEntity
  8
Equip
 62
   250
370
    18
100
AcDbVertex
100
AcDb2dVertex
 10
108.3268934190988
 20
-113.9220729966931
 30
0.0
  0
SEQEND
  5
9D
330
97
100
AcDbEntity
  8
Equip
370
    18
  0
SPLINE
  5
9E
330
1F
100
AcDbEntity
  8
Equip
 62
   250
370
    18
100
AcDbSpline
210
0.0
220
0.0
230
1.0
 70
     8
 71
     3
 72
    11
 73
     7
 74
     0
 42
0.0000000001
 43
0.0000000001
 40
0.0
 40
0.0
 40
0.0
 40
0.0
 40
1.0
 40
1.0
 40
1.0
 40
2.0
 40
2.0
 40
2.0
 40
2.0
 10
79.7996079987133
 20
-119.4044256971454
 30
0.0
 10
79.7996079987133
 20
-119.4044256971454
 30
0.0
 10
102.4362969036444
 20
-119.4044256971454
 30
0.0
 10
102.4362969036444
 20
-119.4044256971454
 30
0.0
 10
102.4362969036444
 20
-119.4044256971454
 30
0.0
 10
104.346946859764
 20
-119.316231252723
 30
0.0
 10
104.7732774260636
 20
-117.7581868195188
 30
0.0
  0
POLYLINE
  5
9F
330
1F
100
AcDbEntity
  8
Equip
 62
   250
370
    18
100
AcDb2dPolyline
 66
     1
 10
0.0
 20
0.0
 30
0.0
  0
VERTEX
  5
A0
330
9F
100
AcDbEntity
  8
Equip
 62
   250
370
    18
100
AcDbVertex
100
AcDb2dVertex
 10
82.59237465383107
 20
-121.1977701519922
 30
0.0
  0
VERTEX
  5
A1
330
9F
100
AcDbEntity
  8
Equip
 62
   250
370
    18
100
AcDbVertex
100
AcDb2dVertex
 10
82.71002466465237
 20
-119.4044256971454
 30
0.0
  0
SEQEND
  5
A2
330
9F
100
AcDbEntity
  8
Equip
370
    18
  0
POLYLINE
  5
A3
330
1F
100
AcDbEntity
  8
Equip
 62
   250
370
    18
100
AcDb2dPolyline
 66
     1
 10
0.0
 20
0.0
 30
0.0
  0
VERTEX
  5
A4
330
A3
100
AcDbEntity
  8
Equip
 62
   250
370
    18
100
AcDbVertex
100
AcDb2dVertex
 10
84.4150024203025
 20
-119.4044256971454
 30
0.0
  0
VERTEX
  5
A5
330
A3
100
AcDbEntity
  8
Equip
 62
   250
370
    18
100
AcDbVertex
100
AcDb2dVertex
 10
84.73849688636746
 20
-121.1683145855934
 30
0.0
  0
SEQEND
  5
A6
330
A3
100
AcDbEntity
  8
Equip
370
    18
  0
SPLINE
  5
A7
330
1F
100
AcDbEntity
  8
Equip
 62
   250
370
    53
100
AcDbSpline
210
0.0
220
0.0
230
1.0
 70
    11
 71
     3
 72
    29
 73
    25
 74
     0
 42
0.0000000001
 43
0.0000000001
 40
0.0
 40
0.0
 40
0.0
 40
0.0
 40
1.0
 40
1.0
 40
1.0
 40
2.0
 40
2.0
 40
2.0
 40
3.0
 40
3.0
 40
3.0
 40
4.0
 40
4.0
 40
4.0
 40
5.0
 40
5.0
 40
5.0
 40
6.0
 40
6.0
 40
6.0
 40
7.0
 40
7.0
 40
7.0
 40
8.0
 40
8.0
 40
8.0
 40
8.0
 10
181.2106444859473
 20
-128.7637166019236
 30
0.0
 10
181.2106444859473
 20
-130.322450054225
 30
0.0
 10
179.9469834619577
 20
-131.5859388234403
 30
0.0
 10
178.3884222644307
 20
-131.5859388234403
 30
0.0
 10
178.3884222644307
 20
-131.5859388234403
 30
0.0
 10
129.117011143936
 20
-131.5859388234403
 30
0.0
 10
129.117011143936
 20
-131.5859388234403
 30
0.0
 10
127.558449946409
 20
-131.5859388234403
 30
0.0
 10
126.2947889224194
 20
-130.322450054225
 30
0.0
 10
126.2947889224194
 20
-128.7637166019236
 30
0.0
 10
126.2947889224194
 20
-128.7637166019236
 30
0.0
 10
126.2947889224194
 20
-45.50833332195625
 30
0.0
 10
126.2947889224194
 20
-45.50833332195625
 30
0.0
 10
126.2947889224194
 20
-43.94959986965496
 30
0.0
 10
127.558449946409
 20
-42.68611110043958
 30
0.0
 10
129.117011143936
 20
-42.68611110043958
 30
0.0
 10
129.117011143936
 20
-42.68611110043958
 30
0.0
 10
178.3884222644307
 20
-42.68611110043958
 30
0.0
 10
178.3884222644307
 20
-42.68611110043958
 30
0.0
 10
179.9469834619577
 20
-42.68611110043958
 30
0.0
 10
181.2106444859473
 20
-43.94959986965496
 30
0.0
 10
181.2106444859473
 20
-45.50833332195625
 30
0.0
 10
181.2106444859473
 20
-45.50833332195625
 30
0.0
 10
181.2106444859473
 20
-128.7637166019236
 30
0.0
 10
181.2106444859473
 20
-128.7637166019236
 30
0.0
  0
SPLINE
  5
A8
330
1F
100
AcDbEntity
  8
Equip
 62
   250
370
    18
100
AcDbSpline
210
0.0
220
0.0
230
1.0
 70
    11
 71
     3
 72
    29
 73
    25
 74
     0
 42
0.0000000001
 43
0.0000000001
 40
0.0
 40
0.0
 40
0.0
 40
0.0
 40
1.0
 40
1.0
 40
1.0
 40
2.0
 40
2.0
 40
2.0
 40
3.0
 40
3.0
 40
3.0
 40
4.0
 40
4.0
 40
4.0
 40
5.0
 40
5.0
 40
5.0
 40
6.0
 40
6.0
 40
6.0
 40
7.0
 40
7.0
 40
7.0
 40
8.0
 40
8.0
 40
8.0
 40
8.0
 10
138.7598334071503
 20
-60.56030000656132
 30
0.0
 10
138.7598334071503
 20
-61.14476045563395
 30
0.0
 10
138.2861327779285
 20
-61.61863333963007
 30
0.0
 10
137.7015000740816
 20
-61.61863333963007
 30
0.0
 10
137.7015000740816
 20
-61.61863333963007
 30
0.0
 10
128.9409667646398
 20
-61.61863333963007
 30
0.0
 10
128.9409667646398
 20
-61.61863333963007
 30
0.0
 10
128.3563340607929
 20
-61.61863333963007
 30
0.0
 10
127.882633431571
 20
-61.14476045563395
 30
0.0
 10
127.882633431571
 20
-60.56030000656132
 30
0.0
 10
127.882633431571
 20
-60.56030000656132
 30
0.0
 10
127.882633431571
 20
-45.50850557673051
 30
0.0
 10
127.882633431571
 20
-45.50850557673051
 30
0.0
 10
127.882633431571
 20
-44.92404512765788
 30
0.0
 10
128.3563340607929
 20
-44.45017224366176
 30
0.0
 10
128.9409667646398
 20
-44.45017224366176
 30
0.0
 10
128.9409667646398
 20
-44.45017224366176
 30
0.0
 10
137.7015000740816
 20
-44.45017224366176
 30
0.0
 10
137.7015000740816
 20
-44.45017224366176
 30
0.0
 10
138.2861327779285
 20
-44.45017224366176
 30
0.0
 10
138.7598334071503
 20
-44.92404512765788
 30
0.0
 10
138.7598334071503
 20
-45.50850557673051
 30
0.0
 10
138.7598334071503
 20
-45.50850557673051
 30
0.0
 10
138.7598334071503
 20
-60.56030000656132
 30
0.0
 10
138.7598334071503
 20
-60.56030000656132
 30
0.0
  0
SPLINE
  5
A9
330
1F
100
AcDbEntity
  8
Equip
 62
   250
370
    18
100
AcDbSpline
210
0.0
220
0.0
230
1.0
 70
    11
 71
     3
 72
    29
 73
    25
 74
     0
 42
0.0000000001
 43
0.0000000001
 40
0.0
 40
0.0
 40
0.0
 40
0.0
 40
1.0
 40
1.0
 40
1.0
 40
2.0
 40
2.0
 40
2.0
 40
3.0
 40
3.0
 40
3.0
 40
4.0
 40
4.0
 40
4.0
 40
5.0
 40
5.0
 40
5.0
 40
6.0
 40
6.0
 40
6.0
 40
7.0
 40
7.0
 40
7.0
 40
8.0
 40
8.0
 40
8.0
 40
8.0
 10
179.682055619142
 20
-60.56030000656132
 30
0.0
 10
179.682055619142
 20
-61.14476045563395
 30
0.0
 10
179.2083549899201
 20
-61.61863333963007
 30
0.0
 10
178.6237222860732
 20
-61.61863333963007
 30
0.0
 10
178.6237222860732
 20
-61.61863333963007
 30
0.0
 10
169.8631889766314
 20
-61.61863333963007
 30
0.0
 10
169.8631889766314
 20
-61.61863333963007
 30
0.0
 10
169.2785562727845
 20
-61.61863333963007
 30
0.0
 10
168.8048556435627
 20
-61.14476045563395
 30
0.0
 10
168.8048556435627
 20
-60.56030000656132
 30
0.0
 10
168.8048556435627
 20
-60.56030000656132
 30
0.0
 10
168.8048556435627
 20
-45.50850557673051
 30
0.0
 10
168.8048556435627
 20
-45.50850557673051
 30
0.0
 10
168.8048556435627
 20
-44.92404512765788
 30
0.0
 10
169.2785562727845
 20
-44.45017224366176
 30
0.0
 10
169.8631889766314
 20
-44.45017224366176
 30
0.0
 10
169.8631889766314
 20
-44.45017224366176
 30
0.0
 10
178.6237222860732
 20
-44.45017224366176
 30
0.0
 10
178.6237222860732
 20
-44.45017224366176
 30
0.0
 10
179.2083549899201
 20
-44.45017224366176
 30
0.0
 10
179.682055619142
 20
-44.92404512765788
 30
0.0
 10
179.682055619142
 20
-45.50850557673051
 30
0.0
 10
179.682055619142
 20
-45.50850557673051
 30
0.0
 10
179.682055619142
 20
-60.56030000656132
 30
0.0
 10
179.682055619142
 20
-60.56030000656132
 30
0.0
  0
POLYLINE
  5
AA
330
1F
100
AcDbEntity
  8
Equip
 62
   250
370
    18
100
AcDb2dPolyline
 66
     1
 10
0.0
 20
0.0
 30
0.0
  0
VERTEX
  5
AB
330
AA
100
AcDbEntity
  8
Equip
 62
   250
370
    18
100
AcDbVertex
100
AcDb2dVertex
 10
126.2951334319679
 20
-62.7946166835201
 30
0.0
  0
VERTEX
  5
AC
330
AA
100
AcDbEntity
  8
Equip
 62
   250
370
    18
100
AcDbVertex
100
AcDb2dVertex
 10
140.2298556507064
 20
-62.7946166835201
 30
0.0
  0
VERTEX
  5
AD
330
AA
100
AcDbEntity
  8
Equip
 62
   250
370
    18
100
AcDbVertex
100
AcDb2dVertex
 10
140.2298556507064
 20
-44.33252223284048
 30
0.0
  0
VERTEX
  5
AE
330
AA
100
AcDbEntity
  8
Equip
 62
   250
370
    18
100
AcDbVertex
100
AcDb2dVertex
 10
167.6876111776962
 20
-44.33252223284048
 30
0.0
  0
VERTEX
  5
AF
330
AA
100
AcDbEntity
  8
Equip
 62
   250
370
    18
100
AcDbVertex
100
AcDb2dVertex
 10
167.6876111776962
 20
-62.7946166835201
 30
0.0
  0
VERTEX
  5
B0
330
AA
100
AcDbEntity
  8
Equip
 62
   250
370
    18
100
AcDbVertex
100
AcDb2dVertex
 10
181.2106444859473
 20
-62.7946166835201
 30
0.0
  0
SEQEND
  5
B1
330
AA
100
AcDbEntity
  8
Equip
370
    18
  0
POLYLINE
  5
B2
330
1F
100
AcDbEntity
  8
Equip
 62
   250
370
    18
100
AcDb2dPolyline
 66
     1
 10
0.0
 20
0.0
 30
0.0
  0
VERTEX
  5
B3
330
B2
100
AcDbEntity
  8
Equip
 62
   250
370
    18
100
AcDbVertex
100
AcDb2dVertex
 10
139.0537000520421
 20
-68.39479164956798
 30
0.0
  0
VERTEX
  5
B4
330
B2
100
AcDbEntity
  8
Equip
 62
   250
370
    18
100
AcDbVertex
100
AcDb2dVertex
 10
131.4689778317161
 20
-68.39479164956798
 30
0.0
  0
VERTEX
  5
B5
330
B2
100
AcDbEntity
  8
Equip
 62
   250
370
    18
100
AcDbVertex
100
AcDb2dVertex
 10
131.4689778317161
 20
-62.80925833933241
 30
0.0
  0
VERTEX
  5
B6
330
B2
100
AcDbEntity
  8
Equip
 62
   250
370
    18
100
AcDbVertex
100
AcDb2dVertex
 10
139.0537000520421
 20
-62.80925833933241
 30
0.0
  0
VERTEX
  5
B7
330
B2
100
AcDbEntity
  8
Equip
 62
   250
370
    18
100
AcDbVertex
100
AcDb2dVertex
 10
139.0537000520421
 20
-68.39479164956798
 30
0.0
  0
SEQEND
  5
B8
330
B2
100
AcDbEntity
  8
Equip
370
    18
  0
POLYLINE
  5
B9
330
1F
100
AcDbEntity
  8
Equip
 62
   250
370
    18
100
AcDb2dPolyline
 66
     1
 10
0.0
 20
0.0
 30
0.0
  0
VERTEX
  5
BA
330
B9
100
AcDbEntity
  8
Equip
 62
   250
370
    18
100
AcDbVertex
100
AcDb2dVertex
 10
176.2717555982932
 20
-68.39479164956798
 30
0.0
  0
VERTEX
  5
BB
330
B9
100
AcDbEntity
  8
Equip
 62
   250
370
    18
100
AcDbVertex
100
AcDb2dVertex
 10
168.6870333779671
 20
-68.39479164956798
 30
0.0
  0
VERTEX
  5
BC
330
B9
100
AcDbEntity
  8
Equip
 62
   250
370
    18
100
AcDbVertex
100
AcDb2dVertex
 10
168.6870333779671
 20
-62.80925833933241
 30
0.0
  0
VERTEX
  5
BD
330
B9
100
AcDbEntity
  8
Equip
 62
   250
370
    18
100
AcDbVertex
100
AcDb2dVertex
 10
176.2717555982932
 20
-62.80925833933241
 30
0.0
  0
VERTEX
  5
BE
330
B9
100
AcDbEntity
  8
Equip
 62
   250
370
    18
100
AcDbVertex
100
AcDb2dVertex
 10
176.2717555982932
 20
-68.39479164956798
 30
0.0
  0
SEQEND
  5
BF
330
B9
100
AcDbEntity
  8
Equip
370
    18
  0
SPLINE
  5
C0
330
1F
100
AcDbEntity
  8
Equip
 62
   250
370
    18
100
AcDbSpline
210
0.0
220
0.0
230
1.0
 70
     8
 71
     3
 72
    26
 73
    22
 74
     0
 42
0.0000000001
 43
0.0000000001
 40
0.0
 40
0.0
 40
0.0
 40
0.0
 40
1.0
 40
1.0
 40
1.0
 40
2.0
 40
2.0
 40
2.0
 40
3.0
 40
3.0
 40
3.0
 40
4.0
 40
4.0
 40
4.0
 40
5.0
 40
5.0
 40
5.0
 40
6.0
 40
6.0
 40
6.0
 40
7.0
 40
7.0
 40
7.0
 40
7.0
 10
126.3388861446306
 20
-68.08611109408959
 30
0.0
 10
126.3388861446306
 20
-68.08611109408959
 30
0.0
 10
130.2635389214272
 20
-68.08611109408959
 30
0.0
 10
130.2635389214272
 20
-68.08611109408959
 30
0.0
 10
130.2635389214272
 20
-68.08611109408959
 30
0.0
 10
130.2635389214272
 20
-64.91111109488334
 30
0.0
 10
130.2635389214272
 20
-64.91111109488334
 30
0.0
 10
130.2635389214272
 20
-64.91111109488334
 30
0.0
 10
130.2838649847901
 20
-64.2729071562408
 30
0.0
 10
129.557983366048
 20
-64.2729071562408
 30
0.0
 10
129.557983366048
 20
-64.2729071562408
 30
0.0
 10
128.5878444774017
 20
-64.2729071562408
 30
0.0
 10
128.5878444774017
 20
-64.2729071562408
 30
0.0
 10
128.5878444774017
 20
-64.2729071562408
 30
0.0
 10
128.0586778108673
 20
-64.38194442834896
 30
0.0
 10
128.0586778108673
 20
-64.91111109488334
 30
0.0
 10
128.0586778108673
 20
-64.91111109488334
 30
0.0
 10
128.0586778108673
 20
-66.27812498343047
 30
0.0
 10
128.0586778108673
 20
-66.27812498343047
 30
0.0
 10
128.0586778108673
 20
-66.27812498343047
 30
0.0
 10
126.2947889224194
 20
-66.27812498343047
 30
0.0
 10
126.2947889224194
 20
-66.27812498343047
 30
0.0
  0
SPLINE
  5
C1
330
1F
100
AcDbEntity
  8
Equip
 62
   250
370
    18
100
AcDbSpline
210
0.0
220
0.0
230
1.0
 70
     8
 71
     3
 72
    26
 73
    22
 74
     0
 42
0.0000000001
 43
0.0000000001
 40
0.0
 40
0.0
 40
0.0
 40
0.0
 40
1.0
 40
1.0
 40
1.0
 40
2.0
 40
2.0
 40
2.0
 40
3.0
 40
3.0
 40
3.0
 40
4.0
 40
4.0
 40
4.0
 40
5.0
 40
5.0
 40
5.0
 40
6.0
 40
6.0
 40
6.0
 40
7.0
 40
7.0
 40
7.0
 40
7.0
 10
181.1958305753608
 20
-68.08611109408959
 30
0.0
 10
181.1958305753608
 20
-68.08611109408959
 30
0.0
 10
177.2711777985642
 20
-68.08611109408959
 30
0.0
 10
177.2711777985642
 20
-68.08611109408959
 30
0.0
 10
177.2711777985642
 20
-68.08611109408959
 30
0.0
 10
177.2711777985642
 20
-64.91111109488334
 30
0.0
 10
177.2711777985642
 20
-64.91111109488334
 30
0.0
 10
177.2711777985642
 20
-64.91111109488334
 30
0.0
 10
177.2508517352012
 20
-64.2729071562408
 30
0.0
 10
177.9767333539433
 20
-64.2729071562408
 30
0.0
 10
177.9767333539433
 20
-64.2729071562408
 30
0.0
 10
178.9468722425897
 20
-64.2729071562408
 30
0.0
 10
178.9468722425897
 20
-64.2729071562408
 30
0.0
 10
178.9468722425897
 20
-64.2729071562408
 30
0.0
 10
179.476038909124
 20
-64.38194442834896
 30
0.0
 10
179.476038909124
 20
-64.91111109488334
 30
0.0
 10
179.476038909124
 20
-64.91111109488334
 30
0.0
 10
179.476038909124
 20
-66.27812498343047
 30
0.0
 10
179.476038909124
 20
-66.27812498343047
 30
0.0
 10
179.476038909124
 20
-66.27812498343047
 30
0.0
 10
181.239927797572
 20
-66.27812498343047
 30
0.0
 10
181.239927797572
 20
-66.27812498343047
 30
0.0
  0
POLYLINE
  5
C2
330
1F
100
AcDbEntity
  8
Equip
 62
   250
370
    18
100
AcDb2dPolyline
 66
     1
 10
0.0
 20
0.0
 30
0.0
  0
VERTEX
  5
C3
330
C2
100
AcDbEntity
  8
Equip
 62
   250
370
    18
100
AcDbVertex
100
AcDb2dVertex
 10
140.2295111411579
 20
-60.54548609597474
 30
0.0
  0
VERTEX
  5
C4
330
C2
100
AcDbEntity
  8
Equip
 62
   250
370
    18
100
AcDbVertex
100
AcDb2dVertex
 10
143.3163166959418
 20
-60.54548609597474
 30
0.0
  0
VERTEX
  5
C5
330
C2
100
AcDbEntity
  8
Equip
 62
   250
370
    18
100
AcDbVertex
100
AcDb2dVertex
 10
143.3163166959418
 20
-56.84131943023412
 30
0.0
  0
VERTEX
  5
C6
330
C2
100
AcDbEntity
  8
Equip
 62
   250
370
    18
100
AcDbVertex
100
AcDb2dVertex
 10
164.2184000240496
 20
-56.84131943023412
 30
0.0
  0
VERTEX
  5
C7
330
C2
100
AcDbEntity
  8
Equip
 62
   250
370
    18
100
AcDbVertex
100
AcDb2dVertex
 10
164.2184000240496
 20
-60.54548609597474
 30
0.0
  0
VERTEX
  5
C8
330
C2
100
AcDbEntity
  8
Equip
 62
   250
370
    18
100
AcDbVertex
100
AcDb2dVertex
 10
167.657983356523
 20
-60.54548609597474
 30
0.0
  0
SEQEND
  5
C9
330
C2
100
AcDbEntity
  8
Equip
370
    18
  0
POLYLINE
  5
CA
330
1F
100
AcDbEntity
  8
Equip
 62
   250
370
    18
100
AcDb2dPolyline
 66
     1
 10
0.0
 20
0.0
 30
0.0
  0
VERTEX
  5
CB
330
CA
100
AcDbEntity
  8
Equip
 62
   250
370
    18
100
AcDbVertex
100
AcDb2dVertex
 10
140.2295111411579
 20
-62.17708331778906
 30
0.0
  0
VERTEX
  5
CC
330
CA
100
AcDbEntity
  8
Equip
 62
   250
370
    18
100
AcDbVertex
100
AcDb2dVertex
 10
144.9038166955449
 20
-62.17708331778906
 30
0.0
  0
VERTEX
  5
CD
330
CA
100
AcDbEntity
  8
Equip
 62
   250
370
    18
100
AcDbVertex
100
AcDb2dVertex
 10
144.9038166955449
 20
-58.25243054099245
 30
0.0
  0
VERTEX
  5
CE
330
CA
100
AcDbEntity
  8
Equip
 62
   250
370
    18
100
AcDbVertex
100
AcDb2dVertex
 10
162.7190944688688
 20
-58.25243054099245
 30
0.0
  0
VERTEX
  5
CF
330
CA
100
AcDbEntity
  8
Equip
 62
   250
370
    18
100
AcDbVertex
100
AcDb2dVertex
 10
162.7190944688688
 20
-62.35347220663386
 30
0.0
  0
VERTEX
  5
D0
330
CA
100
AcDbEntity
  8
Equip
 62
   250
370
    18
100
AcDbVertex
100
AcDb2dVertex
 10
167.657983356523
 20
-62.35347220663386
 30
0.0
  0
SEQEND
  5
D1
330
CA
100
AcDbEntity
  8
Equip
370
    18
  0
POLYLINE
  5
D2
330
1F
100
AcDbEntity
  8
Equip
 62
   250
370
    18
100
AcDb2dPolyline
 66
     1
 10
0.0
 20
0.0
 30
0.0
  0
VERTEX
  5
D3
330
D2
100
AcDbEntity
  8
Equip
 62
   250
370
    18
100
AcDbVertex
100
AcDb2dVertex
 10
144.9038166955449
 20
-62.17708331778906
 30
0.0
  0
VERTEX
  5
D4
330
D2
100
AcDbEntity
  8
Equip
 62
   250
370
    18
100
AcDbVertex
100
AcDb2dVertex
 10
144.9038166955449
 20
-67.953819427456
 30
0.0
  0
VERTEX
  5
D5
330
D2
100
AcDbEntity
  8
Equip
 62
   250
370
    18
100
AcDbVertex
100
AcDb2dVertex
 10
162.7190944688688
 20
-67.953819427456
 30
0.0
  0
VERTEX
  5
D6
330
D2
100
AcDbEntity
  8
Equip
 62
   250
370
    18
100
AcDbVertex
100
AcDb2dVertex
 10
162.7190944688688
 20
-62.35347220663386
 30
0.0
  0
SEQEND
  5
D7
330
D2
100
AcDbEntity
  8
Equip
370
    18
  0
POLYLINE
  5
D8
330
1F
100
AcDbEntity
  8
Equip
 62
   250
370
    18
100
AcDb2dPolyline
 66
     1
 10
0.0
 20
0.0
 30
0.0
  0
VERTEX
  5
D9
330
D8
100
AcDbEntity
  8
Equip
 62
   250
370
    18
100
AcDbVertex
100
AcDb2dVertex
 10
144.9038166955449
 20
-59.4210069295892
 30
0.0
  0
VERTEX
  5
DA
330
D8
100
AcDbEntity
  8
Equip
 62
   250
370
    18
100
AcDbVertex
100
AcDb2dVertex
 10
162.7190944688688
 20
-59.4210069295892
 30
0.0
  0
SEQEND
  5
DB
330
D8
100
AcDbEntity
  8
Equip
370
    18
  0
POLYLINE
  5
DC
330
1F
100
AcDbEntity
  8
Equip
 62
   250
370
    18
100
AcDb2dPolyline
 66
     1
 10
0.0
 20
0.0
 30
0.0
  0
VERTEX
  5
DD
330
DC
100
AcDbEntity
  8
Equip
 62
   250
370
    18
100
AcDbVertex
100
AcDb2dVertex
 10
144.9038166955449
 20
-61.29513887356511
 30
0.0
  0
VERTEX
  5
DE
330
DC
100
AcDbEntity
  8
Equip
 62
   250
370
    18
100
AcDbVertex
100
AcDb2dVertex
 10
162.6970458577632
 20
-61.29513887356511
 30
0.0
  0
SEQEND
  5
DF
330
DC
100
AcDbEntity
  8
Equip
370
    18
  0
POLYLINE
  5
E0
330
1F
100
AcDbEntity
  8
Equip
 62
   250
370
    18
100
AcDb2dPolyline
 66
     1
 10
0.0
 20
0.0
 30
0.0
  0
VERTEX
  5
E1
330
E0
100
AcDbEntity
  8
Equip
 62
   250
370
    18
100
AcDbVertex
100
AcDb2dVertex
 10
146.1385389174584
 20
-61.3171874846707
 30
0.0
  0
VERTEX
  5
E2
330
E0
100
AcDbEntity
  8
Equip
 62
   250
370
    18
100
AcDbVertex
100
AcDb2dVertex
 10
146.1385389174584
 20
-66.34427081674727
 30
0.0
  0
VERTEX
  5
E3
330
E0
100
AcDbEntity
  8
Equip
 62
   250
370
    18
100
AcDbVertex
100
AcDb2dVertex
 10
161.5284694691665
 20
-66.34427081674727
 30
0.0
  0
VERTEX
  5
E4
330
E0
100
AcDbEntity
  8
Equip
 62
   250
370
    18
100
AcDbVertex
100
AcDb2dVertex
 10
161.5284694691665
 20
-61.29513887356511
 30
0.0
  0
SEQEND
  5
E5
330
E0
100
AcDbEntity
  8
Equip
370
    18
  0
POLYLINE
  5
E6
330
1F
100
AcDbEntity
  8
Equip
 62
   250
370
    18
100
AcDb2dPolyline
 66
     1
 10
0.0
 20
0.0
 30
0.0
  0
VERTEX
  5
E7
330
E6
100
AcDbEntity
  8
Equip
 62
   250
370
    18
100
AcDbVertex
100
AcDb2dVertex
 10
147.6378444726392
 20
-61.29513887356511
 30
0.0
  0
VERTEX
  5
E8
330
E6
100
AcDbEntity
  8
Equip
 62
   250
370
    18
100
AcDbVertex
100
AcDb2dVertex
 10
147.6378444726392
 20
-64.84496526156654
 30
0.0
  0
VERTEX
  5
E9
330
E6
100
AcDbEntity
  8
Equip
 62
   250
370
    18
100
AcDbVertex
100
AcDb2dVertex
 10
160.0291639139858
 20
-64.84496526156654
 30
0.0
  0
VERTEX
  5
EA
330
E6
100
AcDbEntity
  8
Equip
 62
   250
370
    18
100
AcDbVertex
100
AcDb2dVertex
 10
160.0291639139858
 20
-61.29513887356511
 30
0.0
  0
SEQEND
  5
EB
330
E6
100
AcDbEntity
  8
Equip
370
    18
  0
POLYLINE
  5
EC
330
1F
100
AcDbEntity
  8
Equip
 62
   250
370
    18
100
AcDb2dPolyline
 66
     1
 10
0.0
 20
0.0
 30
0.0
  0
VERTEX
  5
ED
330
EC
100
AcDbEntity
  8
Equip
 62
   250
370
    18
100
AcDbVertex
100
AcDb2dVertex
 10
151.2317680828518
 20
-67.97586803856159
 30
0.0
  0
VERTEX
  5
EE
330
EC
100
AcDbEntity
  8
Equip
 62
   250
370
    18
100
AcDbVertex
100
AcDb2dVertex
 10
151.2317680828518
 20
-72.60607637073737
 30
0.0
  0
VERTEX
  5
EF
330
EC
100
AcDbEntity
  8
Equip
 62
   250
370
    18
100
AcDbVertex
100
AcDb2dVertex
 10
156.3249972482452
 20
-72.60607637073737
 30
0.0
  0
VERTEX
  5
F0
330
EC
100
AcDbEntity
  8
Equip
 62
   250
370
    18
100
AcDbVertex
100
AcDb2dVertex
 10
156.3249972482452
 20
-67.97586803856159
 30
0.0
  0
SEQEND
  5
F1
330
EC
100
AcDbEntity
  8
Equip
370
    18
  0
POLYLINE
  5
F2
330
1F
100
AcDbEntity
  8
Equip
 62
   250
370
    18
100
AcDb2dPolyline
 66
     1
 10
0.0
 20
0.0
 30
0.0
  0
VERTEX
  5
F3
330
F2
100
AcDbEntity
  8
Equip
 62
   250
370
    18
100
AcDbVertex
100
AcDb2dVertex
 10
151.2538166939574
 20
-70.35711803796627
 30
0.0
  0
VERTEX
  5
F4
330
F2
100
AcDbEntity
  8
Equip
 62
   250
370
    18
100
AcDbVertex
100
AcDb2dVertex
 10
156.2809000260339
 20
-70.35711803796627
 30
0.0
  0
SEQEND
  5
F5
330
F2
100
AcDbEntity
  8
Equip
370
    18
  0
SPLINE
  5
F6
330
1F
100
AcDbEntity
  8
Equip
 62
   250
370
    18
100
AcDbSpline
210
0.0
220
0.0
230
1.0
 70
    11
 71
     3
 72
    29
 73
    25
 74
     0
 42
0.0000000001
 43
0.0000000001
 40
0.0
 40
0.0
 40
0.0
 40
0.0
 40
1.0
 40
1.0
 40
1.0
 40
2.0
 40
2.0
 40
2.0
 40
3.0
 40
3.0
 40
3.0
 40
4.0
 40
4.0
 40
4.0
 40
5.0
 40
5.0
 40
5.0
 40
6.0
 40
6.0
 40
6.0
 40
7.0
 40
7.0
 40
7.0
 40
8.0
 40
8.0
 40
8.0
 40
8.0
 10
168.774883312841
 20
-113.7046874715738
 30
0.0
 10
168.774883312841
 20
-113.1202270225012
 30
0.0
 10
169.2485839420629
 20
-112.6463541385051
 30
0.0
 10
169.8332166459098
 20
-112.6463541385051
 30
0.0
 10
169.8332166459098
 20
-112.6463541385051
 30
0.0
 10
178.5937499553516
 20
-112.6463541385051
 30
0.0
 10
178.5937499553516
 20
-112.6463541385051
 30
0.0
 10
179.1783826591985
 20
-112.6463541385051
 30
0.0
 10
179.6520832884203
 20
-113.1202270225012
 30
0.0
 10
179.6520832884203
 20
-113.7046874715738
 30
0.0
 10
179.6520832884203
 20
-113.7046874715738
 30
0.0
 10
179.6520832884203
 20
-128.7564819014046
 30
0.0
 10
179.6520832884203
 20
-128.7564819014046
 30
0.0
 10
179.6520832884203
 20
-129.3409423504773
 30
0.0
 10
179.1783826591985
 20
-129.8148152344734
 30
0.0
 10
178.5937499553516
 20
-129.8148152344734
 30
0.0
 10
178.5937499553516
 20
-129.8148152344734
 30
0.0
 10
169.8332166459098
 20
-129.8148152344734
 30
0.0
 10
169.8332166459098
 20
-129.8148152344734
 30
0.0
 10
169.2485839420629
 20
-129.8148152344734
 30
0.0
 10
168.774883312841
 20
-129.3409423504773
 30
0.0
 10
168.774883312841
 20
-128.7564819014046
 30
0.0
 10
168.774883312841
 20
-128.7564819014046
 30
0.0
 10
168.774883312841
 20
-113.7046874715738
 30
0.0
 10
168.774883312841
 20
-113.7046874715738
 30
0.0
  0
SPLINE
  5
F7
330
1F
100
AcDbEntity
  8
Equip
 62
   250
370
    18
100
AcDbSpline
210
0.0
220
0.0
230
1.0
 70
    11
 71
     3
 72
    29
 73
    25
 74
     0
 42
0.0000000001
 43
0.0000000001
 40
0.0
 40
0.0
 40
0.0
 40
0.0
 40
1.0
 40
1.0
 40
1.0
 40
2.0
 40
2.0
 40
2.0
 40
3.0
 40
3.0
 40
3.0
 40
4.0
 40
4.0
 40
4.0
 40
5.0
 40
5.0
 40
5.0
 40
6.0
 40
6.0
 40
6.0
 40
7.0
 40
7.0
 40
7.0
 40
8.0
 40
8.0
 40
8.0
 40
8.0
 10
127.8526611008493
 20
-113.7046874715738
 30
0.0
 10
127.8526611008493
 20
-113.1202270225012
 30
0.0
 10
128.3263617300712
 20
-112.6463541385051
 30
0.0
 10
128.9109944339181
 20
-112.6463541385051
 30
0.0
 10
128.9109944339181
 20
-112.6463541385051
 30
0.0
 10
137.6715277433599
 20
-112.6463541385051
 30
0.0
 10
137.6715277433599
 20
-112.6463541385051
 30
0.0
 10
138.2561604472068
 20
-112.6463541385051
 30
0.0
 10
138.7298610764286
 20
-113.1202270225012
 30
0.0
 10
138.7298610764286
 20
-113.7046874715738
 30
0.0
 10
138.7298610764286
 20
-113.7046874715738
 30
0.0
 10
138.7298610764286
 20
-128.7564819014046
 30
0.0
 10
138.7298610764286
 20
-128.7564819014046
 30
0.0
 10
138.7298610764286
 20
-129.3409423504773
 30
0.0
 10
138.2561604472068
 20
-129.8148152344734
 30
0.0
 10
137.6715277433599
 20
-129.8148152344734
 30
0.0
 10
137.6715277433599
 20
-129.8148152344734
 30
0.0
 10
128.9109944339181
 20
-129.8148152344734
 30
0.0
 10
128.9109944339181
 20
-129.8148152344734
 30
0.0
 10
128.3263617300712
 20
-129.8148152344734
 30
0.0
 10
127.8526611008493
 20
-129.3409423504773
 30
0.0
 10
127.8526611008493
 20
-128.7564819014046
 30
0.0
 10
127.8526611008493
 20
-128.7564819014046
 30
0.0
 10
127.8526611008493
 20
-113.7046874715738
 30
0.0
 10
127.8526611008493
 20
-113.7046874715738
 30
0.0
  0
POLYLINE
  5
F8
330
1F
100
AcDbEntity
  8
Equip
 62
   250
370
    18
100
AcDb2dPolyline
 66
     1
 10
0.0
 20
0.0
 30
0.0
  0
VERTEX
  5
F9
330
F8
100
AcDbEntity
  8
Equip
 62
   250
370
    18
100
AcDbVertex
100
AcDb2dVertex
 10
181.2395832880235
 20
-111.4703707946151
 30
0.0
  0
VERTEX
  5
FA
330
F8
100
AcDbEntity
  8
Equip
 62
   250
370
    18
100
AcDbVertex
100
AcDb2dVertex
 10
167.3048610692849
 20
-111.4703707946151
 30
0.0
  0
VERTEX
  5
FB
330
F8
100
AcDbEntity
  8
Equip
 62
   250
370
    18
100
AcDbVertex
100
AcDb2dVertex
 10
167.3048610692849
 20
-129.9324652452947
 30
0.0
  0
VERTEX
  5
FC
330
F8
100
AcDbEntity
  8
Equip
 62
   250
370
    18
100
AcDbVertex
100
AcDb2dVertex
 10
139.8471055422952
 20
-129.9324652452947
 30
0.0
  0
VERTEX
  5
FD
330
F8
100
AcDbEntity
  8
Equip
 62
   250
370
    18
100
AcDbVertex
100
AcDb2dVertex
 10
139.8471055422952
 20
-111.4703707946151
 30
0.0
  0
VERTEX
  5
FE
330
F8
100
AcDbEntity
  8
Equip
 62
   250
370
    18
100
AcDbVertex
100
AcDb2dVertex
 10
126.324072234044
 20
-111.4703707946151
 30
0.0
  0
SEQEND
  5
FF
330
F8
100
AcDbEntity
  8
Equip
370
    18
  0
POLYLINE
  5
100
330
1F
100
AcDbEntity
  8
Equip
 62
   250
370
    18
100
AcDb2dPolyline
 66
     1
 10
0.0
 20
0.0
 30
0.0
  0
VERTEX
  5
101
330
100
100
AcDbEntity
  8
Equip
 62
   250
370
    18
100
AcDbVertex
100
AcDb2dVertex
 10
168.4810166679492
 20
-105.8701958285672
 30
0.0
  0
VERTEX
  5
102
330
100
100
AcDbEntity
  8
Equip
 62
   250
370
    18
100
AcDbVertex
100
AcDb2dVertex
 10
176.0657388882752
 20
-105.8701958285672
 30
0.0
  0
VERTEX
  5
103
330
100
100
AcDbEntity
  8
Equip
 62
   250
370
    18
100
AcDbVertex
100
AcDb2dVertex
 10
176.0657388882752
 20
-111.4557291388027
 30
0.0
  0
VERTEX
  5
104
330
100
100
AcDbEntity
  8
Equip
 62
   250
370
    18
100
AcDbVertex
100
AcDb2dVertex
 10
168.4810166679492
 20
-111.4557291388027
 30
0.0
  0
VERTEX
  5
105
330
100
100
AcDbEntity
  8
Equip
 62
   250
370
    18
100
AcDbVertex
100
AcDb2dVertex
 10
168.4810166679492
 20
-105.8701958285672
 30
0.0
  0
SEQEND
  5
106
330
100
100
AcDbEntity
  8
Equip
370
    18
  0
POLYLINE
  5
107
330
1F
100
AcDbEntity
  8
Equip
 62
   250
370
    18
100
AcDb2dPolyline
 66
     1
 10
0.0
 20
0.0
 30
0.0
  0
VERTEX
  5
108
330
107
100
AcDbEntity
  8
Equip
 62
   250
370
    18
100
AcDbVertex
100
AcDb2dVertex
 10
131.2629611216982
 20
-105.8701958285672
 30
0.0
  0
VERTEX
  5
109
330
107
100
AcDbEntity
  8
Equip
 62
   250
370
    18
100
AcDbVertex
100
AcDb2dVertex
 10
138.8476833420242
 20
-105.8701958285672
 30
0.0
  0
VERTEX
  5
10A
330
107
100
AcDbEntity
  8
Equip
 62
   250
370
    18
100
AcDbVertex
100
AcDb2dVertex
 10
138.8476833420242
 20
-111.4557291388027
 30
0.0
  0
VERTEX
  5
10B
330
107
100
AcDbEntity
  8
Equip
 62
   250
370
    18
100
AcDbVertex
100
AcDb2dVertex
 10
131.2629611216982
 20
-111.4557291388027
 30
0.0
  0
VERTEX
  5
10C
330
107
100
AcDbEntity
  8
Equip
 62
   250
370
    18
100
AcDbVertex
100
AcDb2dVertex
 10
131.2629611216982
 20
-105.8701958285672
 30
0.0
  0
SEQEND
  5
10D
330
107
100
AcDbEntity
  8
Equip
370
    18
  0
SPLINE
  5
10E
330
1F
100
AcDbEntity
  8
Equip
 62
   250
370
    18
100
AcDbSpline
210
0.0
220
0.0
230
1.0
 70
     8
 71
     3
 72
    26
 73
    22
 74
     0
 42
0.0000000001
 43
0.0000000001
 40
0.0
 40
0.0
 40
0.0
 40
0.0
 40
1.0
 40
1.0
 40
1.0
 40
2.0
 40
2.0
 40
2.0
 40
3.0
 40
3.0
 40
3.0
 40
4.0
 40
4.0
 40
4.0
 40
5.0
 40
5.0
 40
5.0
 40
6.0
 40
6.0
 40
6.0
 40
7.0
 40
7.0
 40
7.0
 40
7.0
 10
181.1958305753608
 20
-106.1788763840456
 30
0.0
 10
181.1958305753608
 20
-106.1788763840456
 30
0.0
 10
177.2711777985642
 20
-106.1788763840456
 30
0.0
 10
177.2711777985642
 20
-106.1788763840456
 30
0.0
 10
177.2711777985642
 20
-106.1788763840456
 30
0.0
 10
177.2711777985642
 20
-109.3538763832518
 30
0.0
 10
177.2711777985642
 20
-109.3538763832518
 30
0.0
 10
177.2711777985642
 20
-109.3538763832518
 30
0.0
 10
177.2508517352012
 20
-109.9920803218943
 30
0.0
 10
177.9767333539433
 20
-109.9920803218943
 30
0.0
 10
177.9767333539433
 20
-109.9920803218943
 30
0.0
 10
178.9468722425897
 20
-109.9920803218943
 30
0.0
 10
178.9468722425897
 20
-109.9920803218943
 30
0.0
 10
178.9468722425897
 20
-109.9920803218943
 30
0.0
 10
179.476038909124
 20
-109.8830430497862
 30
0.0
 10
179.476038909124
 20
-109.3538763832518
 30
0.0
 10
179.476038909124
 20
-109.3538763832518
 30
0.0
 10
179.476038909124
 20
-107.9868624947047
 30
0.0
 10
179.476038909124
 20
-107.9868624947047
 30
0.0
 10
179.476038909124
 20
-107.9868624947047
 30
0.0
 10
181.239927797572
 20
-107.9868624947047
 30
0.0
 10
181.239927797572
 20
-107.9868624947047
 30
0.0
  0
SPLINE
  5
10F
330
1F
100
AcDbEntity
  8
Equip
 62
   250
370
    18
100
AcDbSpline
210
0.0
220
0.0
230
1.0
 70
     8
 71
     3
 72
    26
 73
    22
 74
     0
 42
0.0000000001
 43
0.0000000001
 40
0.0
 40
0.0
 40
0.0
 40
0.0
 40
1.0
 40
1.0
 40
1.0
 40
2.0
 40
2.0
 40
2.0
 40
3.0
 40
3.0
 40
3.0
 40
4.0
 40
4.0
 40
4.0
 40
5.0
 40
5.0
 40
5.0
 40
6.0
 40
6.0
 40
6.0
 40
7.0
 40
7.0
 40
7.0
 40
7.0
 10
126.3388861446306
 20
-106.1788763840456
 30
0.0
 10
126.3388861446306
 20
-106.1788763840456
 30
0.0
 10
130.2635389214272
 20
-106.1788763840456
 30
0.0
 10
130.2635389214272
 20
-106.1788763840456
 30
0.0
 10
130.2635389214272
 20
-106.1788763840456
 30
0.0
 10
130.2635389214272
 20
-109.3538763832518
 30
0.0
 10
130.2635389214272
 20
-109.3538763832518
 30
0.0
 10
130.2635389214272
 20
-109.3538763832518
 30
0.0
 10
130.2838649847901
 20
-109.9920803218943
 30
0.0
 10
129.557983366048
 20
-109.9920803218943
 30
0.0
 10
129.557983366048
 20
-109.9920803218943
 30
0.0
 10
128.5878444774017
 20
-109.9920803218943
 30
0.0
 10
128.5878444774017
 20
-109.9920803218943
 30
0.0
 10
128.5878444774017
 20
-109.9920803218943
 30
0.0
 10
128.0586778108673
 20
-109.8830430497862
 30
0.0
 10
128.0586778108673
 20
-109.3538763832518
 30
0.0
 10
128.0586778108673
 20
-109.3538763832518
 30
0.0
 10
128.0586778108673
 20
-107.9868624947047
 30
0.0
 10
128.0586778108673
 20
-107.9868624947047
 30
0.0
 10
128.0586778108673
 20
-107.9868624947047
 30
0.0
 10
126.2947889224194
 20
-107.9868624947047
 30
0.0
 10
126.2947889224194
 20
-107.9868624947047
 30
0.0
  0
POLYLINE
  5
110
330
1F
100
AcDbEntity
  8
Equip
 62
   250
370
    18
100
AcDb2dPolyline
 66
     1
 10
0.0
 20
0.0
 30
0.0
  0
VERTEX
  5
111
330
110
100
AcDbEntity
  8
Equip
 62
   250
370
    18
100
AcDbVertex
100
AcDb2dVertex
 10
126.2947889224194
 20
-76.68506942527318
 30
0.0
  0
VERTEX
  5
112
330
110
100
AcDbEntity
  8
Equip
 62
   250
370
    18
100
AcDbVertex
100
AcDb2dVertex
 10
139.7003444746235
 20
-76.68506942527318
 30
0.0
  0
VERTEX
  5
113
330
110
100
AcDbEntity
  8
Equip
 62
   250
370
    18
100
AcDbVertex
100
AcDb2dVertex
 10
139.7003444746235
 20
-72.36354164857579
 30
0.0
  0
VERTEX
  5
114
330
110
100
AcDbEntity
  8
Equip
 62
   250
370
    18
100
AcDbVertex
100
AcDb2dVertex
 10
145.6534694731353
 20
-72.36354164857579
 30
0.0
  0
VERTEX
  5
115
330
110
100
AcDbEntity
  8
Equip
 62
   250
370
    18
100
AcDbVertex
100
AcDb2dVertex
 10
145.6534694731353
 20
-76.68506942527318
 30
0.0
  0
VERTEX
  5
116
330
110
100
AcDbEntity
  8
Equip
 62
   250
370
    18
100
AcDbVertex
100
AcDb2dVertex
 10
149.4017333610871
 20
-76.68506942527318
 30
0.0
  0
VERTEX
  5
117
330
110
100
AcDbEntity
  8
Equip
 62
   250
370
    18
100
AcDbVertex
100
AcDb2dVertex
 10
149.4017333610871
 20
-75.36215275893724
 30
0.0
  0
VERTEX
  5
118
330
110
100
AcDbEntity
  8
Equip
 62
   250
370
    18
100
AcDbVertex
100
AcDb2dVertex
 10
158.0006916922707
 20
-75.36215275893724
 30
0.0
  0
VERTEX
  5
119
330
110
100
AcDbEntity
  8
Equip
 62
   250
370
    18
100
AcDbVertex
100
AcDb2dVertex
 10
158.0006916922707
 20
-76.68506942527318
 30
0.0
  0
VERTEX
  5
11A
330
110
100
AcDbEntity
  8
Equip
 62
   250
370
    18
100
AcDbVertex
100
AcDb2dVertex
 10
162.2340250245457
 20
-76.68506942527318
 30
0.0
  0
VERTEX
  5
11B
330
110
100
AcDbEntity
  8
Equip
 62
   250
370
    18
100
AcDbVertex
100
AcDb2dVertex
 10
162.2340250245457
 20
-72.36354164857579
 30
0.0
  0
VERTEX
  5
11C
330
110
100
AcDbEntity
  8
Equip
 62
   250
370
    18
100
AcDbVertex
100
AcDb2dVertex
 10
167.437497245467
 20
-72.36354164857579
 30
0.0
  0
VERTEX
  5
11D
330
110
100
AcDbEntity
  8
Equip
 62
   250
370
    18
100
AcDbVertex
100
AcDb2dVertex
 10
167.437497245467
 20
-76.68506942527318
 30
0.0
  0
VERTEX
  5
11E
330
110
100
AcDbEntity
  8
Equip
 62
   250
370
    18
100
AcDbVertex
100
AcDb2dVertex
 10
181.1958305753608
 20
-76.68506942527318
 30
0.0
  0
SEQEND
  5
11F
330
110
100
AcDbEntity
  8
Equip
370
    18
  0
POLYLINE
  5
120
330
1F
100
AcDbEntity
  8
Equip
 62
   250
370
    18
100
AcDb2dPolyline
 66
     1
 10
0.0
 20
0.0
 30
0.0
  0
VERTEX
  5
121
330
120
100
AcDbEntity
  8
Equip
 62
   250
370
    18
100
AcDbVertex
100
AcDb2dVertex
 10
149.4017333610871
 20
-76.68506942527318
 30
0.0
  0
VERTEX
  5
122
330
120
100
AcDbEntity
  8
Equip
 62
   250
370
    18
100
AcDbVertex
100
AcDb2dVertex
 10
149.4017333610871
 20
-80.97714163557168
 30
0.0
  0
VERTEX
  5
123
330
120
100
AcDbEntity
  8
Equip
 62
   250
370
    18
100
AcDbVertex
100
AcDb2dVertex
 10
150.710180626385
 20
-80.97714163557168
 30
0.0
  0
VERTEX
  5
124
330
120
100
AcDbEntity
  8
Equip
 62
   250
370
    18
100
AcDbVertex
100
AcDb2dVertex
 10
150.710180626385
 20
-76.72916664748438
 30
0.0
  0
VERTEX
  5
125
330
120
100
AcDbEntity
  8
Equip
 62
   250
370
    18
100
AcDbVertex
100
AcDb2dVertex
 10
156.7074028471079
 20
-76.72916664748438
 30
0.0
  0
VERTEX
  5
126
330
120
100
AcDbEntity
  8
Equip
 62
   250
370
    18
100
AcDbVertex
100
AcDb2dVertex
 10
156.7074028471079
 20
-81.00659720197058
 30
0.0
  0
VERTEX
  5
127
330
120
100
AcDbEntity
  8
Equip
 62
   250
370
    18
100
AcDbVertex
100
AcDb2dVertex
 10
158.0110269787264
 20
-81.00659720197058
 30
0.0
  0
VERTEX
  5
128
330
120
100
AcDbEntity
  8
Equip
 62
   250
370
    18
100
AcDbVertex
100
AcDb2dVertex
 10
158.0110269787264
 20
-76.68506942527318
 30
0.0
  0
SEQEND
  5
129
330
120
100
AcDbEntity
  8
Equip
370
    18
  0
POLYLINE
  5
12A
330
1F
100
AcDbEntity
  8
Equip
 62
   250
370
    18
100
AcDb2dPolyline
 66
     1
 10
0.0
 20
0.0
 30
0.0
  0
VERTEX
  5
12B
330
12A
100
AcDbEntity
  8
Equip
 62
   250
370
    18
100
AcDbVertex
100
AcDb2dVertex
 10
155.6342556034525
 20
-80.66846108009331
 30
0.0
  0
VERTEX
  5
12C
330
12A
100
AcDbEntity
  8
Equip
 62
   250
370
    18
100
AcDbVertex
100
AcDb2dVertex
 10
151.8567084038761
 20
-80.66846108009331
 30
0.0
  0
VERTEX
  5
12D
330
12A
100
AcDbEntity
  8
Equip
 62
   250
370
    18
100
AcDbVertex
100
AcDb2dVertex
 10
151.8567084038761
 20
-77.91979164718673
 30
0.0
  0
VERTEX
  5
12E
330
12A
100
AcDbEntity
  8
Equip
 62
   250
370
    18
100
AcDbVertex
100
AcDb2dVertex
 10
155.6342556034525
 20
-77.91979164718673
 30
0.0
  0
VERTEX
  5
12F
330
12A
100
AcDbEntity
  8
Equip
 62
   250
370
    18
100
AcDbVertex
100
AcDb2dVertex
 10
155.6342556034525
 20
-80.66846108009331
 30
0.0
  0
SEQEND
  5
130
330
12A
100
AcDbEntity
  8
Equip
370
    18
  0
POLYLINE
  5
131
330
1F
100
AcDbEntity
  8
Equip
 62
   250
370
    18
100
AcDb2dPolyline
 66
     1
 10
0.0
 20
0.0
 30
0.0
  0
VERTEX
  5
132
330
131
100
AcDbEntity
  8
Equip
 62
   250
370
    18
100
AcDbVertex
100
AcDb2dVertex
 10
181.1958305753608
 20
-97.38130829813731
 30
0.0
  0
VERTEX
  5
133
330
131
100
AcDbEntity
  8
Equip
 62
   250
370
    18
100
AcDbVertex
100
AcDb2dVertex
 10
167.7902750231566
 20
-97.38130829813731
 30
0.0
  0
VERTEX
  5
134
330
131
100
AcDbEntity
  8
Equip
 62
   250
370
    18
100
AcDbVertex
100
AcDb2dVertex
 10
167.7902750231566
 20
-101.7028360748347
 30
0.0
  0
VERTEX
  5
135
330
131
100
AcDbEntity
  8
Equip
 62
   250
370
    18
100
AcDbVertex
100
AcDb2dVertex
 10
161.8371500246449
 20
-101.7028360748347
 30
0.0
  0
VERTEX
  5
136
330
131
100
AcDbEntity
  8
Equip
 62
   250
370
    18
100
AcDbVertex
100
AcDb2dVertex
 10
161.8371500246449
 20
-97.38130829813731
 30
0.0
  0
VERTEX
  5
137
330
131
100
AcDbEntity
  8
Equip
 62
   250
370
    18
100
AcDbVertex
100
AcDb2dVertex
 10
158.0888861366931
 20
-97.38130829813731
 30
0.0
  0
VERTEX
  5
138
330
131
100
AcDbEntity
  8
Equip
 62
   250
370
    18
100
AcDbVertex
100
AcDb2dVertex
 10
158.0888861366931
 20
-98.70422496447325
 30
0.0
  0
VERTEX
  5
139
330
131
100
AcDbEntity
  8
Equip
 62
   250
370
    18
100
AcDbVertex
100
AcDb2dVertex
 10
149.4899278055095
 20
-98.70422496447325
 30
0.0
  0
VERTEX
  5
13A
330
131
100
AcDbEntity
  8
Equip
 62
   250
370
    18
100
AcDbVertex
100
AcDb2dVertex
 10
149.4899278055095
 20
-97.38130829813731
 30
0.0
  0
VERTEX
  5
13B
330
131
100
AcDbEntity
  8
Equip
 62
   250
370
    18
100
AcDbVertex
100
AcDb2dVertex
 10
145.2565944732345
 20
-97.38130829813731
 30
0.0
  0
VERTEX
  5
13C
330
131
100
AcDbEntity
  8
Equip
 62
   250
370
    18
100
AcDbVertex
100
AcDb2dVertex
 10
145.2565944732345
 20
-101.7028360748347
 30
0.0
  0
VERTEX
  5
13D
330
131
100
AcDbEntity
  8
Equip
 62
   250
370
    18
100
AcDbVertex
100
AcDb2dVertex
 10
140.0531222523131
 20
-101.7028360748347
 30
0.0
  0
VERTEX
  5
13E
330
131
100
AcDbEntity
  8
Equip
 62
   250
370
    18
100
AcDbVertex
100
AcDb2dVertex
 10
140.0531222523131
 20
-97.38130829813731
 30
0.0
  0
VERTEX
  5
13F
330
131
100
AcDbEntity
  8
Equip
 62
   250
370
    18
100
AcDbVertex
100
AcDb2dVertex
 10
126.2947889224194
 20
-97.38130829813731
 30
0.0
  0
SEQEND
  5
140
330
131
100
AcDbEntity
  8
Equip
370
    18
  0
POLYLINE
  5
141
330
1F
100
AcDbEntity
  8
Equip
 62
   250
370
    18
100
AcDb2dPolyline
 66
     1
 10
0.0
 20
0.0
 30
0.0
  0
VERTEX
  5
142
330
141
100
AcDbEntity
  8
Equip
 62
   250
370
    18
100
AcDbVertex
100
AcDb2dVertex
 10
158.0888861366931
 20
-97.38130829813731
 30
0.0
  0
VERTEX
  5
143
330
141
100
AcDbEntity
  8
Equip
 62
   250
370
    18
100
AcDbVertex
100
AcDb2dVertex
 10
158.0888861366931
 20
-93.08923608783881
 30
0.0
  0
VERTEX
  5
144
330
141
100
AcDbEntity
  8
Equip
 62
   250
370
    18
100
AcDbVertex
100
AcDb2dVertex
 10
156.7804388713952
 20
-93.08923608783881
 30
0.0
  0
VERTEX
  5
145
330
141
100
AcDbEntity
  8
Equip
 62
   250
370
    18
100
AcDbVertex
100
AcDb2dVertex
 10
156.7804388713952
 20
-97.33721107592612
 30
0.0
  0
VERTEX
  5
146
330
141
100
AcDbEntity
  8
Equip
 62
   250
370
    18
100
AcDbVertex
100
AcDb2dVertex
 10
150.7832166506722
 20
-97.33721107592612
 30
0.0
  0
VERTEX
  5
147
330
141
100
AcDbEntity
  8
Equip
 62
   250
370
    18
100
AcDbVertex
100
AcDb2dVertex
 10
150.7832166506722
 20
-93.05978052143992
 30
0.0
  0
VERTEX
  5
148
330
141
100
AcDbEntity
  8
Equip
 62
   250
370
    18
100
AcDbVertex
100
AcDb2dVertex
 10
149.4795925190537
 20
-93.05978052143992
 30
0.0
  0
VERTEX
  5
149
330
141
100
AcDbEntity
  8
Equip
 62
   250
370
    18
100
AcDbVertex
100
AcDb2dVertex
 10
149.4795925190537
 20
-97.38130829813731
 30
0.0
  0
SEQEND
  5
14A
330
141
100
AcDbEntity
  8
Equip
370
    18
  0
POLYLINE
  5
14B
330
1F
100
AcDbEntity
  8
Equip
 62
   250
370
    18
100
AcDb2dPolyline
 66
     1
 10
0.0
 20
0.0
 30
0.0
  0
VERTEX
  5
14C
330
14B
100
AcDbEntity
  8
Equip
 62
   250
370
    18
100
AcDbVertex
100
AcDb2dVertex
 10
151.8563638943276
 20
-93.39791664331719
 30
0.0
  0
VERTEX
  5
14D
330
14B
100
AcDbEntity
  8
Equip
 62
   250
370
    18
100
AcDbVertex
100
AcDb2dVertex
 10
155.633911093904
 20
-93.39791664331719
 30
0.0
  0
VERTEX
  5
14E
330
14B
100
AcDbEntity
  8
Equip
 62
   250
370
    18
100
AcDbVertex
100
AcDb2dVertex
 10
155.633911093904
 20
-96.14658607622377
 30
0.0
  0
VERTEX
  5
14F
330
14B
100
AcDbEntity
  8
Equip
 62
   250
370
    18
100
AcDbVertex
100
AcDb2dVertex
 10
151.8563638943276
 20
-96.14658607622377
 30
0.0
  0
VERTEX
  5
150
330
14B
100
AcDbEntity
  8
Equip
 62
   250
370
    18
100
AcDbVertex
100
AcDb2dVertex
 10
151.8563638943276
 20
-93.39791664331719
 30
0.0
  0
SEQEND
  5
151
330
14B
100
AcDbEntity
  8
Equip
370
    18
  0
SPLINE
  5
152
330
1F
100
AcDbEntity
  8
Equip
 62
   250
370
    18
100
AcDbSpline
210
0.0
220
0.0
230
1.0
 70
     8
 71
     3
 72
    17
 73
    13
 74
     0
 42
0.0000000001
 43
0.0000000001
 40
0.0
 40
0.0
 40
0.0
 40
0.0
 40
1.0
 40
1.0
 40
1.0
 40
2.0
 40
2.0
 40
2.0
 40
3.0
 40
3.0
 40
3.0
 40
4.0
 40
4.0
 40
4.0
 40
4.0
 10
167.278678343597
 20
-112.6601345204461
 30
0.0
 10
167.278678343597
 20
-112.6601345204461
 30
0.0
 10
161.0296196429023
 20
-112.6601345204461
 30
0.0
 10
161.0296196429023
 20
-112.6601345204461
 30
0.0
 10
161.0296196429023
 20
-112.6601345204461
 30
0.0
 10
159.7218613967015
 20
-117.5382174727856
 30
0.0
 10
153.8555528044181
 20
-117.5382174727856
 30
0.0
 10
148.5308132224159
 20
-117.5382174727856
 30
0.0
 10
146.6180962090052
 20
-112.6920016536846
 30
0.0
 10
146.6180962090052
 20
-112.6920016536846
 30
0.0
 10
146.6180962090052
 20
-112.6920016536846
 30
0.0
 10
139.8271239884807
 20
-112.6920016536846
 30
0.0
 10
139.8271239884807
 20
-112.6920016536846
 30
0.0
  0
INSERT
  5
154
330
1F
100
AcDbEntity
  8
Equip
100
AcDbBlockReference
  2
block 2
 10
0.0
 20
0.0
 30
0.0
  0
INSERT
  5
165
330
1F
100
AcDbEntity
  8
Equip
100
AcDbBlockReference
  2
block 3
 10
0.0
 20
0.0
 30
0.0
  0
POLYLINE
  5
175
330
1F
100
AcDbEntity
  8
Equip
 62
   250
370
    18
100
AcDb2dPolyline
 66
     1
 10
0.0
 20
0.0
 30
0.0
  0
VERTEX
  5
176
330
175
100
AcDbEntity
  8
Equip
 62
   250
370
    18
100
AcDbVertex
100
AcDb2dVertex
 10
140.0135036542327
 20
-97.36546085890517
 30
0.0
  0
VERTEX
  5
177
330
175
100
AcDbEntity
  8
Equip
 62
   250
370
    18
100
AcDbVertex
100
AcDb2dVertex
 10
145.3499565608847
 20
-97.36546085890517
 30
0.0
  0
SEQEND
  5
178
330
175
100
AcDbEntity
  8
Equip
370
    18
  0
POLYLINE
  5
179
330
1F
100
AcDbEntity
  8
Equip
 62
   250
370
    18
100
AcDb2dPolyline
 66
     1
 10
0.0
 20
0.0
 30
0.0
  0
VERTEX
  5
17A
330
179
100
AcDbEntity
  8
Equip
 62
   250
370
    18
100
AcDbVertex
100
AcDb2dVertex
 10
161.8409396296787
 20
-97.36546085890517
 30
0.0
  0
VERTEX
  5
17B
330
179
100
AcDbEntity
  8
Equip
 62
   250
370
    18
100
AcDbVertex
100
AcDb2dVertex
 10
167.8126681438107
 20
-97.36546085890517
 30
0.0
  0
SEQEND
  5
17C
330
179
100
AcDbEntity
  8
Equip
370
    18
  0
POLYLINE
  5
17E
330
1F
100
AcDbEntity
  8
Cotes
 62
   250
370
     9
100
AcDb2dPolyline
 66
     1
 10
0.0
 20
0.0
 30
0.0
  0
VERTEX
  5
17F
330
17E
100
AcDbEntity
  8
Cotes
 62
   250
370
     9
100
AcDbVertex
100
AcDb2dVertex
 10
25.44116888469874
 20
-42.18536647165852
 30
0.0
  0
VERTEX
  5
180
330
17E
100
AcDbEntity
  8
Cotes
 62
   250
370
     9
100
AcDbVertex
100
AcDb2dVertex
 10
18.46726209390749
 20
-42.18536647165852
 30
0.0
  0
SEQEND
  5
181
330
17E
100
AcDbEntity
  8
Cotes
370
     9
  0
POLYLINE
  5
182
330
1F
100
AcDbEntity
  8
Cotes
 62
   250
370
     9
100
AcDb2dPolyline
 66
     1
 10
0.0
 20
0.0
 30
0.0
  0
VERTEX
  5
183
330
182
100
AcDbEntity
  8
Cotes
 62
   250
370
     9
100
AcDbVertex
100
AcDb2dVertex
 10
25.44116888469874
 20
-130.8500664277909
 30
0.0
  0
VERTEX
  5
184
330
182
100
AcDbEntity
  8
Cotes
 62
   250
370
     9
100
AcDbVertex
100
AcDb2dVertex
 10
18.46726209390749
 20
-130.8500664277909
 30
0.0
  0
SEQEND
  5
185
330
182
100
AcDbEntity
  8
Cotes
370
     9
  0
POLYLINE
  5
186
330
1F
100
AcDbEntity
  8
Cotes
 62
   250
370
     9
100
AcDb2dPolyline
 66
     1
 10
0.0
 20
0.0
 30
0.0
  0
VERTEX
  5
187
330
186
100
AcDbEntity
  8
Cotes
 62
   250
370
     9
100
AcDbVertex
100
AcDb2dVertex
 10
20.46093885122157
 20
-42.0982055558817
 30
0.0
  0
VERTEX
  5
188
330
186
100
AcDbEntity
  8
Cotes
 62
   250
370
     9
100
AcDbVertex
100
AcDb2dVertex
 10
20.46093885122157
 20
-130.8805555228354
 30
0.0
  0
SEQEND
  5
189
330
186
100
AcDbEntity
  8
Cotes
370
     9
  0
POLYLINE
  5
18A
330
1F
100
AcDbEntity
  8
Cotes
 62
   250
370
     9
100
AcDb2dPolyline
 66
     1
 10
0.0
 20
0.0
 30
0.0
  0
VERTEX
  5
18B
330
18A
100
AcDbEntity
  8
Cotes
 62
   250
370
     9
100
AcDbVertex
100
AcDb2dVertex
 10
25.28217772805446
 20
-130.7629055120141
 30
0.0
  0
VERTEX
  5
18C
330
18A
100
AcDbEntity
  8
Cotes
 62
   250
370
     9
100
AcDbVertex
100
AcDb2dVertex
 10
25.28217772805446
 20
-138.9942721549216
 30
0.0
  0
SEQEND
  5
18D
330
18A
100
AcDbEntity
  8
Cotes
370
     9
  0
POLYLINE
  5
18E
330
1F
100
AcDbEntity
  8
Cotes
 62
   250
370
     9
100
AcDb2dPolyline
 66
     1
 10
0.0
 20
0.0
 30
0.0
  0
VERTEX
  5
18F
330
18E
100
AcDbEntity
  8
Cotes
 62
   250
370
     9
100
AcDbVertex
100
AcDb2dVertex
 10
112.417944307833
 20
-95.60260549910282
 30
0.0
  0
VERTEX
  5
190
330
18E
100
AcDbEntity
  8
Cotes
 62
   250
370
     9
100
AcDbVertex
100
AcDb2dVertex
 10
112.417944307833
 20
-138.9942721549216
 30
0.0
  0
SEQEND
  5
191
330
18E
100
AcDbEntity
  8
Cotes
370
     9
  0
POLYLINE
  5
192
330
1F
100
AcDbEntity
  8
Cotes
 62
   250
370
     9
100
AcDb2dPolyline
 66
     1
 10
0.0
 20
0.0
 30
0.0
  0
VERTEX
  5
193
330
192
100
AcDbEntity
  8
Cotes
 62
   250
370
     9
100
AcDbVertex
100
AcDb2dVertex
 10
112.444816052618
 20
-137.5624904712517
 30
0.0
  0
VERTEX
  5
194
330
192
100
AcDbEntity
  8
Cotes
 62
   250
370
     9
100
AcDbVertex
100
AcDb2dVertex
 10
25.34022758698092
 20
-137.5624904712517
 30
0.0
  0
SEQEND
  5
195
330
192
100
AcDbEntity
  8
Cotes
370
     9
  0
POLYLINE
  5
196
330
1F
100
AcDbEntity
  8
Cotes
 62
   250
370
     9
100
AcDb2dPolyline
 66
     1
 10
0.0
 20
0.0
 30
0.0
  0
VERTEX
  5
197
330
196
100
AcDbEntity
  8
Cotes
 62
   250
370
     9
100
AcDbVertex
100
AcDb2dVertex
 10
175.2065320742539
 20
-137.5624904712517
 30
0.0
  0
VERTEX
  5
198
330
196
100
AcDbEntity
  8
Cotes
 62
   250
370
     9
100
AcDbVertex
100
AcDb2dVertex
 10
132.5531493809242
 20
-137.5624904712517
 30
0.0
  0
SEQEND
  5
199
330
196
100
AcDbEntity
  8
Cotes
370
     9
  0
POLYLINE
  5
19A
330
1F
100
AcDbEntity
  8
Cotes
 62
   250
370
     9
100
AcDb2dPolyline
 66
     1
 10
0.0
 20
0.0
 30
0.0
  0
VERTEX
  5
19B
330
19A
100
AcDbEntity
  8
Cotes
 62
   250
370
     9
100
AcDbVertex
100
AcDb2dVertex
 10
181.2695556187451
 20
-144.3829182581751
 30
0.0
  0
VERTEX
  5
19C
330
19A
100
AcDbEntity
  8
Cotes
 62
   250
370
     9
100
AcDbVertex
100
AcDb2dVertex
 10
126.3540445647657
 20
-144.3829182581751
 30
0.0
  0
SEQEND
  5
19D
330
19A
100
AcDbEntity
  8
Cotes
370
     9
  0
POLYLINE
  5
19E
330
1F
100
AcDbEntity
  8
Cotes
 62
   250
370
     9
100
AcDb2dPolyline
 66
     1
 10
0.0
 20
0.0
 30
0.0
  0
VERTEX
  5
19F
330
19E
100
AcDbEntity
  8
Cotes
 62
   250
370
     9
100
AcDbVertex
100
AcDb2dVertex
 10
135.3174939982887
 20
-50.37987059287379
 30
0.0
  0
VERTEX
  5
1A0
330
19E
100
AcDbEntity
  8
Cotes
 62
   250
370
     9
100
AcDbVertex
100
AcDb2dVertex
 10
135.3174939982887
 20
-36.9073079334815
 30
0.0
  0
SEQEND
  5
1A1
330
19E
100
AcDbEntity
  8
Cotes
370
     9
  0
POLYLINE
  5
1A2
330
1F
100
AcDbEntity
  8
Cotes
 62
   250
370
     9
100
AcDb2dPolyline
 66
     1
 10
0.0
 20
0.0
 30
0.0
  0
VERTEX
  5
1A3
330
1A2
100
AcDbEntity
  8
Cotes
 62
   250
370
     9
100
AcDbVertex
100
AcDb2dVertex
 10
129.7133571724328
 20
-50.37987059287379
 30
0.0
  0
VERTEX
  5
1A4
330
1A2
100
AcDbEntity
  8
Cotes
 62
   250
370
     9
100
AcDbVertex
100
AcDb2dVertex
 10
129.7133571724328
 20
-36.9073079334815
 30
0.0
  0
SEQEND
  5
1A5
330
1A2
100
AcDbEntity
  8
Cotes
370
     9
  0
POLYLINE
  5
1A6
330
1F
100
AcDbEntity
  8
Cotes
 62
   250
370
     9
100
AcDb2dPolyline
 66
     1
 10
0.0
 20
0.0
 30
0.0
  0
VERTEX
  5
1A7
330
1A6
100
AcDbEntity
  8
Cotes
 62
   250
370
     9
100
AcDbVertex
100
AcDb2dVertex
 10
129.7133571724328
 20
-38.4357245455126
 30
0.0
  0
VERTEX
  5
1A8
330
1A6
100
AcDbEntity
  8
Cotes
 62
   250
370
     9
100
AcDbVertex
100
AcDb2dVertex
 10
135.3174939982887
 20
-38.4357245455126
 30
0.0
  0
SEQEND
  5
1A9
330
1A6
100
AcDbEntity
  8
Cotes
370
     9
  0
POLYLINE
  5
1AA
330
1F
100
AcDbEntity
  8
Cotes
 62
   250
370
     9
100
AcDb2dPolyline
 66
     1
 10
0.0
 20
0.0
 30
0.0
  0
VERTEX
  5
1AB
330
1AA
100
AcDbEntity
  8
Cotes
 62
   250
370
     9
100
AcDbVertex
100
AcDb2dVertex
 10
134.7614555869694
 20
-47.22399087361067
 30
0.0
  0
VERTEX
  5
1AC
330
1AA
100
AcDbEntity
  8
Cotes
 62
   250
370
     9
100
AcDbVertex
100
AcDb2dVertex
 10
195.3217555935307
 20
-47.22399087361067
 30
0.0
  0
SEQEND
  5
1AD
330
1AA
100
AcDbEntity
  8
Cotes
370
     9
  0
POLYLINE
  5
1AE
330
1F
100
AcDbEntity
  8
Cotes
 62
   250
370
     9
100
AcDb2dPolyline
 66
     1
 10
0.0
 20
0.0
 30
0.0
  0
VERTEX
  5
1AF
330
1AE
100
AcDbEntity
  8
Cotes
 62
   250
370
     9
100
AcDbVertex
100
AcDb2dVertex
 10
134.6439778309224
 20
-50.88319904326879
 30
0.0
  0
VERTEX
  5
1B0
330
1AE
100
AcDbEntity
  8
Cotes
 62
   250
370
     9
100
AcDbVertex
100
AcDb2dVertex
 10
189.7641275567256
 20
-50.88319904326879
 30
0.0
  0
SEQEND
  5
1B1
330
1AE
100
AcDbEntity
  8
Cotes
370
     9
  0
POLYLINE
  5
1B2
330
1F
100
AcDbEntity
  8
Cotes
 62
   250
370
     9
100
AcDb2dPolyline
 66
     1
 10
0.0
 20
0.0
 30
0.0
  0
VERTEX
  5
1B3
330
1B2
100
AcDbEntity
  8
Cotes
 62
   250
370
     9
100
AcDbVertex
100
AcDb2dVertex
 10
176.6607068785779
 20
-126.6877020625121
 30
0.0
  0
VERTEX
  5
1B4
330
1B2
100
AcDbEntity
  8
Cotes
 62
   250
370
     9
100
AcDbVertex
100
AcDb2dVertex
 10
195.3217555935307
 20
-126.6877020625121
 30
0.0
  0
SEQEND
  5
1B5
330
1B2
100
AcDbEntity
  8
Cotes
370
     9
  0
POLYLINE
  5
1B6
330
1F
100
AcDbEntity
  8
Cotes
 62
   250
370
     9
100
AcDb2dPolyline
 66
     1
 10
0.0
 20
0.0
 30
0.0
  0
VERTEX
  5
1B7
330
1B6
100
AcDbEntity
  8
Cotes
 62
   250
370
     9
100
AcDbVertex
100
AcDb2dVertex
 10
176.6245333759828
 20
-123.0019666576176
 30
0.0
  0
VERTEX
  5
1B8
330
1B6
100
AcDbEntity
  8
Cotes
 62
   250
370
     9
100
AcDbVertex
100
AcDb2dVertex
 10
189.7641275567256
 20
-123.0019666576176
 30
0.0
  0
SEQEND
  5
1B9
330
1B6
100
AcDbEntity
  8
Cotes
370
     9
  0
POLYLINE
  5
1BA
330
1F
100
AcDbEntity
  8
Cotes
 62
   250
370
     9
100
AcDb2dPolyline
 66
     1
 10
0.0
 20
0.0
 30
0.0
  0
VERTEX
  5
1BB
330
1BA
100
AcDbEntity
  8
Cotes
 62
   250
370
     9
100
AcDbVertex
100
AcDb2dVertex
 10
193.7928222171768
 20
-47.22502440225625
 30
0.0
  0
VERTEX
  5
1BC
330
1BA
100
AcDbEntity
  8
Cotes
 62
   250
370
     9
100
AcDbVertex
100
AcDb2dVertex
 10
193.7928222171768
 20
-126.6858072599952
 30
0.0
  0
SEQEND
  5
1BD
330
1BA
100
AcDbEntity
  8
Cotes
370
     9
  0
POLYLINE
  5
1BE
330
1F
100
AcDbEntity
  8
Cotes
 62
   250
370
     9
100
AcDb2dPolyline
 66
     1
 10
0.0
 20
0.0
 30
0.0
  0
VERTEX
  5
1BF
330
1BE
100
AcDbEntity
  8
Cotes
 62
   250
370
     9
100
AcDbVertex
100
AcDb2dVertex
 10
187.7955999964539
 20
-50.88302678849453
 30
0.0
  0
VERTEX
  5
1C0
330
1BE
100
AcDbEntity
  8
Cotes
 62
   250
370
     9
100
AcDbVertex
100
AcDb2dVertex
 10
187.7955999964539
 20
-123.0017944028433
 30
0.0
  0
SEQEND
  5
1C1
330
1BE
100
AcDbEntity
  8
Cotes
370
     9
  0
POLYLINE
  5
1C2
330
1F
100
AcDbEntity
  8
Cotes
 62
   250
370
     9
100
AcDb2dPolyline
 66
     1
 10
0.0
 20
0.0
 30
0.0
  0
VERTEX
  5
1C3
330
1C2
100
AcDbEntity
  8
Cotes
 62
   250
370
     9
100
AcDbVertex
100
AcDb2dVertex
 10
175.2172118702582
 20
-138.700577764804
 30
0.0
  0
VERTEX
  5
1C4
330
1C2
100
AcDbEntity
  8
Cotes
 62
   250
370
     9
100
AcDbVertex
100
AcDb2dVertex
 10
175.2172118702582
 20
-123.9991495458231
 30
0.0
  0
SEQEND
  5
1C5
330
1C2
100
AcDbEntity
  8
Cotes
370
     9
  0
POLYLINE
  5
1C6
330
1F
100
AcDbEntity
  8
Cotes
 62
   250
370
     9
100
AcDb2dPolyline
 66
     1
 10
0.0
 20
0.0
 30
0.0
  0
VERTEX
  5
1C7
330
1C6
100
AcDbEntity
  8
Cotes
 62
   250
370
     9
100
AcDbVertex
100
AcDb2dVertex
 10
126.3140814571368
 20
-145.3053425743508
 30
0.0
  0
VERTEX
  5
1C8
330
1C6
100
AcDbEntity
  8
Cotes
 62
   250
370
     9
100
AcDbVertex
100
AcDb2dVertex
 10
126.3140814571368
 20
-127.4116888787374
 30
0.0
  0
SEQEND
  5
1C9
330
1C6
100
AcDbEntity
  8
Cotes
370
     9
  0
POLYLINE
  5
1CA
330
1F
100
AcDbEntity
  8
Cotes
 62
   250
370
     9
100
AcDb2dPolyline
 66
     1
 10
0.0
 20
0.0
 30
0.0
  0
VERTEX
  5
1CB
330
1CA
100
AcDbEntity
  8
Cotes
 62
   250
370
     9
100
AcDbVertex
100
AcDb2dVertex
 10
181.2247693774369
 20
-145.3053425743508
 30
0.0
  0
VERTEX
  5
1CC
330
1CA
100
AcDbEntity
  8
Cotes
 62
   250
370
     9
100
AcDbVertex
100
AcDb2dVertex
 10
181.2247693774369
 20
-128.8815388675192
 30
0.0
  0
SEQEND
  5
1CD
330
1CA
100
AcDbEntity
  8
Cotes
370
     9
  0
POLYLINE
  5
1CE
330
1F
100
AcDbEntity
  8
Cotes
 62
   250
370
     9
100
AcDb2dPolyline
 66
     1
 10
0.0
 20
0.0
 30
0.0
  0
VERTEX
  5
1CF
330
1CE
100
AcDbEntity
  8
Cotes
 62
   250
370
     9
100
AcDbVertex
100
AcDb2dVertex
 10
132.4773572802487
 20
-138.700577764804
 30
0.0
  0
VERTEX
  5
1D0
330
1CE
100
AcDbEntity
  8
Cotes
 62
   250
370
     9
100
AcDbVertex
100
AcDb2dVertex
 10
132.4773572802487
 20
-49.91219888075112
 30
0.0
  0
SEQEND
  5
1D1
330
1CE
100
AcDbEntity
  8
Cotes
370
     9
  0
MTEXT
  5
1D2
330
1F
100
AcDbEntity
  8
Cotes
 62
   250
100
AcDbMText
 10
151.1074001358343
 20
-136.9285929019658
 30
0.0
 40
3.358444443604833
 41
0.0
 71
     7
 72
     1
  1
\fHelvetica|b0|i0|c0|p34;\W1;35
 73
     1
 44
1.0
  0
MTEXT
  5
1D3
330
1F
100
AcDbEntity
  8
Cotes
 62
   250
100
AcDbMText
 10
186.7131509949884
 20
-88.29504121056513
 30
0.0
 40
3.358444443604833
 41
0.0
 71
     7
 72
     1
  1
\fHelvetica|b0|i0|c0|p34;\W1;60
 11
-4.371139000186241E-8
 21
0.999999999999999
 31
0.0
 73
     1
 44
1.0
  0
MTEXT
  5
1D4
330
1F
100
AcDbEntity
  8
Cotes
 62
   250
100
AcDbMText
 10
193.2395398822457
 20
-88.29504121056513
 30
0.0
 40
3.358444443604833
 41
0.0
 71
     7
 72
     1
  1
\fHelvetica|b0|i0|c0|p34;\W1;65
 11
-4.371139000186241E-8
 21
0.999999999999999
 31
0.0
 73
     1
 44
1.0
  0
MTEXT
  5
1D5
330
1F
100
AcDbEntity
  8
Cotes
 62
   250
100
AcDbMText
 10
149.0052028707348
 20
-143.5877902201794
 30
0.0
 40
3.358444443604833
 41
0.0
 71
     7
 72
     1
  1
\fHelvetica|b0|i0|c0|p34;\W1;44.8
 73
     1
 44
1.0
  0
MTEXT
  5
1D6
330
1F
100
AcDbEntity
  8
Cotes
 62
   250
100
AcDbMText
 10
70.45306394723049
 20
-136.7673624332561
 30
0.0
 40
3.358444443604833
 41
0.0
 71
     7
 72
     1
  1
\fHelvetica|b0|i0|c0|p34;\W1;71
 73
     1
 44
1.0
  0
MTEXT
  5
1D7
330
1F
100
AcDbEntity
  8
Cotes
 62
   250
100
AcDbMText
 10
17.63113741963735
 20
-91.29571937821774
 30
0.0
 40
3.358444443604833
 41
0.0
 71
     7
 72
     1
  1
\fHelvetica|b0|i0|c0|p34;\W1;72,2
 11
-4.371139000186241E-8
 21
0.999999999999999
 31
0.0
 73
     1
 44
1.0
  0
MTEXT
  5
1D8
330
1F
100
AcDbEntity
  8
Cotes
 62
   250
100
AcDbMText
 10
137.3490668059405
 20
-40.00289848175275
 30
0.0
 40
3.358444443604833
 41
0.0
 71
     7
 72
     1
  1
\fHelvetica|b0|i0|c0|p34;\W1;Ø4,5
 73
     1
 44
1.0
  0
ENDSEC
  0
SECTION
  2
OBJECTS
  0
DICTIONARY
  5
C
330
0
100
AcDbDictionary
281
     1
  3
ACAD_GROUP
350
D
  3
ACAD_LAYOUT
350
1A
  3
ACAD_MLINESTYLE
350
17
  3
ACAD_PLOTSETTINGS
350
19
  3
ACAD_PLOTSTYLENAME
350
E
  3
ACAD_TABLESTYLE
350
1D9
  3
ACAD_VISUALSTYLE
350
2A
  0
DICTIONARY
  5
D
102
{ACAD_REACTORS
330
C
102
}
330
C
100
AcDbDictionary
281
     1
  0
DICTIONARY
  5
1A
102
{ACAD_REACTORS
330
C
102
}
330
C
100
AcDbDictionary
281
     1
  3
Layout1
350
1E
  3
Layout2
350
26
  3
Model
350
22
  0
DICTIONARY
  5
17
102
{ACAD_REACTORS
330
C
102
}
330
C
100
AcDbDictionary
281
     1
  3
Standard
350
18
  0
DICTIONARY
  5
19
102
{ACAD_REACTORS
330
C
102
}
330
C
100
AcDbDictionary
281
     1
  0
ACDBDICTIONARYWDFLT
  5
E
102
{ACAD_REACTORS
330
C
102
}
330
C
100
AcDbDictionary
281
     1
  3
Normal
350
F
100
AcDbDictionaryWithDefault
340
F
  0
DICTIONARY
  5
1D9
102
{ACAD_REACTORS
330
C
102
}
330
C
100
AcDbDictionary
281
     1
  0
DICTIONARY
  5
2A
102
{ACAD_REACTORS
330
C
102
}
330
C
100
AcDbDictionary
281
     1
  3
2dWireframe
350
2F
  3
3D Hidden
350
31
  3
3dWireframe
350
30
  3
Basic
350
32
  3
Brighten
350
36
  3
ColorChange
350
3A
  3
Conceptual
350
34
  3
Dim
350
35
  3
Facepattern
350
39
  3
Flat
350
2B
  3
FlatWithEdges
350
2C
  3
Gouraud
350
2D
  3
GouraudWithEdges
350
2E
  3
Linepattern
350
38
  3
Realistic
350
33
  3
Thicken
350
37
  0
LAYOUT
  5
1E
102
{ACAD_REACTORS
330
1A
102
}
330
1A
100
AcDbPlotSettings
  1

  2
none_device
  4

  6

 40
0.0
 41
0.0
 42
0.0
 43
0.0
 44
0.0
 45
0.0
 46
0.0
 47
0.0
 48
0.0
 49
0.0
140
0.0
141
0.0
142
1.0
143
1.0
 70
   688
 72
     0
 73
     0
 74
     5
  7

 75
    16
 76
     0
 77
     2
 78
   300
147
1.0
148
0.0
149
0.0
100
AcDbLayout
  1
Layout1
 70
     1
 71
     1
 10
0.0
 20
0.0
 11
12.0
 21
9.0
 12
0.0
 22
0.0
 32
0.0
 14
1.000000000000000E+20
 24
1.000000000000000E+20
 34
1.000000000000000E+20
 15
-1.000000000000000E+20
 25
-1.000000000000000E+20
 35
-1.000000000000000E+20
146
0.0
 13
0.0
 23
0.0
 33
0.0
 16
1.0
 26
0.0
 36
0.0
 17
0.0
 27
1.0
 37
0.0
 76
     0
330
1B
  0
LAYOUT
  5
26
102
{ACAD_REACTORS
330
1A
102
}
330
1A
100
AcDbPlotSettings
  1

  2
none_device
  4

  6

 40
0.0
 41
0.0
 42
0.0
 43
0.0
 44
0.0
 45
0.0
 46
0.0
 47
0.0
 48
0.0
 49
0.0
140
0.0
141
0.0
142
1.0
143
1.0
 70
   688
 72
     0
 73
     0
 74
     5
  7

 75
    16
 76
     0
 77
     2
 78
   300
147
1.0
148
0.0
149
0.0
100
AcDbLayout
  1
Layout2
 70
     1
 71
     2
 10
0.0
 20
0.0
 11
0.0
 21
0.0
 12
0.0
 22
0.0
 32
0.0
 14
0.0
 24
0.0
 34
0.0
 15
0.0
 25
0.0
 35
0.0
146
0.0
 13
0.0
 23
0.0
 33
0.0
 16
1.0
 26
0.0
 36
0.0
 17
0.0
 27
1.0
 37
0.0
 76
     0
330
23
  0
LAYOUT
  5
22
102
{ACAD_REACTORS
330
1A
102
}
330
1A
100
AcDbPlotSettings
  1

  2
none_device
  4

  6

 40
0.0
 41
0.0
 42
0.0
 43
0.0
 44
0.0
 45
0.0
 46
0.0
 47
0.0
 48
0.0
 49
0.0
140
0.0
141
0.0
142
1.0
143
1.0
 70
  1712
 72
     0
 73
     0
 74
     0
  7

 75
     0
 76
     0
 77
     2
 78
   300
147
1.0
148
0.0
149
0.0
100
AcDbLayout
  1
Model
 70
     1
 71
     0
 10
0.0
 20
0.0
 11
12.0
 21
9.0
 12
0.0
 22
0.0
 32
0.0
 14
1.000000000000000E+20
 24
1.000000000000000E+20
 34
1.000000000000000E+20
 15
-1.000000000000000E+20
 25
-1.000000000000000E+20
 35
-1.000000000000000E+20
146
0.0
 13
0.0
 23
0.0
 33
0.0
 16
1.0
 26
0.0
 36
0.0
 17
0.0
 27
1.0
 37
0.0
 76
     0
330
1F
331
29
  0
MLINESTYLE
  5
18
102
{ACAD_REACTORS
330
17
102
}
330
17
100
AcDbMlineStyle
  2
Standard
 70
     0
  3

 62
   256
 51
90.0
 52
90.0
 71
     2
 49
0.5
 62
   256
  6
BYLAYER
 49
-0.5
 62
   256
  6
BYLAYER
  0
ACDBPLACEHOLDER
  5
F
102
{ACAD_REACTORS
330
E
102
}
330
E
  0
VISUALSTYLE
  5
2F
102
{ACAD_REACTORS
330
2A
102
}
330
2A
100
AcDbVisualStyle
  2
2dWireframe
 70
     4
 71
     0
 72
     2
 73
     0
 90
        0
 40
-0.6
 41
-30.0
 62
     5
 63
     7
421
 16777215
 74
     1
 91
        4
 64
     7
 65
   257
 75
     1
175
     1
 42
1.0
 92
        0
 66
   257
 43
1.0
 76
     1
 77
     6
 78
     2
 67
     7
 79
     5
170
     0
171
     0
290
     0
174
     0
 93
        1
 44
0.0
173
     0
291
     0
 45
0.0
1001
ACAD
1000
AcDbSavedByObjectVersion
1070
     0
  0
VISUALSTYLE
  5
31
102
{ACAD_REACTORS
330
2A
102
}
330
2A
100
AcDbVisualStyle
  2
3D Hidden
 70
     6
 71
     1
 72
     2
 73
     2
 90
        0
 40
-0.6
 41
-30.0
 62
     5
 63
     7
421
 16777215
 74
     2
 91
        2
 64
     7
 65
   257
 75
     2
175
     1
 42
40.0
 92
        0
 66
   257
 43
1.0
 76
     1
 77
     6
 78
     2
 67
     7
 79
     3
170
     0
171
     0
290
     0
174
     0
 93
        1
 44
0.0
173
     0
291
     0
 45
0.0
1001
ACAD
1000
AcDbSavedByObjectVersion
1070
     0
  0
VISUALSTYLE
  5
30
102
{ACAD_REACTORS
330
2A
102
}
330
2A
100
AcDbVisualStyle
  2
3dWireframe
 70
     5
 71
     0
 72
     2
 73
     0
 90
        0
 40
-0.6
 41
-30.0
 62
     5
 63
     7
421
 16777215
 74
     1
 91
        4
 64
     7
 65
   257
 75
     1
175
     1
 42
1.0
 92
        0
 66
   257
 43
1.0
 76
     1
 77
     6
 78
     2
 67
     7
 79
     5
170
     0
171
     0
290
     0
174
     0
 93
        1
 44
0.0
173
     0
291
     0
 45
0.0
1001
ACAD
1000
AcDbSavedByObjectVersion
1070
     0
  0
VISUALSTYLE
  5
32
102
{ACAD_REACTORS
330
2A
102
}
330
2A
100
AcDbVisualStyle
  2
Basic
 70
     7
 71
     1
 72
     0
 73
     1
 90
        0
 40
-0.6
 41
-30.0
 62
     5
 63
     7
421
 16777215
 74
     0
 91
        4
 64
     7
 65
   257
 75
     1
175
     1
 42
1.0
 92
        8
 66
     7
 43
1.0
 76
     1
 77
     6
 78
     2
 67
     7
 79
     5
170
     0
171
     0
290
     0
174
     0
 93
        1
 44
0.0
173
     0
291
     1
 45
0.0
1001
ACAD
1000
AcDbSavedByObjectVersion
1070
     0
  0
VISUALSTYLE
  5
36
102
{ACAD_REACTORS
330
2A
102
}
330
2A
100
AcDbVisualStyle
  2
Brighten
 70
    12
 71
     2
 72
     2
 73
     0
 90
        0
 40
-0.6
 41
-30.0
 62
     5
 63
     7
421
 16777215
 74
     1
 91
        4
 64
     7
 65
   257
 75
     1
175
     1
 42
1.0
 92
        8
 66
     7
 43
1.0
 76
     1
 77
     6
 78
     2
 67
     7
 79
     5
170
     0
171
     0
290
     0
174
     0
 93
        1
 44
50.0
173
     0
291
     1
 45
0.0
1001
ACAD
1000
AcDbSavedByObjectVersion
1070
     0
  0
VISUALSTYLE
  5
3A
102
{ACAD_REACTORS
330
2A
102
}
330
2A
100
AcDbVisualStyle
  2
ColorChange
 70
    16
 71
     2
 72
     2
 73
     3
 90
        0
 40
-0.6
 41
-30.0
 62
     5
 63
     8
421
  8421504
 74
     1
 91
        4
 64
     7
 65
   257
 75
     1
175
     1
 42
1.0
 92
        8
 66
     8
424
  8421504
 43
1.0
 76
     1
 77
     6
 78
     2
 67
     7
 79
     5
170
     0
171
     0
290
     0
174
     0
 93
        1
 44
0.0
173
     0
291
     1
 45
0.0
1001
ACAD
1000
AcDbSavedByObjectVersion
1070
     0
  0
VISUALSTYLE
  5
34
102
{ACAD_REACTORS
330
2A
102
}
330
2A
100
AcDbVisualStyle
  2
Conceptual
 70
     9
 71
     3
 72
     2
 73
     0
 90
        0
 40
-0.6
 41
-30.0
 62
     5
 63
     7
421
 16777215
 74
     2
 91
        2
 64
     7
 65
   257
 75
     1
175
     1
 42
40.0
 92
        8
 66
     7
 43
1.0
 76
     1
 77
     6
 78
     2
 67
     7
 79
     3
170
     0
171
     0
290
     0
174
     0
 93
        1
 44
0.0
173
     0
291
     0
 45
0.0
1001
ACAD
1000
AcDbSavedByObjectVersion
1070
     0
  0
VISUALSTYLE
  5
35
102
{ACAD_REACTORS
330
2A
102
}
330
2A
100
AcDbVisualStyle
  2
Dim
 70
    11
 71
     2
 72
     2
 73
     0
 90
        0
 40
-0.6
 41
-30.0
 62
     5
 63
     7
421
 16777215
 74
     1
 91
        4
 64
     7
 65
   257
 75
     1
175
     1
 42
1.0
 92
        8
 66
     7
 43
1.0
 76
     1
 77
     6
 78
     2
 67
     7
 79
     5
170
     0
171
     0
290
     0
174
     0
 93
        1
 44
-50.0
173
     0
291
     1
 45
0.0
1001
ACAD
1000
AcDbSavedByObjectVersion
1070
     0
  0
VISUALSTYLE
  5
39
102
{ACAD_REACTORS
330
2A
102
}
330
2A
100
AcDbVisualStyle
  2
Facepattern
 70
    15
 71
     2
 72
     2
 73
     0
 90
        0
 40
-0.6
 41
-30.0
 62
     5
 63
     7
421
 16777215
 74
     1
 91
        4
 64
     7
 65
   257
 75
     1
175
     1
 42
1.0
 92
        8
 66
     7
 43
1.0
 76
     1
 77
     6
 78
     2
 67
     7
 79
     5
170
     0
171
     0
290
     0
174
     0
 93
        1
 44
0.0
173
     0
291
     1
 45
0.0
1001
ACAD
1000
AcDbSavedByObjectVersion
1070
     0
  0
VISUALSTYLE
  5
2B
102
{ACAD_REACTORS
330
2A
102
}
330
2A
100
AcDbVisualStyle
  2
Flat
 70
     0
 71
     2
 72
     1
 73
     1
 90
        2
 40
-0.6
 41
30.0
 62
     5
 63
     7
421
 16777215
 74
     0
 91
        4
 64
     7
 65
   257
 75
     1
175
     1
 42
1.0
 92
        8
 66
     7
 43
1.0
 76
     1
 77
     6
 78
     2
 67
     7
 79
     5
170
     0
171
     0
290
     0
174
     0
 93
       13
 44
0.0
173
     0
291
     1
 45
0.0
1001
ACAD
1000
AcDbSavedByObjectVersion
1070
     0
  0
VISUALSTYLE
  5
2C
102
{ACAD_REACTORS
330
2A
102
}
330
2A
100
AcDbVisualStyle
  2
FlatWithEdges
 70
     1
 71
     2
 72
     1
 73
     1
 90
        2
 40
-0.6
 41
30.0
 62
     5
 63
     7
421
 16777215
 74
     1
 91
        4
 64
     7
 65
   257
 75
     1
175
     1
 42
1.0
 92
        0
 66
   257
 43
1.0
 76
     1
 77
     6
 78
     2
 67
     7
 79
     5
170
     0
171
     0
290
     0
174
     0
 93
       13
 44
0.0
173
     0
291
     1
 45
0.0
1001
ACAD
1000
AcDbSavedByObjectVersion
1070
     0
  0
VISUALSTYLE
  5
2D
102
{ACAD_REACTORS
330
2A
102
}
330
2A
100
AcDbVisualStyle
  2
Gouraud
 70
     2
 71
     2
 72
     2
 73
     1
 90
        2
 40
-0.6
 41
30.0
 62
     5
 63
     7
421
 16777215
 74
     0
 91
        4
 64
     7
 65
   257
 75
     1
175
     1
 42
1.0
 92
        0
 66
     7
 43
1.0
 76
     1
 77
     6
 78
     2
 67
     7
 79
     5
170
     0
171
     0
290
     0
174
     0
 93
       13
 44
0.0
173
     0
291
     1
 45
0.0
1001
ACAD
1000
AcDbSavedByObjectVersion
1070
     0
  0
VISUALSTYLE
  5
2E
102
{ACAD_REACTORS
330
2A
102
}
330
2A
100
AcDbVisualStyle
  2
GouraudWithEdges
 70
     3
 71
     2
 72
     2
 73
     1
 90
        2
 40
-0.6
 41
30.0
 62
     5
 63
     7
421
 16777215
 74
     1
 91
        4
 64
     7
 65
   257
 75
     1
175
     1
 42
1.0
 92
        0
 66
   257
 43
1.0
 76
     1
 77
     6
 78
     2
 67
     7
 79
     5
170
     0
171
     0
290
     0
174
     0
 93
       13
 44
0.0
173
     0
291
     1
 45
0.0
1001
ACAD
1000
AcDbSavedByObjectVersion
1070
     0
  0
VISUALSTYLE
  5
38
102
{ACAD_REACTORS
330
2A
102
}
330
2A
100
AcDbVisualStyle
  2
Linepattern
 70
    14
 71
     2
 72
     2
 73
     0
 90
        0
 40
-0.6
 41
-30.0
 62
     5
 63
     7
421
 16777215
 74
     1
 91
        4
 64
     7
 65
   257
 75
     7
175
     7
 42
1.0
 92
        8
 66
     7
 43
1.0
 76
     1
 77
     6
 78
     2
 67
     7
 79
     5
170
     0
171
     0
290
     0
174
     0
 93
        1
 44
0.0
173
     0
291
     1
 45
0.0
1001
ACAD
1000
AcDbSavedByObjectVersion
1070
     0
  0
VISUALSTYLE
  5
33
102
{ACAD_REACTORS
330
2A
102
}
330
2A
100
AcDbVisualStyle
  2
Realistic
 70
     8
 71
     2
 72
     2
 73
     0
 90
        0
 40
-0.6
 41
-30.0
 62
     5
 63
     7
421
 16777215
 74
     1
 91
        0
 64
     7
 65
   257
 75
     1
175
     1
 42
1.0
 92
        8
 66
     8
424
  7895160
 43
1.0
 76
     1
 77
     6
 78
     2
 67
     7
 79
     5
170
     0
171
     0
290
     0
174
     0
 93
       13
 44
0.0
173
     0
291
     0
 45
0.0
1001
ACAD
1000
AcDbSavedByObjectVersion
1070
     0
  0
VISUALSTYLE
  5
37
102
{ACAD_REACTORS
330
2A
102
}
330
2A
100
AcDbVisualStyle
  2
Thicken
 70
    13
 71
     2
 72
     2
 73
     0
 90
        0
 40
-0.6
 41
-30.0
 62
     5
 63
     7
421
 16777215
 74
     1
 91
        4
 64
     7
 65
   257
 75
     1
175
     1
 42
1.0
 92
       12
 66
     7
 43
1.0
 76
     1
 77
     6
 78
     2
 67
     7
 79
     5
170
     0
171
     0
290
     0
174
     0
 93
        1
 44
0.0
173
     0
291
     1
 45
0.0
1001
ACAD
1000
AcDbSavedByObjectVersion
1070
     0
  0
ENDSEC
  0
EOF
