  0
SECTION
  2
HEADER
  9
$ACADVER
  1
AC1018
  9
$ACADMAINTVER
 70
     0
  9
$DWGCODEPAGE
  3
ANSI_1252
  9
$INSBASE
 10
0.0
 20
0.0
 30
0.0
  9
$EXTMIN
 10
1.000000000000000E+20
 20
1.000000000000000E+20
 30
1.000000000000000E+20
  9
$EXTMAX
 10
-1.000000000000000E+20
 20
-1.000000000000000E+20
 30
-1.000000000000000E+20
  9
$LIMMIN
 10
0.0
 20
0.0
  9
$LIMMAX
 10
12.0
 20
9.0
  9
$ORTHOMODE
 70
     0
  9
$REGENMODE
 70
     1
  9
$FILLMODE
 70
     1
  9
$QTEXTMODE
 70
     0
  9
$MIRRTEXT
 70
     1
  9
$LTSCALE
 40
1.0
  9
$ATTMODE
 70
     1
  9
$TEXTSIZE
 40
0.2
  9
$TRACEWID
 40
0.05
  9
$TEXTSTYLE
  7
Standard
  9
$CLAYER
  8
0
  9
$CELTYPE
  6
ByLayer
  9
$CECOLOR
 62
   256
  9
$CELTSCALE
 40
1.0
  9
$DISPSILH
 70
     0
  9
$DIMSCALE
 40
1.0
  9
$DIMASZ
 40
0.18
  9
$DIMEXO
 40
0.0625
  9
$DIMDLI
 40
0.38
  9
$DIMRND
 40
0.0
  9
$DIMDLE
 40
0.0
  9
$DIMEXE
 40
0.18
  9
$DIMTP
 40
0.0
  9
$DIMTM
 40
0.0
  9
$DIMTXT
 40
0.18
  9
$DIMCEN
 40
0.09
  9
$DIMTSZ
 40
0.0
  9
$DIMTOL
 70
     0
  9
$DIMLIM
 70
     0
  9
$DIMTIH
 70
     1
  9
$DIMTOH
 70
     1
  9
$DIMSE1
 70
     0
  9
$DIMSE2
 70
     0
  9
$DIMTAD
 70
     0
  9
$DIMZIN
 70
     0
  9
$DIMBLK
  1

  9
$DIMASO
 70
     1
  9
$DIMSHO
 70
     1
  9
$DIMPOST
  1

  9
$DIMAPOST
  1

  9
$DIMALT
 70
     0
  9
$DIMALTD
 70
     2
  9
$DIMALTF
 40
25.4
  9
$DIMLFAC
 40
1.0
  9
$DIMTOFL
 70
     0
  9
$DIMTVP
 40
0.0
  9
$DIMTIX
 70
     0
  9
$DIMSOXD
 70
     0
  9
$DIMSAH
 70
     0
  9
$DIMBLK1
  1

  9
$DIMBLK2
  1

  9
$DIMSTYLE
  2
Standard
  9
$DIMCLRD
 70
     0
  9
$DIMCLRE
 70
     0
  9
$DIMCLRT
 70
     0
  9
$DIMTFAC
 40
1.0
  9
$DIMGAP
 40
0.09
  9
$DIMJUST
 70
     0
  9
$DIMSD1
 70
     0
  9
$DIMSD2
 70
     0
  9
$DIMTOLJ
 70
     1
  9
$DIMTZIN
 70
     0
  9
$DIMALTZ
 70
     0
  9
$DIMALTTZ
 70
     0
  9
$DIMUPT
 70
     0
  9
$DIMDEC
 70
     4
  9
$DIMTDEC
 70
     4
  9
$DIMALTU
 70
     2
  9
$DIMALTTD
 70
     2
  9
$DIMTXSTY
  7
Standard
  9
$DIMAUNIT
 70
     0
  9
$DIMADEC
 70
     0
  9
$DIMALTRND
 40
0.0
  9
$DIMAZIN
 70
     0
  9
$DIMDSEP
 70
    46
  9
$DIMATFIT
 70
     3
  9
$DIMFRAC
 70
     0
  9
$DIMLDRBLK
  1

  9
$DIMLUNIT
 70
     2
  9
$DIMLWD
 70
    -2
  9
$DIMLWE
 70
    -2
  9
$DIMTMOVE
 70
     0
  9
$LUNITS
 70
     2
  9
$LUPREC
 70
     4
  9
$SKETCHINC
 40
0.1
  9
$FILLETRAD
 40
0.5
  9
$AUNITS
 70
     0
  9
$AUPREC
 70
     0
  9
$MENU
  1
.
  9
$ELEVATION
 40
0.0
  9
$PELEVATION
 40
0.0
  9
$THICKNESS
 40
0.0
  9
$LIMCHECK
 70
     0
  9
$CHAMFERA
 40
0.5
  9
$CHAMFERB
 40
0.5
  9
$CHAMFERC
 40
1.0
  9
$CHAMFERD
 40
0.0
  9
$SKPOLY
 70
     0
  9
$TDCREATE
 40
2458444.38658794
  9
$TDUCREATE
 40
2458444.344921273
  9
$TDUPDATE
 40
2458444.386587951
  9
$TDUUPDATE
 40
2458444.344921285
  9
$TDINDWG
 40
0.0000000116
  9
$TDUSRTIMER
 40
0.0000000116
  9
$USRTIMER
 70
     1
  9
$ANGBASE
 50
0.0
  9
$ANGDIR
 70
     0
  9
$PDMODE
 70
     0
  9
$PDSIZE
 40
0.0
  9
$PLINEWID
 40
0.0
  9
$SPLFRAME
 70
     0
  9
$SPLINETYPE
 70
     6
  9
$SPLINESEGS
 70
     8
  9
$HANDSEED
  5
311
  9
$SURFTAB1
 70
     6
  9
$SURFTAB2
 70
     6
  9
$SURFTYPE
 70
     6
  9
$SURFU
 70
     6
  9
$SURFV
 70
     6
  9
$UCSBASE
  2

  9
$UCSNAME
  2

  9
$UCSORG
 10
0.0
 20
0.0
 30
0.0
  9
$UCSXDIR
 10
1.0
 20
0.0
 30
0.0
  9
$UCSYDIR
 10
0.0
 20
1.0
 30
0.0
  9
$UCSORTHOREF
  2

  9
$UCSORTHOVIEW
 70
     0
  9
$UCSORGTOP
 10
0.0
 20
0.0
 30
0.0
  9
$UCSORGBOTTOM
 10
0.0
 20
0.0
 30
0.0
  9
$UCSORGLEFT
 10
0.0
 20
0.0
 30
0.0
  9
$UCSORGRIGHT
 10
0.0
 20
0.0
 30
0.0
  9
$UCSORGFRONT
 10
0.0
 20
0.0
 30
0.0
  9
$UCSORGBACK
 10
0.0
 20
0.0
 30
0.0
  9
$PUCSBASE
  2

  9
$PUCSNAME
  2

  9
$PUCSORG
 10
0.0
 20
0.0
 30
0.0
  9
$PUCSXDIR
 10
1.0
 20
0.0
 30
0.0
  9
$PUCSYDIR
 10
0.0
 20
1.0
 30
0.0
  9
$PUCSORTHOREF
  2

  9
$PUCSORTHOVIEW
 70
     0
  9
$PUCSORGTOP
 10
0.0
 20
0.0
 30
0.0
  9
$PUCSORGBOTTOM
 10
0.0
 20
0.0
 30
0.0
  9
$PUCSORGLEFT
 10
0.0
 20
0.0
 30
0.0
  9
$PUCSORGRIGHT
 10
0.0
 20
0.0
 30
0.0
  9
$PUCSORGFRONT
 10
0.0
 20
0.0
 30
0.0
  9
$PUCSORGBACK
 10
0.0
 20
0.0
 30
0.0
  9
$USERI1
 70
     0
  9
$USERI2
 70
     0
  9
$USERI3
 70
     0
  9
$USERI4
 70
     0
  9
$USERI5
 70
     0
  9
$USERR1
 40
0.0
  9
$USERR2
 40
0.0
  9
$USERR3
 40
0.0
  9
$USERR4
 40
0.0
  9
$USERR5
 40
0.0
  9
$WORLDVIEW
 70
     1
  9
$SHADEDGE
 70
     3
  9
$SHADEDIF
 70
    70
  9
$TILEMODE
 70
     1
  9
$MAXACTVP
 70
    64
  9
$PINSBASE
 10
0.0
 20
0.0
 30
0.0
  9
$PLIMCHECK
 70
     0
  9
$PEXTMIN
 10
1.000000000000000E+20
 20
1.000000000000000E+20
 30
1.000000000000000E+20
  9
$PEXTMAX
 10
-1.000000000000000E+20
 20
-1.000000000000000E+20
 30
-1.000000000000000E+20
  9
$PLIMMIN
 10
0.0
 20
0.0
  9
$PLIMMAX
 10
12.0
 20
9.0
  9
$UNITMODE
 70
     0
  9
$VISRETAIN
 70
     1
  9
$PLINEGEN
 70
     0
  9
$PSLTSCALE
 70
     1
  9
$TREEDEPTH
 70
  3020
  9
$CMLSTYLE
  2
Standard
  9
$CMLJUST
 70
     0
  9
$CMLSCALE
 40
1.0
  9
$PROXYGRAPHICS
 70
     1
  9
$MEASUREMENT
 70
     0
  9
$CELWEIGHT
370
    -1
  9
$ENDCAPS
280
     0
  9
$JOINSTYLE
280
     0
  9
$LWDISPLAY
290
     1
  9
$INSUNITS
 70
     1
  9
$HYPERLINKBASE
  1

  9
$STYLESHEET
  1

  9
$XEDIT
290
     1
  9
$CEPSNTYPE
380
     0
  9
$PSTYLEMODE
290
     1
  9
$FINGERPRINTGUID
  2
{4AD1772D-D47C-41BF-9396-500D46D53F6E}
  9
$VERSIONGUID
  2
{FAEB1C32-E019-11D5-929B-00C0DF256EC4}
  9
$EXTNAMES
290
     1
  9
$PSVPSCALE
 40
0.0
  9
$OLESTARTUP
290
     0
  9
$SORTENTS
280
   127
  9
$INDEXCTL
280
     0
  9
$HIDETEXT
280
     1
  9
$XCLIPFRAME
290
     0
  9
$HALOGAP
280
     0
  9
$OBSCOLOR
 70
   257
  9
$OBSLTYPE
280
     0
  9
$INTERSECTIONDISPLAY
280
     0
  9
$INTERSECTIONCOLOR
 70
   257
  9
$DIMASSOC
280
     2
  9
$PROJECTNAME
  1

  0
ENDSEC
  0
SECTION
  2
CLASSES
  0
CLASS
  1
ACDBDICTIONARYWDFLT
  2
AcDbDictionaryWithDefault
  3
ObjectDBX Classes
 90
        0
 91
        3
280
     0
281
     0
  0
CLASS
  1
VISUALSTYLE
  2
AcDbVisualStyle
  3
ObjectDBX Classes
 90
     4095
 91
        3
280
     0
281
     0
  0
ENDSEC
  0
SECTION
  2
TABLES
  0
TABLE
  2
VPORT
  5
8
330
0
100
AcDbSymbolTable
 70
     1
  0
VPORT
  5
29
330
8
100
AcDbSymbolTableRecord
100
AcDbViewportTableRecord
  2
*Active
 70
     0
 10
0.0
 20
0.0
 11
1.0
 21
1.0
 12
0.0
 22
0.0
 13
0.0
 23
0.0
 14
0.5
 24
0.5
 15
0.5
 25
0.5
 16
0.0
 26
0.0
 36
1.0
 17
104.2777865678976
 27
149.0163994310619
 37
0.0
 40
46.56425508818533
 41
2.113631150997699
 42
50.0
 43
0.0
 44
0.0
 50
0.0
 51
0.0
 71
     0
 72
   100
 73
     1
 74
     3
 75
     0
 76
     0
 77
     0
 78
     0
281
     0
 65
     1
110
0.0
120
0.0
130
0.0
111
1.0
121
0.0
131
0.0
112
0.0
122
1.0
132
0.0
 79
     0
146
0.0
  0
ENDTAB
  0
TABLE
  2
LTYPE
  5
5
330
0
100
AcDbSymbolTable
 70
     1
  0
LTYPE
  5
14
330
5
100
AcDbSymbolTableRecord
100
AcDbLinetypeTableRecord
  2
ByBlock
 70
     0
  3

 72
    65
 73
     0
 40
0.0
  0
LTYPE
  5
15
330
5
100
AcDbSymbolTableRecord
100
AcDbLinetypeTableRecord
  2
ByLayer
 70
     0
  3

 72
    65
 73
     0
 40
0.0
  0
LTYPE
  5
16
330
5
100
AcDbSymbolTableRecord
100
AcDbLinetypeTableRecord
  2
Continuous
 70
     0
  3
Solid line
 72
    65
 73
     0
 40
0.0
  0
ENDTAB
  0
TABLE
  2
LAYER
  5
2
330
0
100
AcDbSymbolTable
 70
     3
  0
LAYER
  5
10
330
2
100
AcDbSymbolTableRecord
100
AcDbLayerTableRecord
  2
0
 70
     0
 62
     7
  6
Continuous
370
    -3
390
F
  0
LAYER
  5
3B
330
2
100
AcDbSymbolTableRecord
100
AcDbLayerTableRecord
  2
Capa 1
 70
     0
 62
     7
  6
Continuous
370
    -3
390
F
  0
LAYER
  5
305
330
2
100
AcDbSymbolTableRecord
100
AcDbLayerTableRecord
  2
numeros
 70
     4
 62
     7
  6
Continuous
370
    -3
390
F
  0
ENDTAB
  0
TABLE
  2
STYLE
  5
3
330
0
100
AcDbSymbolTable
 70
     1
  0
STYLE
  5
11
330
3
100
AcDbSymbolTableRecord
100
AcDbTextStyleTableRecord
  2
Standard
 70
     0
 40
0.0
 41
1.0
 50
0.0
 71
     0
 42
0.2
  3
txt
  4

  0
ENDTAB
  0
TABLE
  2
VIEW
  5
6
330
0
100
AcDbSymbolTable
 70
     0
  0
ENDTAB
  0
TABLE
  2
UCS
  5
7
330
0
100
AcDbSymbolTable
 70
     0
  0
ENDTAB
  0
TABLE
  2
APPID
  5
9
330
0
100
AcDbSymbolTable
 70
     1
  0
APPID
  5
12
330
9
100
AcDbSymbolTableRecord
100
AcDbRegAppTableRecord
  2
ACAD
 70
     0
  0
ENDTAB
  0
TABLE
  2
DIMSTYLE
  5
A
330
0
100
AcDbSymbolTable
 70
     1
100
AcDbDimStyleTable
  0
DIMSTYLE
105
27
330
A
100
AcDbSymbolTableRecord
100
AcDbDimStyleTableRecord
  2
Standard
 70
     0
340
11
  0
ENDTAB
  0
TABLE
  2
BLOCK_RECORD
  5
1
330
0
100
AcDbSymbolTable
 70
     2
  0
BLOCK_RECORD
  5
1F
330
1
100
AcDbSymbolTableRecord
100
AcDbBlockTableRecord
  2
*Model_Space
340
22
  0
BLOCK_RECORD
  5
1B
330
1
100
AcDbSymbolTableRecord
100
AcDbBlockTableRecord
  2
*Paper_Space
340
1E
  0
BLOCK_RECORD
  5
23
330
1
100
AcDbSymbolTableRecord
100
AcDbBlockTableRecord
  2
*Paper_Space0
340
26
  0
BLOCK_RECORD
  5
3C
330
1
100
AcDbSymbolTableRecord
100
AcDbBlockTableRecord
  2
block 2
340
0
102
{BLKREFS
331
3D
102
}
  0
ENDTAB
  0
ENDSEC
  0
SECTION
  2
BLOCKS
  0
BLOCK
  5
20
330
1F
100
AcDbEntity
  8
0
100
AcDbBlockBegin
  2
*Model_Space
 70
     0
 71
     0
 10
0.0
 20
0.0
 30
0.0
  3
*Model_Space
  1

  0
ENDBLK
  5
21
330
1F
100
AcDbEntity
  8
0
100
AcDbBlockEnd
  0
BLOCK
  5
1C
330
1B
100
AcDbEntity
 67
     1
  8
0
100
AcDbBlockBegin
  2
*Paper_Space
 70
     0
 71
     0
 10
0.0
 20
0.0
 30
0.0
  3
*Paper_Space
  1

  0
ENDBLK
  5
1D
330
1B
100
AcDbEntity
 67
     1
  8
0
100
AcDbBlockEnd
  0
BLOCK
  5
24
330
23
100
AcDbEntity
  8
0
100
AcDbBlockBegin
  2
*Paper_Space0
 70
     0
 71
     0
 10
0.0
 20
0.0
 30
0.0
  3
*Paper_Space0
  1

  0
ENDBLK
  5
25
330
23
100
AcDbEntity
  8
0
100
AcDbBlockEnd
  0
BLOCK
  5
3E
330
3C
100
AcDbEntity
  8
0
100
AcDbBlockBegin
  2
block 2
 70
     0
 71
     0
 10
0.0
 20
0.0
 30
0.0
  3
block 2
  1

  0
POLYLINE
  5
40
330
3C
100
AcDbEntity
  8
Capa 1
 62
   250
420
  1842203
370
    13
100
AcDb2dPolyline
 66
     1
 10
0.0
 20
0.0
 30
0.0
  0
VERTEX
  5
41
330
40
100
AcDbEntity
  8
Capa 1
 62
   250
420
  1842203
370
    13
100
AcDbVertex
100
AcDb2dVertex
 10
118.6366861682575
 20
164.009971747192
 30
0.0
  0
VERTEX
  5
42
330
40
100
AcDbEntity
  8
Capa 1
 62
   250
420
  1842203
370
    13
100
AcDbVertex
100
AcDb2dVertex
 10
117.9662705868279
 20
164.009971747192
 30
0.0
  0
VERTEX
  5
43
330
40
100
AcDbEntity
  8
Capa 1
 62
   250
420
  1842203
370
    13
100
AcDbVertex
100
AcDb2dVertex
 10
117.9662705868279
 20
165.038332749539
 30
0.0
  0
VERTEX
  5
44
330
40
100
AcDbEntity
  8
Capa 1
 62
   250
420
  1842203
370
    13
100
AcDbVertex
100
AcDb2dVertex
 10
93.33797198187385
 20
165.038332749539
 30
0.0
  0
VERTEX
  5
45
330
40
100
AcDbEntity
  8
Capa 1
 62
   250
420
  1842203
370
    13
100
AcDbVertex
100
AcDb2dVertex
 10
93.33797198187385
 20
164.009971747192
 30
0.0
  0
VERTEX
  5
46
330
40
100
AcDbEntity
  8
Capa 1
 62
   250
420
  1842203
370
    13
100
AcDbVertex
100
AcDb2dVertex
 10
92.77952200371485
 20
164.009971747192
 30
0.0
  0
VERTEX
  5
47
330
40
100
AcDbEntity
  8
Capa 1
 62
   250
420
  1842203
370
    13
100
AcDbVertex
100
AcDb2dVertex
 10
92.77952200371485
 20
136.7461750960218
 30
0.0
  0
VERTEX
  5
48
330
40
100
AcDbEntity
  8
Capa 1
 62
   250
420
  1842203
370
    13
100
AcDbVertex
100
AcDb2dVertex
 10
118.6366861682575
 20
136.7461750960218
 30
0.0
  0
VERTEX
  5
49
330
40
100
AcDbEntity
  8
Capa 1
 62
   250
420
  1842203
370
    13
100
AcDbVertex
100
AcDb2dVertex
 10
118.6366861682575
 20
164.009971747192
 30
0.0
  0
SEQEND
  5
4A
330
40
100
AcDbEntity
  8
Capa 1
370
    13
  0
POLYLINE
  5
4B
330
3C
100
AcDbEntity
  8
Capa 1
 62
   250
420
  1842203
370
    13
100
AcDb2dPolyline
 66
     1
 10
0.0
 20
0.0
 30
0.0
  0
VERTEX
  5
4C
330
4B
100
AcDbEntity
  8
Capa 1
 62
   250
420
  1842203
370
    13
100
AcDbVertex
100
AcDb2dVertex
 10
107.543478705753
 20
157.6535983221318
 30
0.0
  0
VERTEX
  5
4D
330
4B
100
AcDbEntity
  8
Capa 1
 62
   250
420
  1842203
370
    13
100
AcDbVertex
100
AcDb2dVertex
 10
107.543478705753
 20
160.6449747319742
 30
0.0
  0
VERTEX
  5
4E
330
4B
100
AcDbEntity
  8
Capa 1
 62
   250
420
  1842203
370
    13
100
AcDbVertex
100
AcDb2dVertex
 10
117.5473469758215
 20
160.6449747319742
 30
0.0
  0
VERTEX
  5
4F
330
4B
100
AcDbEntity
  8
Capa 1
 62
   250
420
  1842203
370
    13
100
AcDbVertex
100
AcDb2dVertex
 10
117.5473469758215
 20
157.6535983221318
 30
0.0
  0
VERTEX
  5
50
330
4B
100
AcDbEntity
  8
Capa 1
 62
   250
420
  1842203
370
    13
100
AcDbVertex
100
AcDb2dVertex
 10
107.543478705753
 20
157.6535983221318
 30
0.0
  0
VERTEX
  5
51
330
4B
100
AcDbEntity
  8
Capa 1
 62
   250
420
  1842203
370
    13
100
AcDbVertex
100
AcDb2dVertex
 10
107.543478705753
 20
157.6535983221318
 30
0.0
  0
SEQEND
  5
52
330
4B
100
AcDbEntity
  8
Capa 1
370
    13
  0
POLYLINE
  5
53
330
3C
100
AcDbEntity
  8
Capa 1
 62
   250
420
  1842203
370
    13
100
AcDb2dPolyline
 66
     1
 10
0.0
 20
0.0
 30
0.0
  0
VERTEX
  5
54
330
53
100
AcDbEntity
  8
Capa 1
 62
   250
420
  1842203
370
    13
100
AcDbVertex
100
AcDb2dVertex
 10
108.7499511446875
 20
160.6449747319742
 30
0.0
  0
VERTEX
  5
55
330
53
100
AcDbEntity
  8
Capa 1
 62
   250
420
  1842203
370
    13
100
AcDbVertex
100
AcDb2dVertex
 10
108.7499511446875
 20
157.6535983221318
 30
0.0
  0
SEQEND
  5
56
330
53
100
AcDbEntity
  8
Capa 1
370
    13
  0
POLYLINE
  5
57
330
3C
100
AcDbEntity
  8
Capa 1
 62
   250
420
  1842203
370
    13
100
AcDb2dPolyline
 66
     1
 10
0.0
 20
0.0
 30
0.0
  0
VERTEX
  5
58
330
57
100
AcDbEntity
  8
Capa 1
 62
   250
420
  1842203
370
    13
100
AcDbVertex
100
AcDb2dVertex
 10
109.9819172902129
 20
157.6535983221318
 30
0.0
  0
VERTEX
  5
59
330
57
100
AcDbEntity
  8
Capa 1
 62
   250
420
  1842203
370
    13
100
AcDbVertex
100
AcDb2dVertex
 10
109.9819172902129
 20
160.6449747319742
 30
0.0
  0
SEQEND
  5
5A
330
57
100
AcDbEntity
  8
Capa 1
370
    13
  0
POLYLINE
  5
5B
330
3C
100
AcDbEntity
  8
Capa 1
 62
   250
420
  1842203
370
    13
100
AcDb2dPolyline
 66
     1
 10
0.0
 20
0.0
 30
0.0
  0
VERTEX
  5
5C
330
5B
100
AcDbEntity
  8
Capa 1
 62
   250
420
  1842203
370
    13
100
AcDbVertex
100
AcDb2dVertex
 10
111.3392849114013
 20
160.6449747319742
 30
0.0
  0
VERTEX
  5
5D
330
5B
100
AcDbEntity
  8
Capa 1
 62
   250
420
  1842203
370
    13
100
AcDbVertex
100
AcDb2dVertex
 10
111.3392849114013
 20
157.6535983221318
 30
0.0
  0
SEQEND
  5
5E
330
5B
100
AcDbEntity
  8
Capa 1
370
    13
  0
POLYLINE
  5
5F
330
3C
100
AcDbEntity
  8
Capa 1
 62
   250
420
  1842203
370
    13
100
AcDb2dPolyline
 66
     1
 10
0.0
 20
0.0
 30
0.0
  0
VERTEX
  5
60
330
5F
100
AcDbEntity
  8
Capa 1
 62
   250
420
  1842203
370
    13
100
AcDbVertex
100
AcDb2dVertex
 10
112.5953667253234
 20
160.6449747319742
 30
0.0
  0
VERTEX
  5
61
330
5F
100
AcDbEntity
  8
Capa 1
 62
   250
420
  1842203
370
    13
100
AcDbVertex
100
AcDb2dVertex
 10
112.5953667253234
 20
157.6535983221318
 30
0.0
  0
SEQEND
  5
62
330
5F
100
AcDbEntity
  8
Capa 1
370
    13
  0
POLYLINE
  5
63
330
3C
100
AcDbEntity
  8
Capa 1
 62
   250
420
  1842203
370
    13
100
AcDb2dPolyline
 66
     1
 10
0.0
 20
0.0
 30
0.0
  0
VERTEX
  5
64
330
63
100
AcDbEntity
  8
Capa 1
 62
   250
420
  1842203
370
    13
100
AcDbVertex
100
AcDb2dVertex
 10
113.7770344767641
 20
160.6449747319742
 30
0.0
  0
VERTEX
  5
65
330
63
100
AcDbEntity
  8
Capa 1
 62
   250
420
  1842203
370
    13
100
AcDbVertex
100
AcDb2dVertex
 10
113.7770344767641
 20
157.6535983221318
 30
0.0
  0
SEQEND
  5
66
330
63
100
AcDbEntity
  8
Capa 1
370
    13
  0
POLYLINE
  5
67
330
3C
100
AcDbEntity
  8
Capa 1
 62
   250
420
  1842203
370
    13
100
AcDb2dPolyline
 66
     1
 10
0.0
 20
0.0
 30
0.0
  0
VERTEX
  5
68
330
67
100
AcDbEntity
  8
Capa 1
 62
   250
420
  1842203
370
    13
100
AcDbVertex
100
AcDb2dVertex
 10
115.0338053097832
 20
160.6449747319742
 30
0.0
  0
VERTEX
  5
69
330
67
100
AcDbEntity
  8
Capa 1
 62
   250
420
  1842203
370
    13
100
AcDbVertex
100
AcDb2dVertex
 10
115.0338053097832
 20
157.6535983221318
 30
0.0
  0
SEQEND
  5
6A
330
67
100
AcDbEntity
  8
Capa 1
370
    13
  0
POLYLINE
  5
6B
330
3C
100
AcDbEntity
  8
Capa 1
 62
   250
420
  1842203
370
    13
100
AcDb2dPolyline
 66
     1
 10
0.0
 20
0.0
 30
0.0
  0
VERTEX
  5
6C
330
6B
100
AcDbEntity
  8
Capa 1
 62
   250
420
  1842203
370
    13
100
AcDbVertex
100
AcDb2dVertex
 10
117.5473469758215
 20
157.6535983221318
 30
0.0
  0
VERTEX
  5
6D
330
6B
100
AcDbEntity
  8
Capa 1
 62
   250
420
  1842203
370
    13
100
AcDbVertex
100
AcDb2dVertex
 10
116.3911729309717
 20
160.6449747319742
 30
0.0
  0
VERTEX
  5
6E
330
6B
100
AcDbEntity
  8
Capa 1
 62
   250
420
  1842203
370
    13
100
AcDbVertex
100
AcDb2dVertex
 10
116.3911729309717
 20
157.6535983221318
 30
0.0
  0
VERTEX
  5
6F
330
6B
100
AcDbEntity
  8
Capa 1
 62
   250
420
  1842203
370
    13
100
AcDbVertex
100
AcDb2dVertex
 10
117.5473469758215
 20
160.6449747319742
 30
0.0
  0
SEQEND
  5
70
330
6B
100
AcDbEntity
  8
Capa 1
370
    13
  0
POLYLINE
  5
71
330
3C
100
AcDbEntity
  8
Capa 1
 62
   250
420
  1842203
370
    13
100
AcDb2dPolyline
 66
     1
 10
0.0
 20
0.0
 30
0.0
  0
VERTEX
  5
72
330
71
100
AcDbEntity
  8
Capa 1
 62
   250
420
  1842203
370
    13
100
AcDbVertex
100
AcDb2dVertex
 10
115.0338053097832
 20
160.6449747319742
 30
0.0
  0
VERTEX
  5
73
330
71
100
AcDbEntity
  8
Capa 1
 62
   250
420
  1842203
370
    13
100
AcDbVertex
100
AcDb2dVertex
 10
116.340874536887
 20
157.6535983221318
 30
0.0
  0
SEQEND
  5
74
330
71
100
AcDbEntity
  8
Capa 1
370
    13
  0
POLYLINE
  5
75
330
3C
100
AcDbEntity
  8
Capa 1
 62
   250
420
  1842203
370
    13
100
AcDb2dPolyline
 66
     1
 10
0.0
 20
0.0
 30
0.0
  0
VERTEX
  5
76
330
75
100
AcDbEntity
  8
Capa 1
 62
   250
420
  1842203
370
    13
100
AcDbVertex
100
AcDb2dVertex
 10
116.3911729309717
 20
160.6449747319742
 30
0.0
  0
VERTEX
  5
77
330
75
100
AcDbEntity
  8
Capa 1
 62
   250
420
  1842203
370
    13
100
AcDbVertex
100
AcDb2dVertex
 10
115.0338053097832
 20
157.6535983221318
 30
0.0
  0
VERTEX
  5
78
330
75
100
AcDbEntity
  8
Capa 1
 62
   250
420
  1842203
370
    13
100
AcDbVertex
100
AcDb2dVertex
 10
113.7770344767641
 20
160.6449747319742
 30
0.0
  0
SEQEND
  5
79
330
75
100
AcDbEntity
  8
Capa 1
370
    13
  0
POLYLINE
  5
7A
330
3C
100
AcDbEntity
  8
Capa 1
 62
   250
420
  1842203
370
    13
100
AcDb2dPolyline
 66
     1
 10
0.0
 20
0.0
 30
0.0
  0
VERTEX
  5
7B
330
7A
100
AcDbEntity
  8
Capa 1
 62
   250
420
  1842203
370
    13
100
AcDbVertex
100
AcDb2dVertex
 10
115.0338053097832
 20
160.6449747319742
 30
0.0
  0
VERTEX
  5
7C
330
7A
100
AcDbEntity
  8
Capa 1
 62
   250
420
  1842203
370
    13
100
AcDbVertex
100
AcDb2dVertex
 10
113.7770344767641
 20
157.6535983221318
 30
0.0
  0
VERTEX
  5
7D
330
7A
100
AcDbEntity
  8
Capa 1
 62
   250
420
  1842203
370
    13
100
AcDbVertex
100
AcDb2dVertex
 10
112.5953667253234
 20
160.6449747319742
 30
0.0
  0
SEQEND
  5
7E
330
7A
100
AcDbEntity
  8
Capa 1
370
    13
  0
POLYLINE
  5
7F
330
3C
100
AcDbEntity
  8
Capa 1
 62
   250
420
  1842203
370
    13
100
AcDb2dPolyline
 66
     1
 10
0.0
 20
0.0
 30
0.0
  0
VERTEX
  5
80
330
7F
100
AcDbEntity
  8
Capa 1
 62
   250
420
  1842203
370
    13
100
AcDbVertex
100
AcDb2dVertex
 10
112.5953667253234
 20
157.6535983221318
 30
0.0
  0
VERTEX
  5
81
330
7F
100
AcDbEntity
  8
Capa 1
 62
   250
420
  1842203
370
    13
100
AcDbVertex
100
AcDb2dVertex
 10
113.7770344767641
 20
160.6449747319742
 30
0.0
  0
SEQEND
  5
82
330
7F
100
AcDbEntity
  8
Capa 1
370
    13
  0
POLYLINE
  5
83
330
3C
100
AcDbEntity
  8
Capa 1
 62
   250
420
  1842203
370
    13
100
AcDb2dPolyline
 66
     1
 10
0.0
 20
0.0
 30
0.0
  0
VERTEX
  5
84
330
83
100
AcDbEntity
  8
Capa 1
 62
   250
420
  1842203
370
    13
100
AcDbVertex
100
AcDb2dVertex
 10
112.5953667253234
 20
157.6535983221318
 30
0.0
  0
VERTEX
  5
85
330
83
100
AcDbEntity
  8
Capa 1
 62
   250
420
  1842203
370
    13
100
AcDbVertex
100
AcDb2dVertex
 10
111.3392849114013
 20
160.6449747319742
 30
0.0
  0
SEQEND
  5
86
330
83
100
AcDbEntity
  8
Capa 1
370
    13
  0
POLYLINE
  5
87
330
3C
100
AcDbEntity
  8
Capa 1
 62
   250
420
  1842203
370
    13
100
AcDb2dPolyline
 66
     1
 10
0.0
 20
0.0
 30
0.0
  0
VERTEX
  5
88
330
87
100
AcDbEntity
  8
Capa 1
 62
   250
420
  1842203
370
    13
100
AcDbVertex
100
AcDb2dVertex
 10
111.3392849114013
 20
157.6535983221318
 30
0.0
  0
VERTEX
  5
89
330
87
100
AcDbEntity
  8
Capa 1
 62
   250
420
  1842203
370
    13
100
AcDbVertex
100
AcDb2dVertex
 10
112.5953667253234
 20
160.6449747319742
 30
0.0
  0
SEQEND
  5
8A
330
87
100
AcDbEntity
  8
Capa 1
370
    13
  0
POLYLINE
  5
8B
330
3C
100
AcDbEntity
  8
Capa 1
 62
   250
420
  1842203
370
    13
100
AcDb2dPolyline
 66
     1
 10
0.0
 20
0.0
 30
0.0
  0
VERTEX
  5
8C
330
8B
100
AcDbEntity
  8
Capa 1
 62
   250
420
  1842203
370
    13
100
AcDbVertex
100
AcDb2dVertex
 10
111.3392849114013
 20
157.6535983221318
 30
0.0
  0
VERTEX
  5
8D
330
8B
100
AcDbEntity
  8
Capa 1
 62
   250
420
  1842203
370
    13
100
AcDbVertex
100
AcDb2dVertex
 10
109.9819172902129
 20
160.6449747319742
 30
0.0
  0
SEQEND
  5
8E
330
8B
100
AcDbEntity
  8
Capa 1
370
    13
  0
POLYLINE
  5
8F
330
3C
100
AcDbEntity
  8
Capa 1
 62
   250
420
  1842203
370
    13
100
AcDb2dPolyline
 66
     1
 10
0.0
 20
0.0
 30
0.0
  0
VERTEX
  5
90
330
8F
100
AcDbEntity
  8
Capa 1
 62
   250
420
  1842203
370
    13
100
AcDbVertex
100
AcDb2dVertex
 10
111.3392849114013
 20
160.6449747319742
 30
0.0
  0
VERTEX
  5
91
330
8F
100
AcDbEntity
  8
Capa 1
 62
   250
420
  1842203
370
    13
100
AcDbVertex
100
AcDb2dVertex
 10
109.9819172902129
 20
157.6535983221318
 30
0.0
  0
VERTEX
  5
92
330
8F
100
AcDbEntity
  8
Capa 1
 62
   250
420
  1842203
370
    13
100
AcDbVertex
100
AcDb2dVertex
 10
108.7499511446875
 20
160.6449747319742
 30
0.0
  0
SEQEND
  5
93
330
8F
100
AcDbEntity
  8
Capa 1
370
    13
  0
POLYLINE
  5
94
330
3C
100
AcDbEntity
  8
Capa 1
 62
   250
420
  1842203
370
    13
100
AcDb2dPolyline
 66
     1
 10
0.0
 20
0.0
 30
0.0
  0
VERTEX
  5
95
330
94
100
AcDbEntity
  8
Capa 1
 62
   250
420
  1842203
370
    13
100
AcDbVertex
100
AcDb2dVertex
 10
109.9819172902129
 20
160.6449747319742
 30
0.0
  0
VERTEX
  5
96
330
94
100
AcDbEntity
  8
Capa 1
 62
   250
420
  1842203
370
    13
100
AcDbVertex
100
AcDb2dVertex
 10
108.7499511446875
 20
157.6535983221318
 30
0.0
  0
VERTEX
  5
97
330
94
100
AcDbEntity
  8
Capa 1
 62
   250
420
  1842203
370
    13
100
AcDbVertex
100
AcDb2dVertex
 10
107.543478705753
 20
160.6449747319742
 30
0.0
  0
SEQEND
  5
98
330
94
100
AcDbEntity
  8
Capa 1
370
    13
  0
POLYLINE
  5
99
330
3C
100
AcDbEntity
  8
Capa 1
 62
   250
420
  1842203
370
    13
100
AcDb2dPolyline
 66
     1
 10
0.0
 20
0.0
 30
0.0
  0
VERTEX
  5
9A
330
99
100
AcDbEntity
  8
Capa 1
 62
   250
420
  1842203
370
    13
100
AcDbVertex
100
AcDb2dVertex
 10
108.7499511446875
 20
160.6449747319742
 30
0.0
  0
VERTEX
  5
9B
330
99
100
AcDbEntity
  8
Capa 1
 62
   250
420
  1842203
370
    13
100
AcDbVertex
100
AcDb2dVertex
 10
107.543478705753
 20
157.6535983221318
 30
0.0
  0
SEQEND
  5
9C
330
99
100
AcDbEntity
  8
Capa 1
370
    13
  0
SPLINE
  5
9D
330
3C
100
AcDbEntity
  8
Capa 1
 62
   250
420
  1842203
370
    13
100
AcDbSpline
210
0.0
220
0.0
230
1.0
 70
    11
 71
     3
 72
    20
 73
    16
 74
     0
 42
0.0000000001
 43
0.0000000001
 40
0.0
 40
0.0
 40
0.0
 40
0.0
 40
1.0
 40
1.0
 40
1.0
 40
2.0
 40
2.0
 40
2.0
 40
3.0
 40
3.0
 40
3.0
 40
4.0
 40
4.0
 40
4.0
 40
5.0
 40
5.0
 40
5.0
 40
5.0
 10
94.26332462921195
 20
164.6331895204736
 30
0.0
 10
94.3930324742316
 20
164.6331895204736
 30
0.0
 10
94.47950437091137
 20
164.4774712045404
 30
0.0
 10
94.47950437091137
 20
164.3217528886071
 30
0.0
 10
94.47950437091137
 20
164.1658623178995
 30
0.0
 10
94.3930324742316
 20
164.009971747192
 30
0.0
 10
94.26332462921195
 20
164.009971747192
 30
0.0
 10
94.1336167841923
 20
164.009971747192
 30
0.0
 10
94.04714488751253
 20
164.1658623178995
 30
0.0
 10
94.04714488751253
 20
164.3217528886071
 30
0.0
 10
94.04714488751253
 20
164.4774712045404
 30
0.0
 10
94.1336167841923
 20
164.6331895204736
 30
0.0
 10
94.26332462921195
 20
164.6331895204736
 30
0.0
 10
94.26332462921195
 20
164.6331895204736
 30
0.0
 10
94.26332462921195
 20
164.6331895204736
 30
0.0
 10
94.26332462921195
 20
164.6331895204736
 30
0.0
  0
POLYLINE
  5
9E
330
3C
100
AcDbEntity
  8
Capa 1
 62
   250
420
  1842203
370
    13
100
AcDb2dPolyline
 66
     1
 10
0.0
 20
0.0
 30
0.0
  0
VERTEX
  5
9F
330
9E
100
AcDbEntity
  8
Capa 1
 62
   250
420
  1842203
370
    13
100
AcDbVertex
100
AcDb2dVertex
 10
103.3650946464678
 20
136.6886420014181
 30
0.0
  0
VERTEX
  5
A0
330
9E
100
AcDbEntity
  8
Capa 1
 62
   250
420
  1842203
370
    13
100
AcDbVertex
100
AcDb2dVertex
 10
103.3650946464678
 20
138.7140136371965
 30
0.0
  0
VERTEX
  5
A1
330
9E
100
AcDbEntity
  8
Capa 1
 62
   250
420
  1842203
370
    13
100
AcDbVertex
100
AcDb2dVertex
 10
108.4922580023908
 20
138.7140136371965
 30
0.0
  0
VERTEX
  5
A2
330
9E
100
AcDbEntity
  8
Capa 1
 62
   250
420
  1842203
370
    13
100
AcDbVertex
100
AcDb2dVertex
 10
108.4922580023908
 20
136.6886420014181
 30
0.0
  0
SEQEND
  5
A3
330
9E
100
AcDbEntity
  8
Capa 1
370
    13
  0
POLYLINE
  5
A4
330
3C
100
AcDbEntity
  8
Capa 1
 62
   250
420
  1842203
370
    13
100
AcDb2dPolyline
 66
     1
 10
0.0
 20
0.0
 30
0.0
  0
VERTEX
  5
A5
330
A4
100
AcDbEntity
  8
Capa 1
 62
   250
420
  1842203
370
    13
100
AcDbVertex
100
AcDb2dVertex
 10
92.77952200371485
 20
137.9612602736694
 30
0.0
  0
VERTEX
  5
A6
330
A4
100
AcDbEntity
  8
Capa 1
 62
   250
420
  1842203
370
    13
100
AcDbVertex
100
AcDb2dVertex
 10
103.3650946464678
 20
137.9612602736694
 30
0.0
  0
SEQEND
  5
A7
330
A4
100
AcDbEntity
  8
Capa 1
370
    13
  0
POLYLINE
  5
A8
330
3C
100
AcDbEntity
  8
Capa 1
 62
   250
420
  1842203
370
    13
100
AcDb2dPolyline
 66
     1
 10
0.0
 20
0.0
 30
0.0
  0
VERTEX
  5
A9
330
A8
100
AcDbEntity
  8
Capa 1
 62
   250
420
  1842203
370
    13
100
AcDbVertex
100
AcDb2dVertex
 10
108.4922580023908
 20
137.9612602736694
 30
0.0
  0
VERTEX
  5
AA
330
A8
100
AcDbEntity
  8
Capa 1
 62
   250
420
  1842203
370
    13
100
AcDbVertex
100
AcDb2dVertex
 10
118.6366861682575
 20
137.9612602736694
 30
0.0
  0
SEQEND
  5
AB
330
A8
100
AcDbEntity
  8
Capa 1
370
    13
  0
POLYLINE
  5
AC
330
3C
100
AcDbEntity
  8
Capa 1
 62
   250
420
  1842203
370
    13
100
AcDb2dPolyline
 66
     1
 10
0.0
 20
0.0
 30
0.0
  0
VERTEX
  5
AD
330
AC
100
AcDbEntity
  8
Capa 1
 62
   250
420
  1842203
370
    13
100
AcDbVertex
100
AcDb2dVertex
 10
105.4006293139276
 20
138.7140136371965
 30
0.0
  0
VERTEX
  5
AE
330
AC
100
AcDbEntity
  8
Capa 1
 62
   250
420
  1842203
370
    13
100
AcDbVertex
100
AcDb2dVertex
 10
105.4006293139276
 20
142.8891248557708
 30
0.0
  0
VERTEX
  5
AF
330
AC
100
AcDbEntity
  8
Capa 1
 62
   250
420
  1842203
370
    13
100
AcDbVertex
100
AcDb2dVertex
 10
106.632595459453
 20
142.8891248557708
 30
0.0
  0
VERTEX
  5
B0
330
AC
100
AcDbEntity
  8
Capa 1
 62
   250
420
  1842203
370
    13
100
AcDbVertex
100
AcDb2dVertex
 10
106.632595459453
 20
138.7140136371965
 30
0.0
  0
SEQEND
  5
B1
330
AC
100
AcDbEntity
  8
Capa 1
370
    13
  0
POLYLINE
  5
B2
330
3C
100
AcDbEntity
  8
Capa 1
 62
   250
420
  1842203
370
     9
100
AcDb2dPolyline
 66
     1
 10
0.0
 20
0.0
 30
0.0
  0
VERTEX
  5
B3
330
B2
100
AcDbEntity
  8
Capa 1
 62
   250
420
  1842203
370
     9
100
AcDbVertex
100
AcDb2dVertex
 10
92.77952200371485
 20
135.62548553467
 30
0.0
  0
VERTEX
  5
B4
330
B2
100
AcDbEntity
  8
Capa 1
 62
   250
420
  1842203
370
     9
100
AcDbVertex
100
AcDb2dVertex
 10
92.77952200371485
 20
132.3498887472945
 30
0.0
  0
SEQEND
  5
B5
330
B2
100
AcDbEntity
  8
Capa 1
370
     9
  0
POLYLINE
  5
B6
330
3C
100
AcDbEntity
  8
Capa 1
 62
   250
420
  1842203
370
     9
100
AcDb2dPolyline
 66
     1
 10
0.0
 20
0.0
 30
0.0
  0
VERTEX
  5
B7
330
B6
100
AcDbEntity
  8
Capa 1
 62
   250
420
  1842203
370
     9
100
AcDbVertex
100
AcDb2dVertex
 10
118.6366861682575
 20
135.62548553467
 30
0.0
  0
VERTEX
  5
B8
330
B6
100
AcDbEntity
  8
Capa 1
 62
   250
420
  1842203
370
     9
100
AcDbVertex
100
AcDb2dVertex
 10
118.6366861682575
 20
132.3498887472945
 30
0.0
  0
SEQEND
  5
B9
330
B6
100
AcDbEntity
  8
Capa 1
370
     9
  0
POLYLINE
  5
BA
330
3C
100
AcDbEntity
  8
Capa 1
 62
   250
420
  1842203
370
     9
100
AcDb2dPolyline
 66
     1
 10
0.0
 20
0.0
 30
0.0
  0
VERTEX
  5
BB
330
BA
100
AcDbEntity
  8
Capa 1
 62
   250
420
  1842203
370
     9
100
AcDbVertex
100
AcDb2dVertex
 10
107.8266655546406
 20
132.8514946499469
 30
0.0
  0
VERTEX
  5
BC
330
BA
100
AcDbEntity
  8
Capa 1
 62
   250
420
  1842203
370
     9
100
AcDbVertex
100
AcDb2dVertex
 10
117.7258029219574
 20
132.8514946499469
 30
0.0
  0
SEQEND
  5
BD
330
BA
100
AcDbEntity
  8
Capa 1
370
     9
  0
POLYLINE
  5
BE
330
3C
100
AcDbEntity
  8
Capa 1
370
     0
100
AcDb2dPolyline
 66
     1
 10
0.0
 20
0.0
 30
0.0
  0
VERTEX
  5
BF
330
BE
100
AcDbEntity
  8
Capa 1
370
     0
100
AcDbVertex
100
AcDb2dVertex
 10
118.6353081300634
 20
132.8514946499469
 30
0.0
  0
VERTEX
  5
C0
330
BE
100
AcDbEntity
  8
Capa 1
370
     0
100
AcDbVertex
100
AcDb2dVertex
 10
117.7134005782105
 20
133.3121039163248
 30
0.0
  0
VERTEX
  5
C1
330
BE
100
AcDbEntity
  8
Capa 1
370
     0
100
AcDbVertex
100
AcDb2dVertex
 10
117.7134005782105
 20
132.3905408740204
 30
0.0
  0
VERTEX
  5
C2
330
BE
100
AcDbEntity
  8
Capa 1
370
     0
100
AcDbVertex
100
AcDb2dVertex
 10
118.6353081300634
 20
132.8514946499469
 30
0.0
  0
VERTEX
  5
C3
330
BE
100
AcDbEntity
  8
Capa 1
370
     0
100
AcDbVertex
100
AcDb2dVertex
 10
118.6353081300634
 20
132.8514946499469
 30
0.0
  0
SEQEND
  5
C4
330
BE
100
AcDbEntity
  8
Capa 1
370
     0
  0
HATCH
  5
C5
330
3C
100
AcDbEntity
  8
Capa 1
 62
   250
420
  1842203
100
AcDbHatch
 10
0.0
 20
0.0
 30
0.0
210
0.0
220
0.0
230
1.0
  2
SOLID
 70
     1
 71
     0
 91
        1
 92
        1
 93
        3
 72
     1
 10
118.6353081300634
 20
132.8514946499469
 11
117.7134005782105
 21
133.3121039163248
 72
     1
 10
117.7134005782105
 20
133.3121039163248
 11
117.7134005782105
 21
132.3905408740204
 72
     1
 10
117.7134005782105
 20
132.3905408740204
 11
118.6353081300634
 21
132.8514946499469
 97
        0
 75
     0
 76
     1
 98
        0
  0
POLYLINE
  5
C6
330
3C
100
AcDbEntity
  8
Capa 1
 62
   250
420
  1842203
370
    13
100
AcDb2dPolyline
 66
     1
 10
0.0
 20
0.0
 30
0.0
  0
VERTEX
  5
C7
330
C6
100
AcDbEntity
  8
Capa 1
 62
   250
420
  1842203
370
    13
100
AcDbVertex
100
AcDb2dVertex
 10
121.0441188933501
 20
157.5092488212998
 30
0.0
  0
VERTEX
  5
C8
330
C6
100
AcDbEntity
  8
Capa 1
 62
   250
420
  1842203
370
    13
100
AcDbVertex
100
AcDb2dVertex
 10
140.4103786541335
 20
157.5092488212998
 30
0.0
  0
SEQEND
  5
C9
330
C6
100
AcDbEntity
  8
Capa 1
370
    13
  0
POLYLINE
  5
CA
330
3C
100
AcDbEntity
  8
Capa 1
 62
   250
420
  1842203
370
    13
100
AcDb2dPolyline
 66
     1
 10
0.0
 20
0.0
 30
0.0
  0
VERTEX
  5
CB
330
CA
100
AcDbEntity
  8
Capa 1
 62
   250
420
  1842203
370
    13
100
AcDbVertex
100
AcDb2dVertex
 10
125.4373046561407
 20
157.5092488212998
 30
0.0
  0
VERTEX
  5
CC
330
CA
100
AcDbEntity
  8
Capa 1
 62
   250
420
  1842203
370
    13
100
AcDbVertex
100
AcDb2dVertex
 10
123.1063530508206
 20
162.745449449331
 30
0.0
  0
VERTEX
  5
CD
330
CA
100
AcDbEntity
  8
Capa 1
 62
   250
420
  1842203
370
    13
100
AcDbVertex
100
AcDb2dVertex
 10
121.1777885981778
 20
162.745449449331
 30
0.0
  0
VERTEX
  5
CE
330
CA
100
AcDbEntity
  8
Capa 1
 62
   250
420
  1842203
370
    13
100
AcDbVertex
100
AcDb2dVertex
 10
121.1777885981778
 20
157.5092488212998
 30
0.0
  0
VERTEX
  5
CF
330
CA
100
AcDbEntity
  8
Capa 1
 62
   250
420
  1842203
370
    13
100
AcDbVertex
100
AcDb2dVertex
 10
121.1777885981778
 20
136.7196478607854
 30
0.0
  0
SEQEND
  5
D0
330
CA
100
AcDbEntity
  8
Capa 1
370
    13
  0
POLYLINE
  5
D1
330
3C
100
AcDbEntity
  8
Capa 1
 62
   250
420
  1842203
370
    13
100
AcDb2dPolyline
 66
     1
 10
0.0
 20
0.0
 30
0.0
  0
VERTEX
  5
D2
330
D1
100
AcDbEntity
  8
Capa 1
 62
   250
420
  1842203
370
    13
100
AcDbVertex
100
AcDb2dVertex
 10
135.3212836033225
 20
157.509421076074
 30
0.0
  0
VERTEX
  5
D3
330
D1
100
AcDbEntity
  8
Capa 1
 62
   250
420
  1842203
370
    13
100
AcDbVertex
100
AcDb2dVertex
 10
137.9188855992008
 20
162.745449449331
 30
0.0
  0
VERTEX
  5
D4
330
D1
100
AcDbEntity
  8
Capa 1
 62
   250
420
  1842203
370
    13
100
AcDbVertex
100
AcDb2dVertex
 10
140.2760199302088
 20
162.745449449331
 30
0.0
  0
VERTEX
  5
D5
330
D1
100
AcDbEntity
  8
Capa 1
 62
   250
420
  1842203
370
    13
100
AcDbVertex
100
AcDb2dVertex
 10
140.2767089493058
 20
136.6576361420509
 30
0.0
  0
SEQEND
  5
D6
330
D1
100
AcDbEntity
  8
Capa 1
370
    13
  0
POLYLINE
  5
D7
330
3C
100
AcDbEntity
  8
Capa 1
 62
   250
420
  1842203
370
    13
100
AcDb2dPolyline
 66
     1
 10
0.0
 20
0.0
 30
0.0
  0
VERTEX
  5
D8
330
D7
100
AcDbEntity
  8
Capa 1
 62
   250
420
  1842203
370
    13
100
AcDbVertex
100
AcDb2dVertex
 10
129.9104166341891
 20
157.5092488212998
 30
0.0
  0
VERTEX
  5
D9
330
D7
100
AcDbEntity
  8
Capa 1
 62
   250
420
  1842203
370
    13
100
AcDbVertex
100
AcDb2dVertex
 10
129.9104166341891
 20
158.8106336408529
 30
0.0
  0
VERTEX
  5
DA
330
D7
100
AcDbEntity
  8
Capa 1
 62
   250
420
  1842203
370
    13
100
AcDbVertex
100
AcDb2dVertex
 10
131.4634656789397
 20
158.8106336408529
 30
0.0
  0
VERTEX
  5
DB
330
D7
100
AcDbEntity
  8
Capa 1
 62
   250
420
  1842203
370
    13
100
AcDbVertex
100
AcDb2dVertex
 10
131.4634656789397
 20
157.5092488212998
 30
0.0
  0
SEQEND
  5
DC
330
D7
100
AcDbEntity
  8
Capa 1
370
    13
  0
POLYLINE
  5
DD
330
3C
100
AcDbEntity
  8
Capa 1
 62
   250
420
  1842203
370
    13
100
AcDb2dPolyline
 66
     1
 10
0.0
 20
0.0
 30
0.0
  0
VERTEX
  5
DE
330
DD
100
AcDbEntity
  8
Capa 1
 62
   250
420
  1842203
370
    13
100
AcDbVertex
100
AcDb2dVertex
 10
131.4634656789397
 20
158.4387355832202
 30
0.0
  0
VERTEX
  5
DF
330
DD
100
AcDbEntity
  8
Capa 1
 62
   250
420
  1842203
370
    13
100
AcDbVertex
100
AcDb2dVertex
 10
129.9104166341891
 20
158.4387355832202
 30
0.0
  0
SEQEND
  5
E0
330
DD
100
AcDbEntity
  8
Capa 1
370
    13
  0
SPLINE
  5
E1
330
3C
100
AcDbEntity
  8
Capa 1
 62
   250
420
  1842203
370
    13
100
AcDbSpline
210
0.0
220
0.0
230
1.0
 70
    11
 71
     3
 72
    20
 73
    16
 74
     0
 42
0.0000000001
 43
0.0000000001
 40
0.0
 40
0.0
 40
0.0
 40
0.0
 40
1.0
 40
1.0
 40
1.0
 40
2.0
 40
2.0
 40
2.0
 40
3.0
 40
3.0
 40
3.0
 40
4.0
 40
4.0
 40
4.0
 40
5.0
 40
5.0
 40
5.0
 40
5.0
 10
139.3120822134359
 20
163.4268893363134
 30
0.0
 10
139.5532388974034
 20
163.4268893363134
 30
0.0
 10
139.740652091801
 20
163.6439303518842
 30
0.0
 10
139.740652091801
 20
163.9228108314151
 30
0.0
 10
139.740652091801
 20
164.2015190561719
 30
0.0
 10
139.5532388974034
 20
164.4185600717426
 30
0.0
 10
139.3120822134359
 20
164.4185600717426
 30
0.0
 10
139.0709255294684
 20
164.4185600717426
 30
0.0
 10
138.8835123350708
 20
164.2015190561719
 30
0.0
 10
138.8835123350708
 20
163.9228108314151
 30
0.0
 10
138.8835123350708
 20
163.6439303518842
 30
0.0
 10
139.0709255294684
 20
163.4268893363134
 30
0.0
 10
139.3120822134359
 20
163.4268893363134
 30
0.0
 10
139.3120822134359
 20
163.4268893363134
 30
0.0
 10
139.3120822134359
 20
163.4268893363134
 30
0.0
 10
139.3120822134359
 20
163.4268893363134
 30
0.0
  0
SPLINE
  5
E2
330
3C
100
AcDbEntity
  8
Capa 1
 62
   250
420
  1842203
370
    13
100
AcDbSpline
210
0.0
220
0.0
230
1.0
 70
    11
 71
     3
 72
    20
 73
    16
 74
     0
 42
0.0000000001
 43
0.0000000001
 40
0.0
 40
0.0
 40
0.0
 40
0.0
 40
1.0
 40
1.0
 40
1.0
 40
2.0
 40
2.0
 40
2.0
 40
3.0
 40
3.0
 40
3.0
 40
4.0
 40
4.0
 40
4.0
 40
5.0
 40
5.0
 40
5.0
 40
5.0
 10
122.1424153340477
 20
163.3340440129859
 30
0.0
 10
122.3835720180152
 20
163.3340440129859
 30
0.0
 10
122.5709852124128
 20
163.5509127737824
 30
0.0
 10
122.5709852124128
 20
163.8297932533134
 30
0.0
 10
122.5709852124128
 20
164.1086737328444
 30
0.0
 10
122.3835720180152
 20
164.3255424936409
 30
0.0
 10
122.1424153340477
 20
164.3255424936409
 30
0.0
 10
121.9012586500803
 20
164.3255424936409
 30
0.0
 10
121.7138454556827
 20
164.1086737328444
 30
0.0
 10
121.7138454556827
 20
163.8297932533134
 30
0.0
 10
121.7138454556827
 20
163.5509127737824
 30
0.0
 10
121.9012586500803
 20
163.3340440129859
 30
0.0
 10
122.1424153340477
 20
163.3340440129859
 30
0.0
 10
122.1424153340477
 20
163.3340440129859
 30
0.0
 10
122.1424153340477
 20
163.3340440129859
 30
0.0
 10
122.1424153340477
 20
163.3340440129859
 30
0.0
  0
POLYLINE
  5
E3
330
3C
100
AcDbEntity
  8
Capa 1
 62
   250
420
  1842203
370
    13
100
AcDb2dPolyline
 66
     1
 10
0.0
 20
0.0
 30
0.0
  0
VERTEX
  5
E4
330
E3
100
AcDbEntity
  8
Capa 1
 62
   250
420
  1842203
370
    13
100
AcDbVertex
100
AcDb2dVertex
 10
121.1777885981778
 20
137.928187357011
 30
0.0
  0
VERTEX
  5
E5
330
E3
100
AcDbEntity
  8
Capa 1
 62
   250
420
  1842203
370
    13
100
AcDbVertex
100
AcDb2dVertex
 10
140.169221970166
 20
137.928187357011
 30
0.0
  0
SEQEND
  5
E6
330
E3
100
AcDbEntity
  8
Capa 1
370
    13
  0
POLYLINE
  5
E7
330
3C
100
AcDbEntity
  8
Capa 1
 62
   250
420
  1842203
370
    13
100
AcDb2dPolyline
 66
     1
 10
0.0
 20
0.0
 30
0.0
  0
VERTEX
  5
E8
330
E7
100
AcDbEntity
  8
Capa 1
 62
   250
420
  1842203
370
    13
100
AcDbVertex
100
AcDb2dVertex
 10
121.1777885981778
 20
136.7196478607854
 30
0.0
  0
VERTEX
  5
E9
330
E7
100
AcDbEntity
  8
Capa 1
 62
   250
420
  1842203
370
    13
100
AcDbVertex
100
AcDb2dVertex
 10
126.213829178516
 20
136.7196478607854
 30
0.0
  0
VERTEX
  5
EA
330
E7
100
AcDbEntity
  8
Capa 1
 62
   250
420
  1842203
370
    13
100
AcDbVertex
100
AcDb2dVertex
 10
126.213829178516
 20
136.7196478607854
 30
0.0
  0
VERTEX
  5
EB
330
E7
100
AcDbEntity
  8
Capa 1
 62
   250
420
  1842203
370
    13
100
AcDbVertex
100
AcDb2dVertex
 10
126.8835557408486
 20
137.2774088198473
 30
0.0
  0
SEQEND
  5
EC
330
E7
100
AcDbEntity
  8
Capa 1
370
    13
  0
POLYLINE
  5
ED
330
3C
100
AcDbEntity
  8
Capa 1
 62
   250
420
  1842203
370
    13
100
AcDb2dPolyline
 66
     1
 10
0.0
 20
0.0
 30
0.0
  0
VERTEX
  5
EE
330
ED
100
AcDbEntity
  8
Capa 1
 62
   250
420
  1842203
370
    13
100
AcDbVertex
100
AcDb2dVertex
 10
126.213829178516
 20
136.7196478607854
 30
0.0
  0
VERTEX
  5
EF
330
ED
100
AcDbEntity
  8
Capa 1
 62
   250
420
  1842203
370
    13
100
AcDbVertex
100
AcDb2dVertex
 10
126.213829178516
 20
137.928187357011
 30
0.0
  0
SEQEND
  5
F0
330
ED
100
AcDbEntity
  8
Capa 1
370
    13
  0
POLYLINE
  5
F1
330
3C
100
AcDbEntity
  8
Capa 1
 62
   250
420
  1842203
370
    13
100
AcDb2dPolyline
 66
     1
 10
0.0
 20
0.0
 30
0.0
  0
VERTEX
  5
F2
330
F1
100
AcDbEntity
  8
Capa 1
 62
   250
420
  1842203
370
    13
100
AcDbVertex
100
AcDb2dVertex
 10
126.213829178516
 20
137.2774088198473
 30
0.0
  0
VERTEX
  5
F3
330
F1
100
AcDbEntity
  8
Capa 1
 62
   250
420
  1842203
370
    13
100
AcDbVertex
100
AcDb2dVertex
 10
126.8835557408486
 20
137.2774088198473
 30
0.0
  0
SEQEND
  5
F4
330
F1
100
AcDbEntity
  8
Capa 1
370
    13
  0
POLYLINE
  5
F5
330
3C
100
AcDbEntity
  8
Capa 1
 62
   250
420
  1842203
370
     9
100
AcDb2dPolyline
 66
     1
 10
0.0
 20
0.0
 30
0.0
  0
VERTEX
  5
F6
330
F5
100
AcDbEntity
  8
Capa 1
 62
   250
420
  1842203
370
     9
100
AcDbVertex
100
AcDb2dVertex
 10
141.6292534368149
 20
165.0381604947648
 30
0.0
  0
VERTEX
  5
F7
330
F5
100
AcDbEntity
  8
Capa 1
 62
   250
420
  1842203
370
     9
100
AcDbVertex
100
AcDb2dVertex
 10
147.6960665863399
 20
165.0381604947648
 30
0.0
  0
SEQEND
  5
F8
330
F5
100
AcDbEntity
  8
Capa 1
370
     9
  0
POLYLINE
  5
F9
330
3C
100
AcDbEntity
  8
Capa 1
 62
   250
420
  1842203
370
     9
100
AcDb2dPolyline
 66
     1
 10
0.0
 20
0.0
 30
0.0
  0
VERTEX
  5
FA
330
F9
100
AcDbEntity
  8
Capa 1
 62
   250
420
  1842203
370
     9
100
AcDbVertex
100
AcDb2dVertex
 10
141.6292534368149
 20
157.5092488212998
 30
0.0
  0
VERTEX
  5
FB
330
F9
100
AcDbEntity
  8
Capa 1
 62
   250
420
  1842203
370
     9
100
AcDbVertex
100
AcDb2dVertex
 10
145.7220268732917
 20
157.5092488212998
 30
0.0
  0
SEQEND
  5
FC
330
F9
100
AcDbEntity
  8
Capa 1
370
     9
  0
POLYLINE
  5
FD
330
3C
100
AcDbEntity
  8
Capa 1
 62
   250
420
  1842203
370
     9
100
AcDb2dPolyline
 66
     1
 10
0.0
 20
0.0
 30
0.0
  0
VERTEX
  5
FE
330
FD
100
AcDbEntity
  8
Capa 1
 62
   250
420
  1842203
370
     9
100
AcDbVertex
100
AcDb2dVertex
 10
141.2833658500958
 20
137.928187357011
 30
0.0
  0
VERTEX
  5
FF
330
FD
100
AcDbEntity
  8
Capa 1
 62
   250
420
  1842203
370
     9
100
AcDbVertex
100
AcDb2dVertex
 10
141.9937445391543
 20
137.928187357011
 30
0.0
  0
VERTEX
  5
100
330
FD
100
AcDbEntity
  8
Capa 1
 62
   250
420
  1842203
370
     9
100
AcDbVertex
100
AcDb2dVertex
 10
142.2583278724215
 20
137.928187357011
 30
0.0
  0
SEQEND
  5
101
330
FD
100
AcDbEntity
  8
Capa 1
370
     9
  0
POLYLINE
  5
102
330
3C
100
AcDbEntity
  8
Capa 1
 62
   250
420
  1842203
370
     9
100
AcDb2dPolyline
 66
     1
 10
0.0
 20
0.0
 30
0.0
  0
VERTEX
  5
103
330
102
100
AcDbEntity
  8
Capa 1
 62
   250
420
  1842203
370
     9
100
AcDbVertex
100
AcDb2dVertex
 10
141.2833658500958
 20
136.6886420014181
 30
0.0
  0
VERTEX
  5
104
330
102
100
AcDbEntity
  8
Capa 1
 62
   250
420
  1842203
370
     9
100
AcDbVertex
100
AcDb2dVertex
 10
147.6960665863399
 20
136.6886420014181
 30
0.0
  0
SEQEND
  5
105
330
102
100
AcDbEntity
  8
Capa 1
370
     9
  0
POLYLINE
  5
106
330
3C
100
AcDbEntity
  8
Capa 1
 62
   250
420
  1842203
370
     9
100
AcDb2dPolyline
 66
     1
 10
0.0
 20
0.0
 30
0.0
  0
VERTEX
  5
107
330
106
100
AcDbEntity
  8
Capa 1
 62
   250
420
  1842203
370
     9
100
AcDbVertex
100
AcDb2dVertex
 10
147.6960665863399
 20
137.5998697572667
 30
0.0
  0
VERTEX
  5
108
330
106
100
AcDbEntity
  8
Capa 1
 62
   250
420
  1842203
370
     9
100
AcDbVertex
100
AcDb2dVertex
 10
147.6960665863399
 20
146.7910400023648
 30
0.0
  0
VERTEX
  5
109
330
106
100
AcDbEntity
  8
Capa 1
 62
   250
420
  1842203
370
     9
100
AcDbVertex
100
AcDb2dVertex
 10
147.6960665863399
 20
146.7517659138329
 30
0.0
  0
VERTEX
  5
10A
330
106
100
AcDbEntity
  8
Capa 1
 62
   250
420
  1842203
370
     9
100
AcDbVertex
100
AcDb2dVertex
 10
147.6960665863399
 20
148.6289984437455
 30
0.0
  0
SEQEND
  5
10B
330
106
100
AcDbEntity
  8
Capa 1
370
     9
  0
POLYLINE
  5
10C
330
3C
100
AcDbEntity
  8
Capa 1
370
     0
100
AcDb2dPolyline
 66
     1
 10
0.0
 20
0.0
 30
0.0
  0
VERTEX
  5
10D
330
10C
100
AcDbEntity
  8
Capa 1
370
     0
100
AcDbVertex
100
AcDb2dVertex
 10
147.6960665863399
 20
136.6900200396122
 30
0.0
  0
VERTEX
  5
10E
330
10C
100
AcDbEntity
  8
Capa 1
370
     0
100
AcDbVertex
100
AcDb2dVertex
 10
147.2351128104135
 20
137.6119275914651
 30
0.0
  0
VERTEX
  5
10F
330
10C
100
AcDbEntity
  8
Capa 1
370
     0
100
AcDbVertex
100
AcDb2dVertex
 10
148.1570203622663
 20
137.6119275914651
 30
0.0
  0
VERTEX
  5
110
330
10C
100
AcDbEntity
  8
Capa 1
370
     0
100
AcDbVertex
100
AcDb2dVertex
 10
147.6960665863399
 20
136.6900200396122
 30
0.0
  0
VERTEX
  5
111
330
10C
100
AcDbEntity
  8
Capa 1
370
     0
100
AcDbVertex
100
AcDb2dVertex
 10
147.6960665863399
 20
136.6900200396122
 30
0.0
  0
SEQEND
  5
112
330
10C
100
AcDbEntity
  8
Capa 1
370
     0
  0
HATCH
  5
113
330
3C
100
AcDbEntity
  8
Capa 1
 62
   250
420
  1842203
100
AcDbHatch
 10
0.0
 20
0.0
 30
0.0
210
0.0
220
0.0
230
1.0
  2
SOLID
 70
     1
 71
     0
 91
        1
 92
        1
 93
        3
 72
     1
 10
147.6960665863399
 20
136.6900200396122
 11
147.2351128104135
 21
137.6119275914651
 72
     1
 10
147.2351128104135
 20
137.6119275914651
 11
148.1570203622663
 21
137.6119275914651
 72
     1
 10
148.1570203622663
 20
137.6119275914651
 11
147.6960665863399
 21
136.6900200396122
 97
        0
 75
     0
 76
     1
 98
        0
  0
POLYLINE
  5
114
330
3C
100
AcDbEntity
  8
Capa 1
 62
   250
420
  1842203
370
     9
100
AcDb2dPolyline
 66
     1
 10
0.0
 20
0.0
 30
0.0
  0
VERTEX
  5
115
330
114
100
AcDbEntity
  8
Capa 1
 62
   250
420
  1842203
370
     9
100
AcDbVertex
100
AcDb2dVertex
 10
145.2107747032806
 20
145.5918022639493
 30
0.0
  0
VERTEX
  5
116
330
114
100
AcDbEntity
  8
Capa 1
 62
   250
420
  1842203
370
     9
100
AcDbVertex
100
AcDb2dVertex
 10
145.2107747032806
 20
137.5998697572667
 30
0.0
  0
SEQEND
  5
117
330
114
100
AcDbEntity
  8
Capa 1
370
     9
  0
POLYLINE
  5
118
330
3C
100
AcDbEntity
  8
Capa 1
370
     0
100
AcDb2dPolyline
 66
     1
 10
0.0
 20
0.0
 30
0.0
  0
VERTEX
  5
119
330
118
100
AcDbEntity
  8
Capa 1
370
     0
100
AcDbVertex
100
AcDb2dVertex
 10
145.2107747032806
 20
136.6900200396122
 30
0.0
  0
VERTEX
  5
11A
330
118
100
AcDbEntity
  8
Capa 1
370
     0
100
AcDbVertex
100
AcDb2dVertex
 10
145.6717284792071
 20
137.6119275914651
 30
0.0
  0
VERTEX
  5
11B
330
118
100
AcDbEntity
  8
Capa 1
370
     0
100
AcDbVertex
100
AcDb2dVertex
 10
144.7498209273542
 20
137.6119275914651
 30
0.0
  0
VERTEX
  5
11C
330
118
100
AcDbEntity
  8
Capa 1
370
     0
100
AcDbVertex
100
AcDb2dVertex
 10
145.2107747032806
 20
136.6900200396122
 30
0.0
  0
VERTEX
  5
11D
330
118
100
AcDbEntity
  8
Capa 1
370
     0
100
AcDbVertex
100
AcDb2dVertex
 10
145.2107747032806
 20
136.6900200396122
 30
0.0
  0
SEQEND
  5
11E
330
118
100
AcDbEntity
  8
Capa 1
370
     0
  0
HATCH
  5
11F
330
3C
100
AcDbEntity
  8
Capa 1
 62
   250
420
  1842203
100
AcDbHatch
 10
0.0
 20
0.0
 30
0.0
210
0.0
220
0.0
230
1.0
  2
SOLID
 70
     1
 71
     0
 91
        1
 92
        1
 93
        3
 72
     1
 10
145.2107747032806
 20
136.6900200396122
 11
145.6717284792071
 21
137.6119275914651
 72
     1
 10
145.6717284792071
 20
137.6119275914651
 11
144.7498209273542
 21
137.6119275914651
 72
     1
 10
144.7498209273542
 20
137.6119275914651
 11
145.2107747032806
 21
136.6900200396122
 97
        0
 75
     0
 76
     1
 98
        0
  0
POLYLINE
  5
120
330
3C
100
AcDbEntity
  8
Capa 1
 62
   250
420
  1842203
370
     9
100
AcDb2dPolyline
 66
     1
 10
0.0
 20
0.0
 30
0.0
  0
VERTEX
  5
121
330
120
100
AcDbEntity
  8
Capa 1
 62
   250
420
  1842203
370
     9
100
AcDbVertex
100
AcDb2dVertex
 10
141.8297579940565
 20
140.1699109892631
 30
0.0
  0
VERTEX
  5
122
330
120
100
AcDbEntity
  8
Capa 1
 62
   250
420
  1842203
370
     9
100
AcDbVertex
100
AcDb2dVertex
 10
141.8297579940565
 20
138.8390706033111
 30
0.0
  0
SEQEND
  5
123
330
120
100
AcDbEntity
  8
Capa 1
370
     9
  0
POLYLINE
  5
124
330
3C
100
AcDbEntity
  8
Capa 1
370
     0
100
AcDb2dPolyline
 66
     1
 10
0.0
 20
0.0
 30
0.0
  0
VERTEX
  5
125
330
124
100
AcDbEntity
  8
Capa 1
370
     0
100
AcDbVertex
100
AcDb2dVertex
 10
141.8297579940565
 20
137.9295653952051
 30
0.0
  0
VERTEX
  5
126
330
124
100
AcDbEntity
  8
Capa 1
370
     0
100
AcDbVertex
100
AcDb2dVertex
 10
142.2907117699829
 20
138.8511284375095
 30
0.0
  0
VERTEX
  5
127
330
124
100
AcDbEntity
  8
Capa 1
370
     0
100
AcDbVertex
100
AcDb2dVertex
 10
141.36880421813
 20
138.8511284375095
 30
0.0
  0
VERTEX
  5
128
330
124
100
AcDbEntity
  8
Capa 1
370
     0
100
AcDbVertex
100
AcDb2dVertex
 10
141.8297579940565
 20
137.9295653952051
 30
0.0
  0
VERTEX
  5
129
330
124
100
AcDbEntity
  8
Capa 1
370
     0
100
AcDbVertex
100
AcDb2dVertex
 10
141.8297579940565
 20
137.9295653952051
 30
0.0
  0
SEQEND
  5
12A
330
124
100
AcDbEntity
  8
Capa 1
370
     0
  0
HATCH
  5
12B
330
3C
100
AcDbEntity
  8
Capa 1
 62
   250
420
  1842203
100
AcDbHatch
 10
0.0
 20
0.0
 30
0.0
210
0.0
220
0.0
230
1.0
  2
SOLID
 70
     1
 71
     0
 91
        1
 92
        1
 93
        3
 72
     1
 10
141.8297579940565
 20
137.9295653952051
 11
142.2907117699829
 21
138.8511284375095
 72
     1
 10
142.2907117699829
 20
138.8511284375095
 11
141.36880421813
 21
138.8511284375095
 72
     1
 10
141.36880421813
 20
138.8511284375095
 11
141.8297579940565
 21
137.9295653952051
 97
        0
 75
     0
 76
     1
 98
        0
  0
POLYLINE
  5
12C
330
3C
100
AcDbEntity
  8
Capa 1
 62
   250
420
  1842203
370
    13
100
AcDb2dPolyline
 66
     1
 10
0.0
 20
0.0
 30
0.0
  0
VERTEX
  5
12D
330
12C
100
AcDbEntity
  8
Capa 1
 62
   250
420
  1842203
370
    13
100
AcDbVertex
100
AcDb2dVertex
 10
135.1331813898278
 20
136.7196478607854
 30
0.0
  0
VERTEX
  5
12E
330
12C
100
AcDbEntity
  8
Capa 1
 62
   250
420
  1842203
370
    13
100
AcDbVertex
100
AcDb2dVertex
 10
134.4634548274952
 20
137.2774088198473
 30
0.0
  0
SEQEND
  5
12F
330
12C
100
AcDbEntity
  8
Capa 1
370
    13
  0
POLYLINE
  5
130
330
3C
100
AcDbEntity
  8
Capa 1
 62
   250
420
  1842203
370
    13
100
AcDb2dPolyline
 66
     1
 10
0.0
 20
0.0
 30
0.0
  0
VERTEX
  5
131
330
130
100
AcDbEntity
  8
Capa 1
 62
   250
420
  1842203
370
    13
100
AcDbVertex
100
AcDb2dVertex
 10
134.4634548274952
 20
137.2774088198473
 30
0.0
  0
VERTEX
  5
132
330
130
100
AcDbEntity
  8
Capa 1
 62
   250
420
  1842203
370
    13
100
AcDbVertex
100
AcDb2dVertex
 10
135.1331813898278
 20
137.2774088198473
 30
0.0
  0
SEQEND
  5
133
330
130
100
AcDbEntity
  8
Capa 1
370
    13
  0
POLYLINE
  5
134
330
3C
100
AcDbEntity
  8
Capa 1
 62
   250
420
  1842203
370
     9
100
AcDb2dPolyline
 66
     1
 10
0.0
 20
0.0
 30
0.0
  0
VERTEX
  5
135
330
134
100
AcDbEntity
  8
Capa 1
 62
   250
420
  1842203
370
     9
100
AcDbVertex
100
AcDb2dVertex
 10
140.4103786541335
 20
135.605159471307
 30
0.0
  0
VERTEX
  5
136
330
134
100
AcDbEntity
  8
Capa 1
 62
   250
420
  1842203
370
     9
100
AcDbVertex
100
AcDb2dVertex
 10
140.4103786541335
 20
131.9795409826301
 30
0.0
  0
SEQEND
  5
137
330
134
100
AcDbEntity
  8
Capa 1
370
     9
  0
POLYLINE
  5
138
330
3C
100
AcDbEntity
  8
Capa 1
 62
   250
420
  1842203
370
     9
100
AcDb2dPolyline
 66
     1
 10
0.0
 20
0.0
 30
0.0
  0
VERTEX
  5
139
330
138
100
AcDbEntity
  8
Capa 1
 62
   250
420
  1842203
370
     9
100
AcDbVertex
100
AcDb2dVertex
 10
121.070990638135
 20
135.605159471307
 30
0.0
  0
VERTEX
  5
13A
330
138
100
AcDbEntity
  8
Capa 1
 62
   250
420
  1842203
370
     9
100
AcDbVertex
100
AcDb2dVertex
 10
121.070990638135
 20
131.9795409826301
 30
0.0
  0
SEQEND
  5
13B
330
138
100
AcDbEntity
  8
Capa 1
370
     9
  0
POLYLINE
  5
13C
330
3C
100
AcDbEntity
  8
Capa 1
 62
   250
420
  1842203
370
     9
100
AcDb2dPolyline
 66
     1
 10
0.0
 20
0.0
 30
0.0
  0
VERTEX
  5
13D
330
13C
100
AcDbEntity
  8
Capa 1
 62
   250
420
  1842203
370
     9
100
AcDbVertex
100
AcDb2dVertex
 10
132.143527527728
 20
132.847016025816
 30
0.0
  0
VERTEX
  5
13E
330
13C
100
AcDbEntity
  8
Capa 1
 62
   250
420
  1842203
370
     9
100
AcDbVertex
100
AcDb2dVertex
 10
139.4994954078335
 20
132.847016025816
 30
0.0
  0
SEQEND
  5
13F
330
13C
100
AcDbEntity
  8
Capa 1
370
     9
  0
POLYLINE
  5
140
330
3C
100
AcDbEntity
  8
Capa 1
370
     0
100
AcDb2dPolyline
 66
     1
 10
0.0
 20
0.0
 30
0.0
  0
VERTEX
  5
141
330
140
100
AcDbEntity
  8
Capa 1
370
     0
100
AcDbVertex
100
AcDb2dVertex
 10
140.4090006159394
 20
132.847016025816
 30
0.0
  0
VERTEX
  5
142
330
140
100
AcDbEntity
  8
Capa 1
370
     0
100
AcDbVertex
100
AcDb2dVertex
 10
139.4870930640866
 20
133.3076252921939
 30
0.0
  0
VERTEX
  5
143
330
140
100
AcDbEntity
  8
Capa 1
370
     0
100
AcDbVertex
100
AcDb2dVertex
 10
139.4870930640866
 20
132.3860622498896
 30
0.0
  0
VERTEX
  5
144
330
140
100
AcDbEntity
  8
Capa 1
370
     0
100
AcDbVertex
100
AcDb2dVertex
 10
140.4090006159394
 20
132.847016025816
 30
0.0
  0
VERTEX
  5
145
330
140
100
AcDbEntity
  8
Capa 1
370
     0
100
AcDbVertex
100
AcDb2dVertex
 10
140.4090006159394
 20
132.847016025816
 30
0.0
  0
SEQEND
  5
146
330
140
100
AcDbEntity
  8
Capa 1
370
     0
  0
HATCH
  5
147
330
3C
100
AcDbEntity
  8
Capa 1
 62
   250
420
  1842203
100
AcDbHatch
 10
0.0
 20
0.0
 30
0.0
210
0.0
220
0.0
230
1.0
  2
SOLID
 70
     1
 71
     0
 91
        1
 92
        1
 93
        3
 72
     1
 10
140.4090006159394
 20
132.847016025816
 11
139.4870930640866
 21
133.3076252921939
 72
     1
 10
139.4870930640866
 20
133.3076252921939
 11
139.4870930640866
 21
132.3860622498896
 72
     1
 10
139.4870930640866
 20
132.3860622498896
 11
140.4090006159394
 21
132.847016025816
 97
        0
 75
     0
 76
     1
 98
        0
  0
POLYLINE
  5
148
330
3C
100
AcDbEntity
  8
Capa 1
 62
   250
420
  1842203
370
    13
100
AcDb2dPolyline
 66
     1
 10
0.0
 20
0.0
 30
0.0
  0
VERTEX
  5
149
330
148
100
AcDbEntity
  8
Capa 1
 62
   250
420
  1842203
370
    13
100
AcDbVertex
100
AcDb2dVertex
 10
61.35146618474894
 20
155.3286756339109
 30
0.0
  0
VERTEX
  5
14A
330
148
100
AcDbEntity
  8
Capa 1
 62
   250
420
  1842203
370
    13
100
AcDbVertex
100
AcDb2dVertex
 10
84.87096080777532
 20
155.3286756339109
 30
0.0
  0
VERTEX
  5
14B
330
148
100
AcDbEntity
  8
Capa 1
 62
   250
420
  1842203
370
    13
100
AcDbVertex
100
AcDb2dVertex
 10
85.42562118090055
 20
155.3286756339109
 30
0.0
  0
VERTEX
  5
14C
330
148
100
AcDbEntity
  8
Capa 1
 62
   250
420
  1842203
370
    13
100
AcDbVertex
100
AcDb2dVertex
 10
85.42562118090055
 20
149.748826731226
 30
0.0
  0
VERTEX
  5
14D
330
148
100
AcDbEntity
  8
Capa 1
 62
   250
420
  1842203
370
    13
100
AcDbVertex
100
AcDb2dVertex
 10
85.20806340100701
 20
149.748826731226
 30
0.0
  0
SEQEND
  5
14E
330
148
100
AcDbEntity
  8
Capa 1
370
    13
  0
POLYLINE
  5
14F
330
3C
100
AcDbEntity
  8
Capa 1
 62
   250
420
  1842203
370
    13
100
AcDb2dPolyline
 66
     1
 10
0.0
 20
0.0
 30
0.0
  0
VERTEX
  5
150
330
14F
100
AcDbEntity
  8
Capa 1
 62
   250
420
  1842203
370
    13
100
AcDbVertex
100
AcDb2dVertex
 10
61.35146618474894
 20
155.3286756339109
 30
0.0
  0
VERTEX
  5
151
330
14F
100
AcDbEntity
  8
Capa 1
 62
   250
420
  1842203
370
    13
100
AcDbVertex
100
AcDb2dVertex
 10
61.35146618474894
 20
136.6931206255489
 30
0.0
  0
VERTEX
  5
152
330
14F
100
AcDbEntity
  8
Capa 1
 62
   250
420
  1842203
370
    13
100
AcDbVertex
100
AcDb2dVertex
 10
85.20806340100701
 20
136.7186143321398
 30
0.0
  0
VERTEX
  5
153
330
14F
100
AcDbEntity
  8
Capa 1
 62
   250
420
  1842203
370
    13
100
AcDbVertex
100
AcDb2dVertex
 10
85.20806340100701
 20
155.3286756339109
 30
0.0
  0
SEQEND
  5
154
330
14F
100
AcDbEntity
  8
Capa 1
370
    13
  0
POLYLINE
  5
155
330
3C
100
AcDbEntity
  8
Capa 1
 62
   250
420
  1842203
370
    13
100
AcDb2dPolyline
 66
     1
 10
0.0
 20
0.0
 30
0.0
  0
VERTEX
  5
156
330
155
100
AcDbEntity
  8
Capa 1
 62
   250
420
  1842203
370
    13
100
AcDbVertex
100
AcDb2dVertex
 10
61.35163843952321
 20
155.0320529126309
 30
0.0
  0
VERTEX
  5
157
330
155
100
AcDbEntity
  8
Capa 1
 62
   250
420
  1842203
370
    13
100
AcDbVertex
100
AcDb2dVertex
 10
61.35163843952321
 20
148.986943864663
 30
0.0
  0
SEQEND
  5
158
330
155
100
AcDbEntity
  8
Capa 1
370
    13
  0
POLYLINE
  5
159
330
3C
100
AcDbEntity
  8
Capa 1
 62
   250
420
  1842203
370
    13
100
AcDb2dPolyline
 66
     1
 10
0.0
 20
0.0
 30
0.0
  0
VERTEX
  5
15A
330
159
100
AcDbEntity
  8
Capa 1
 62
   250
420
  1842203
370
    13
100
AcDbVertex
100
AcDb2dVertex
 10
61.74300128664758
 20
155.0320529126309
 30
0.0
  0
VERTEX
  5
15B
330
159
100
AcDbEntity
  8
Capa 1
 62
   250
420
  1842203
370
    13
100
AcDbVertex
100
AcDb2dVertex
 10
61.74300128664758
 20
137.0741481862176
 30
0.0
  0
VERTEX
  5
15C
330
159
100
AcDbEntity
  8
Capa 1
 62
   250
420
  1842203
370
    13
100
AcDbVertex
100
AcDb2dVertex
 10
84.86854924093565
 20
137.0996418928084
 30
0.0
  0
VERTEX
  5
15D
330
159
100
AcDbEntity
  8
Capa 1
 62
   250
420
  1842203
370
    13
100
AcDbVertex
100
AcDb2dVertex
 10
84.86854924093565
 20
155.0320529126309
 30
0.0
  0
VERTEX
  5
15E
330
159
100
AcDbEntity
  8
Capa 1
 62
   250
420
  1842203
370
    13
100
AcDbVertex
100
AcDb2dVertex
 10
61.74300128664758
 20
155.0320529126309
 30
0.0
  0
VERTEX
  5
15F
330
159
100
AcDbEntity
  8
Capa 1
 62
   250
420
  1842203
370
    13
100
AcDbVertex
100
AcDb2dVertex
 10
61.74300128664758
 20
155.0320529126309
 30
0.0
  0
SEQEND
  5
160
330
159
100
AcDbEntity
  8
Capa 1
370
    13
  0
POLYLINE
  5
161
330
3C
100
AcDbEntity
  8
Capa 1
 62
   250
420
  1842203
370
    13
100
AcDb2dPolyline
 66
     1
 10
0.0
 20
0.0
 30
0.0
  0
VERTEX
  5
162
330
161
100
AcDbEntity
  8
Capa 1
 62
   250
420
  1842203
370
    13
100
AcDbVertex
100
AcDb2dVertex
 10
61.35163843952321
 20
155.3286756339109
 30
0.0
  0
VERTEX
  5
163
330
161
100
AcDbEntity
  8
Capa 1
 62
   250
420
  1842203
370
    13
100
AcDbVertex
100
AcDb2dVertex
 10
61.12133380633426
 20
155.3286756339109
 30
0.0
  0
VERTEX
  5
164
330
161
100
AcDbEntity
  8
Capa 1
 62
   250
420
  1842203
370
    13
100
AcDbVertex
100
AcDb2dVertex
 10
61.12133380633426
 20
149.748826731226
 30
0.0
  0
VERTEX
  5
165
330
161
100
AcDbEntity
  8
Capa 1
 62
   250
420
  1842203
370
    13
100
AcDbVertex
100
AcDb2dVertex
 10
61.35163843952321
 20
149.748826731226
 30
0.0
  0
SEQEND
  5
166
330
161
100
AcDbEntity
  8
Capa 1
370
    13
  0
POLYLINE
  5
167
330
3C
100
AcDbEntity
  8
Capa 1
 62
   250
420
  1842203
370
    13
100
AcDb2dPolyline
 66
     1
 10
0.0
 20
0.0
 30
0.0
  0
VERTEX
  5
168
330
167
100
AcDbEntity
  8
Capa 1
 62
   250
420
  1842203
370
    13
100
AcDbVertex
100
AcDb2dVertex
 10
85.20806340100701
 20
136.7179253130427
 30
0.0
  0
VERTEX
  5
169
330
167
100
AcDbEntity
  8
Capa 1
 62
   250
420
  1842203
370
    13
100
AcDbVertex
100
AcDb2dVertex
 10
85.4216593210925
 20
136.7179253130427
 30
0.0
  0
VERTEX
  5
16A
330
167
100
AcDbEntity
  8
Capa 1
 62
   250
420
  1842203
370
    13
100
AcDbVertex
100
AcDb2dVertex
 10
85.4216593210925
 20
141.4683674776537
 30
0.0
  0
VERTEX
  5
16B
330
167
100
AcDbEntity
  8
Capa 1
 62
   250
420
  1842203
370
    13
100
AcDbVertex
100
AcDb2dVertex
 10
85.20806340100701
 20
141.4683674776537
 30
0.0
  0
SEQEND
  5
16C
330
167
100
AcDbEntity
  8
Capa 1
370
    13
  0
POLYLINE
  5
16D
330
3C
100
AcDbEntity
  8
Capa 1
 62
   250
420
  1842203
370
    13
100
AcDb2dPolyline
 66
     1
 10
0.0
 20
0.0
 30
0.0
  0
VERTEX
  5
16E
330
16D
100
AcDbEntity
  8
Capa 1
 62
   250
420
  1842203
370
    13
100
AcDbVertex
100
AcDb2dVertex
 10
61.35163843952321
 20
141.4683674776537
 30
0.0
  0
VERTEX
  5
16F
330
16D
100
AcDbEntity
  8
Capa 1
 62
   250
420
  1842203
370
    13
100
AcDbVertex
100
AcDb2dVertex
 10
61.12133380633426
 20
141.4683674776537
 30
0.0
  0
VERTEX
  5
170
330
16D
100
AcDbEntity
  8
Capa 1
 62
   250
420
  1842203
370
    13
100
AcDbVertex
100
AcDb2dVertex
 10
61.12133380633426
 20
136.6934651350975
 30
0.0
  0
VERTEX
  5
171
330
16D
100
AcDbEntity
  8
Capa 1
 62
   250
420
  1842203
370
    13
100
AcDbVertex
100
AcDb2dVertex
 10
61.35163843952321
 20
136.6934651350975
 30
0.0
  0
SEQEND
  5
172
330
16D
100
AcDbEntity
  8
Capa 1
370
    13
  0
SPLINE
  5
173
330
3C
100
AcDbEntity
  8
Capa 1
 62
   250
420
  1842203
370
    13
100
AcDbSpline
210
0.0
220
0.0
230
1.0
 70
    11
 71
     3
 72
    20
 73
    16
 74
     0
 42
0.0000000001
 43
0.0000000001
 40
0.0
 40
0.0
 40
0.0
 40
0.0
 40
1.0
 40
1.0
 40
1.0
 40
2.0
 40
2.0
 40
2.0
 40
3.0
 40
3.0
 40
3.0
 40
4.0
 40
4.0
 40
4.0
 40
5.0
 40
5.0
 40
5.0
 40
5.0
 10
63.08469372337814
 20
137.6632595141953
 30
0.0
 10
63.17702228238283
 20
137.6632595141953
 30
0.0
 10
63.24609644686209
 20
137.6126166105621
 30
0.0
 10
63.24609644686209
 20
137.5109862937473
 30
0.0
 10
63.24609644686209
 20
137.4093559769324
 30
0.0
 10
63.17702228238283
 20
137.3583685637507
 30
0.0
 10
63.08469372337814
 20
137.3583685637507
 30
0.0
 10
62.99270967392196
 20
137.3583685637507
 30
0.0
 10
62.9236355094427
 20
137.4093559769324
 30
0.0
 10
62.9236355094427
 20
137.5109862937473
 30
0.0
 10
62.9236355094427
 20
137.6126166105621
 30
0.0
 10
62.99270967392196
 20
137.6632595141953
 30
0.0
 10
63.08469372337814
 20
137.6632595141953
 30
0.0
 10
63.08469372337814
 20
137.6632595141953
 30
0.0
 10
63.08469372337814
 20
137.6632595141953
 30
0.0
 10
63.08469372337814
 20
137.6632595141953
 30
0.0
  0
SPLINE
  5
174
330
3C
100
AcDbEntity
  8
Capa 1
 62
   250
420
  1842203
370
    13
100
AcDbSpline
210
0.0
220
0.0
230
1.0
 70
    11
 71
     3
 72
    20
 73
    16
 74
     0
 42
0.0000000001
 43
0.0000000001
 40
0.0
 40
0.0
 40
0.0
 40
0.0
 40
1.0
 40
1.0
 40
1.0
 40
2.0
 40
2.0
 40
2.0
 40
3.0
 40
3.0
 40
3.0
 40
4.0
 40
4.0
 40
4.0
 40
5.0
 40
5.0
 40
5.0
 40
5.0
 10
83.5695759882222
 20
154.778149375368
 30
0.0
 10
83.66173229245263
 20
154.778149375368
 30
0.0
 10
83.73080645693189
 20
154.7273342169605
 30
0.0
 10
83.73080645693189
 20
154.6257039001457
 30
0.0
 10
83.73080645693189
 20
154.5240735833308
 30
0.0
 10
83.66173229245263
 20
154.4732584249234
 30
0.0
 10
83.5695759882222
 20
154.4732584249234
 30
0.0
 10
83.47741968399176
 20
154.4732584249234
 30
0.0
 10
83.4083455195125
 20
154.5240735833308
 30
0.0
 10
83.4083455195125
 20
154.6257039001457
 30
0.0
 10
83.4083455195125
 20
154.7273342169605
 30
0.0
 10
83.47741968399176
 20
154.778149375368
 30
0.0
 10
83.5695759882222
 20
154.778149375368
 30
0.0
 10
83.5695759882222
 20
154.778149375368
 30
0.0
 10
83.5695759882222
 20
154.778149375368
 30
0.0
 10
83.5695759882222
 20
154.778149375368
 30
0.0
  0
POLYLINE
  5
175
330
3C
100
AcDbEntity
  8
Capa 1
 62
   250
420
  1842203
370
     9
100
AcDb2dPolyline
 66
     1
 10
0.0
 20
0.0
 30
0.0
  0
VERTEX
  5
176
330
175
100
AcDbEntity
  8
Capa 1
 62
   250
420
  1842203
370
     9
100
AcDbVertex
100
AcDb2dVertex
 10
86.53804251308772
 20
153.7620184619935
 30
0.0
  0
VERTEX
  5
177
330
175
100
AcDbEntity
  8
Capa 1
 62
   250
420
  1842203
370
     9
100
AcDbVertex
100
AcDb2dVertex
 10
88.0719712778952
 20
153.7620184619935
 30
0.0
  0
SEQEND
  5
178
330
175
100
AcDbEntity
  8
Capa 1
370
     9
  0
POLYLINE
  5
179
330
3C
100
AcDbEntity
  8
Capa 1
 62
   250
420
  1842203
370
     9
100
AcDb2dPolyline
 66
     1
 10
0.0
 20
0.0
 30
0.0
  0
VERTEX
  5
17A
330
179
100
AcDbEntity
  8
Capa 1
 62
   250
420
  1842203
370
     9
100
AcDbVertex
100
AcDb2dVertex
 10
86.54441593973543
 20
155.4130804732995
 30
0.0
  0
VERTEX
  5
17B
330
179
100
AcDbEntity
  8
Capa 1
 62
   250
420
  1842203
370
     9
100
AcDbVertex
100
AcDb2dVertex
 10
90.71056991004805
 20
155.4130804732995
 30
0.0
  0
SEQEND
  5
17C
330
179
100
AcDbEntity
  8
Capa 1
370
     9
  0
POLYLINE
  5
17D
330
3C
100
AcDbEntity
  8
Capa 1
 62
   250
420
  1842203
370
     9
100
AcDb2dPolyline
 66
     1
 10
0.0
 20
0.0
 30
0.0
  0
VERTEX
  5
17E
330
17D
100
AcDbEntity
  8
Capa 1
 62
   250
420
  1842203
370
     9
100
AcDbVertex
100
AcDb2dVertex
 10
86.60263805343615
 20
138.2682182814052
 30
0.0
  0
VERTEX
  5
17F
330
17D
100
AcDbEntity
  8
Capa 1
 62
   250
420
  1842203
370
     9
100
AcDbVertex
100
AcDb2dVertex
 10
88.05784638640569
 20
138.2682182814052
 30
0.0
  0
SEQEND
  5
180
330
17D
100
AcDbEntity
  8
Capa 1
370
     9
  0
POLYLINE
  5
181
330
3C
100
AcDbEntity
  8
Capa 1
 62
   250
420
  1842203
370
     9
100
AcDb2dPolyline
 66
     1
 10
0.0
 20
0.0
 30
0.0
  0
VERTEX
  5
182
330
181
100
AcDbEntity
  8
Capa 1
 62
   250
420
  1842203
370
     9
100
AcDbVertex
100
AcDb2dVertex
 10
90.7360636166389
 20
136.6931206255489
 30
0.0
  0
VERTEX
  5
183
330
181
100
AcDbEntity
  8
Capa 1
 62
   250
420
  1842203
370
     9
100
AcDbVertex
100
AcDb2dVertex
 10
86.5468275065751
 20
136.6931206255489
 30
0.0
  0
SEQEND
  5
184
330
181
100
AcDbEntity
  8
Capa 1
370
     9
  0
POLYLINE
  5
185
330
3C
100
AcDbEntity
  8
Capa 1
 62
   250
420
  1842203
370
     9
100
AcDb2dPolyline
 66
     1
 10
0.0
 20
0.0
 30
0.0
  0
VERTEX
  5
186
330
185
100
AcDbEntity
  8
Capa 1
 62
   250
420
  1842203
370
     9
100
AcDbVertex
100
AcDb2dVertex
 10
87.69748939864854
 20
152.800320057286
 30
0.0
  0
VERTEX
  5
187
330
185
100
AcDbEntity
  8
Capa 1
 62
   250
420
  1842203
370
     9
100
AcDbVertex
100
AcDb2dVertex
 10
87.69748939864854
 20
148.3158392641363
 30
0.0
  0
SEQEND
  5
188
330
185
100
AcDbEntity
  8
Capa 1
370
     9
  0
POLYLINE
  5
189
330
3C
100
AcDbEntity
  8
Capa 1
370
     0
100
AcDb2dPolyline
 66
     1
 10
0.0
 20
0.0
 30
0.0
  0
VERTEX
  5
18A
330
189
100
AcDbEntity
  8
Capa 1
370
     0
100
AcDbVertex
100
AcDb2dVertex
 10
87.69748939864854
 20
153.709825265392
 30
0.0
  0
VERTEX
  5
18B
330
189
100
AcDbEntity
  8
Capa 1
370
     0
100
AcDbVertex
100
AcDb2dVertex
 10
88.15844317457497
 20
152.7882622230877
 30
0.0
  0
VERTEX
  5
18C
330
189
100
AcDbEntity
  8
Capa 1
370
     0
100
AcDbVertex
100
AcDb2dVertex
 10
87.23653562272212
 20
152.7882622230877
 30
0.0
  0
VERTEX
  5
18D
330
189
100
AcDbEntity
  8
Capa 1
370
     0
100
AcDbVertex
100
AcDb2dVertex
 10
87.69748939864854
 20
153.709825265392
 30
0.0
  0
VERTEX
  5
18E
330
189
100
AcDbEntity
  8
Capa 1
370
     0
100
AcDbVertex
100
AcDb2dVertex
 10
87.69748939864854
 20
153.709825265392
 30
0.0
  0
SEQEND
  5
18F
330
189
100
AcDbEntity
  8
Capa 1
370
     0
  0
HATCH
  5
190
330
3C
100
AcDbEntity
  8
Capa 1
 62
   250
420
  1842203
100
AcDbHatch
 10
0.0
 20
0.0
 30
0.0
210
0.0
220
0.0
230
1.0
  2
SOLID
 70
     1
 71
     0
 91
        1
 92
        1
 93
        3
 72
     1
 10
87.69748939864854
 20
153.709825265392
 11
88.15844317457497
 21
152.7882622230877
 72
     1
 10
88.15844317457497
 20
152.7882622230877
 11
87.23653562272212
 21
152.7882622230877
 72
     1
 10
87.23653562272212
 20
152.7882622230877
 11
87.69748939864854
 21
153.709825265392
 97
        0
 75
     0
 76
     1
 98
        0
  0
POLYLINE
  5
191
330
3C
100
AcDbEntity
  8
Capa 1
 62
   250
420
  1842203
370
     9
100
AcDb2dPolyline
 66
     1
 10
0.0
 20
0.0
 30
0.0
  0
VERTEX
  5
192
330
191
100
AcDbEntity
  8
Capa 1
 62
   250
420
  1842203
370
     9
100
AcDbVertex
100
AcDb2dVertex
 10
90.16779511634694
 20
144.9534260705325
 30
0.0
  0
VERTEX
  5
193
330
191
100
AcDbEntity
  8
Capa 1
 62
   250
420
  1842203
370
     9
100
AcDbVertex
100
AcDb2dVertex
 10
90.16779511634694
 20
137.6043483813975
 30
0.0
  0
SEQEND
  5
194
330
191
100
AcDbEntity
  8
Capa 1
370
     9
  0
POLYLINE
  5
195
330
3C
100
AcDbEntity
  8
Capa 1
370
     0
100
AcDb2dPolyline
 66
     1
 10
0.0
 20
0.0
 30
0.0
  0
VERTEX
  5
196
330
195
100
AcDbEntity
  8
Capa 1
370
     0
100
AcDbVertex
100
AcDb2dVertex
 10
90.16779511634694
 20
136.6948431732916
 30
0.0
  0
VERTEX
  5
197
330
195
100
AcDbEntity
  8
Capa 1
370
     0
100
AcDbVertex
100
AcDb2dVertex
 10
90.62874889227338
 20
137.6164062155959
 30
0.0
  0
VERTEX
  5
198
330
195
100
AcDbEntity
  8
Capa 1
370
     0
100
AcDbVertex
100
AcDb2dVertex
 10
89.70684134042051
 20
137.6164062155959
 30
0.0
  0
VERTEX
  5
199
330
195
100
AcDbEntity
  8
Capa 1
370
     0
100
AcDbVertex
100
AcDb2dVertex
 10
90.16779511634694
 20
136.6948431732916
 30
0.0
  0
VERTEX
  5
19A
330
195
100
AcDbEntity
  8
Capa 1
370
     0
100
AcDbVertex
100
AcDb2dVertex
 10
90.16779511634694
 20
136.6948431732916
 30
0.0
  0
SEQEND
  5
19B
330
195
100
AcDbEntity
  8
Capa 1
370
     0
  0
HATCH
  5
19C
330
3C
100
AcDbEntity
  8
Capa 1
 62
   250
420
  1842203
100
AcDbHatch
 10
0.0
 20
0.0
 30
0.0
210
0.0
220
0.0
230
1.0
  2
SOLID
 70
     1
 71
     0
 91
        1
 92
        1
 93
        3
 72
     1
 10
90.16779511634694
 20
136.6948431732916
 11
90.62874889227338
 21
137.6164062155959
 72
     1
 10
90.62874889227338
 20
137.6164062155959
 11
89.70684134042051
 21
137.6164062155959
 72
     1
 10
89.70684134042051
 20
137.6164062155959
 11
90.16779511634694
 21
136.6948431732916
 97
        0
 75
     0
 76
     1
 98
        0
  0
POLYLINE
  5
19D
330
3C
100
AcDbEntity
  8
Capa 1
 62
   250
420
  1842203
370
     9
100
AcDb2dPolyline
 66
     1
 10
0.0
 20
0.0
 30
0.0
  0
VERTEX
  5
19E
330
19D
100
AcDbEntity
  8
Capa 1
 62
   250
420
  1842203
370
     9
100
AcDbVertex
100
AcDb2dVertex
 10
63.72289766202067
 20
137.6549912850307
 30
0.0
  0
VERTEX
  5
19F
330
19D
100
AcDbEntity
  8
Capa 1
 62
   250
420
  1842203
370
     9
100
AcDbVertex
100
AcDb2dVertex
 10
63.72289766202067
 20
133.3796277878357
 30
0.0
  0
SEQEND
  5
1A0
330
19D
100
AcDbEntity
  8
Capa 1
370
     9
  0
POLYLINE
  5
1A1
330
3C
100
AcDbEntity
  8
Capa 1
 62
   250
420
  1842203
370
     9
100
AcDb2dPolyline
 66
     1
 10
0.0
 20
0.0
 30
0.0
  0
VERTEX
  5
1A2
330
1A1
100
AcDbEntity
  8
Capa 1
 62
   250
420
  1842203
370
     9
100
AcDbVertex
100
AcDb2dVertex
 10
64.93143715824631
 20
137.6946098831111
 30
0.0
  0
VERTEX
  5
1A3
330
1A1
100
AcDbEntity
  8
Capa 1
 62
   250
420
  1842203
370
     9
100
AcDbVertex
100
AcDb2dVertex
 10
64.93143715824631
 20
133.419246385916
 30
0.0
  0
SEQEND
  5
1A4
330
1A1
100
AcDbEntity
  8
Capa 1
370
     9
  0
POLYLINE
  5
1A5
330
3C
100
AcDbEntity
  8
Capa 1
 62
   250
420
  1842203
370
     9
100
AcDb2dPolyline
 66
     1
 10
0.0
 20
0.0
 30
0.0
  0
VERTEX
  5
1A6
330
1A5
100
AcDbEntity
  8
Capa 1
 62
   250
420
  1842203
370
     9
100
AcDbVertex
100
AcDb2dVertex
 10
70.84769963506585
 20
133.7124240117108
 30
0.0
  0
VERTEX
  5
1A7
330
1A5
100
AcDbEntity
  8
Capa 1
 62
   250
420
  1842203
370
     9
100
AcDbVertex
100
AcDb2dVertex
 10
70.09908038612106
 20
133.7124240117108
 30
0.0
  0
SEQEND
  5
1A8
330
1A5
100
AcDbEntity
  8
Capa 1
370
     9
  0
POLYLINE
  5
1A9
330
3C
100
AcDbEntity
  8
Capa 1
370
     0
100
AcDb2dPolyline
 66
     1
 10
0.0
 20
0.0
 30
0.0
  0
VERTEX
  5
1AA
330
1A9
100
AcDbEntity
  8
Capa 1
370
     0
100
AcDbVertex
100
AcDb2dVertex
 10
71.75737709794608
 20
133.7124240117108
 30
0.0
  0
VERTEX
  5
1AB
330
1A9
100
AcDbEntity
  8
Capa 1
370
     0
100
AcDbVertex
100
AcDb2dVertex
 10
70.83564180086748
 20
133.2514702357844
 30
0.0
  0
VERTEX
  5
1AC
330
1A9
100
AcDbEntity
  8
Capa 1
370
     0
100
AcDbVertex
100
AcDb2dVertex
 10
70.83564180086748
 20
134.1733777876372
 30
0.0
  0
VERTEX
  5
1AD
330
1A9
100
AcDbEntity
  8
Capa 1
370
     0
100
AcDbVertex
100
AcDb2dVertex
 10
71.75737709794608
 20
133.7124240117108
 30
0.0
  0
VERTEX
  5
1AE
330
1A9
100
AcDbEntity
  8
Capa 1
370
     0
100
AcDbVertex
100
AcDb2dVertex
 10
71.75737709794608
 20
133.7124240117108
 30
0.0
  0
SEQEND
  5
1AF
330
1A9
100
AcDbEntity
  8
Capa 1
370
     0
  0
HATCH
  5
1B0
330
3C
100
AcDbEntity
  8
Capa 1
 62
   250
420
  1842203
100
AcDbHatch
 10
0.0
 20
0.0
 30
0.0
210
0.0
220
0.0
230
1.0
  2
SOLID
 70
     1
 71
     0
 91
        1
 92
        1
 93
        3
 72
     1
 10
71.75737709794608
 20
133.7124240117108
 11
70.83564180086748
 21
133.2514702357844
 72
     1
 10
70.83564180086748
 20
133.2514702357844
 11
70.83564180086748
 21
134.1733777876372
 72
     1
 10
70.83564180086748
 20
134.1733777876372
 11
71.75737709794608
 21
133.7124240117108
 97
        0
 75
     0
 76
     1
 98
        0
  0
POLYLINE
  5
1B1
330
3C
100
AcDbEntity
  8
Capa 1
 62
   250
420
  1842203
370
     9
100
AcDb2dPolyline
 66
     1
 10
0.0
 20
0.0
 30
0.0
  0
VERTEX
  5
1B2
330
1B1
100
AcDbEntity
  8
Capa 1
 62
   250
420
  1842203
370
     9
100
AcDbVertex
100
AcDb2dVertex
 10
71.75892739091444
 20
137.6536132468366
 30
0.0
  0
VERTEX
  5
1B3
330
1B1
100
AcDbEntity
  8
Capa 1
 62
   250
420
  1842203
370
     9
100
AcDbVertex
100
AcDb2dVertex
 10
71.75892739091444
 20
133.4292371628233
 30
0.0
  0
SEQEND
  5
1B4
330
1B1
100
AcDbEntity
  8
Capa 1
370
     9
  0
POLYLINE
  5
1B5
330
3C
100
AcDbEntity
  8
Capa 1
 62
   250
420
  1842203
370
     9
100
AcDb2dPolyline
 66
     1
 10
0.0
 20
0.0
 30
0.0
  0
VERTEX
  5
1B6
330
1B5
100
AcDbEntity
  8
Capa 1
 62
   250
420
  1842203
370
     9
100
AcDbVertex
100
AcDb2dVertex
 10
72.61124401396525
 20
137.6536132468366
 30
0.0
  0
VERTEX
  5
1B7
330
1B5
100
AcDbEntity
  8
Capa 1
 62
   250
420
  1842203
370
     9
100
AcDbVertex
100
AcDb2dVertex
 10
72.61124401396525
 20
133.4292371628233
 30
0.0
  0
SEQEND
  5
1B8
330
1B5
100
AcDbEntity
  8
Capa 1
370
     9
  0
POLYLINE
  5
1B9
330
3C
100
AcDbEntity
  8
Capa 1
 62
   250
420
  1842203
370
     9
100
AcDb2dPolyline
 66
     1
 10
0.0
 20
0.0
 30
0.0
  0
VERTEX
  5
1BA
330
1B9
100
AcDbEntity
  8
Capa 1
 62
   250
420
  1842203
370
     9
100
AcDbVertex
100
AcDb2dVertex
 10
61.07465276250912
 20
156.0535237240074
 30
0.0
  0
VERTEX
  5
1BB
330
1B9
100
AcDbEntity
  8
Capa 1
 62
   250
420
  1842203
370
     9
100
AcDbVertex
100
AcDb2dVertex
 10
61.07465276250912
 20
157.1656005466461
 30
0.0
  0
SEQEND
  5
1BC
330
1B9
100
AcDbEntity
  8
Capa 1
370
     9
  0
POLYLINE
  5
1BD
330
3C
100
AcDbEntity
  8
Capa 1
 62
   250
420
  1842203
370
     9
100
AcDb2dPolyline
 66
     1
 10
0.0
 20
0.0
 30
0.0
  0
VERTEX
  5
1BE
330
1BD
100
AcDbEntity
  8
Capa 1
 62
   250
420
  1842203
370
     9
100
AcDbVertex
100
AcDb2dVertex
 10
85.11022268922592
 20
156.0535237240074
 30
0.0
  0
VERTEX
  5
1BF
330
1BD
100
AcDbEntity
  8
Capa 1
 62
   250
420
  1842203
370
     9
100
AcDbVertex
100
AcDb2dVertex
 10
85.11022268922592
 20
157.1656005466461
 30
0.0
  0
SEQEND
  5
1C0
330
1BD
100
AcDbEntity
  8
Capa 1
370
     9
  0
POLYLINE
  5
1C1
330
3C
100
AcDbEntity
  8
Capa 1
 62
   250
420
  1842203
370
     9
100
AcDb2dPolyline
 66
     1
 10
0.0
 20
0.0
 30
0.0
  0
VERTEX
  5
1C2
330
1C1
100
AcDbEntity
  8
Capa 1
 62
   250
420
  1842203
370
     9
100
AcDbVertex
100
AcDb2dVertex
 10
84.19899493337734
 20
156.9116970093832
 30
0.0
  0
VERTEX
  5
1C3
330
1C1
100
AcDbEntity
  8
Capa 1
 62
   250
420
  1842203
370
     9
100
AcDbVertex
100
AcDb2dVertex
 10
74.87208792616045
 20
156.9116970093832
 30
0.0
  0
SEQEND
  5
1C4
330
1C1
100
AcDbEntity
  8
Capa 1
370
     9
  0
POLYLINE
  5
1C5
330
3C
100
AcDbEntity
  8
Capa 1
370
     0
100
AcDb2dPolyline
 66
     1
 10
0.0
 20
0.0
 30
0.0
  0
VERTEX
  5
1C6
330
1C5
100
AcDbEntity
  8
Capa 1
370
     0
100
AcDbVertex
100
AcDb2dVertex
 10
85.10867239625756
 20
156.9116970093832
 30
0.0
  0
VERTEX
  5
1C7
330
1C5
100
AcDbEntity
  8
Capa 1
370
     0
100
AcDbVertex
100
AcDb2dVertex
 10
84.18693709917896
 20
156.4507432334568
 30
0.0
  0
VERTEX
  5
1C8
330
1C5
100
AcDbEntity
  8
Capa 1
370
     0
100
AcDbVertex
100
AcDb2dVertex
 10
84.18693709917896
 20
157.3726507853096
 30
0.0
  0
VERTEX
  5
1C9
330
1C5
100
AcDbEntity
  8
Capa 1
370
     0
100
AcDbVertex
100
AcDb2dVertex
 10
85.10867239625756
 20
156.9116970093832
 30
0.0
  0
VERTEX
  5
1CA
330
1C5
100
AcDbEntity
  8
Capa 1
370
     0
100
AcDbVertex
100
AcDb2dVertex
 10
85.10867239625756
 20
156.9116970093832
 30
0.0
  0
SEQEND
  5
1CB
330
1C5
100
AcDbEntity
  8
Capa 1
370
     0
  0
HATCH
  5
1CC
330
3C
100
AcDbEntity
  8
Capa 1
 62
   250
420
  1842203
100
AcDbHatch
 10
0.0
 20
0.0
 30
0.0
210
0.0
220
0.0
230
1.0
  2
SOLID
 70
     1
 71
     0
 91
        1
 92
        1
 93
        3
 72
     1
 10
85.10867239625756
 20
156.9116970093832
 11
84.18693709917896
 21
156.4507432334568
 72
     1
 10
84.18693709917896
 20
156.4507432334568
 11
84.18693709917896
 21
157.3726507853096
 72
     1
 10
84.18693709917896
 20
157.3726507853096
 11
85.10867239625756
 21
156.9116970093832
 97
        0
 75
     0
 76
     1
 98
        0
  0
POLYLINE
  5
1CD
330
3C
100
AcDbEntity
  8
Capa 1
 62
   250
420
  1842203
370
     9
100
AcDb2dPolyline
 66
     1
 10
0.0
 20
0.0
 30
0.0
  0
VERTEX
  5
1CE
330
1CD
100
AcDbEntity
  8
Capa 1
 62
   250
420
  1842203
370
     9
100
AcDbVertex
100
AcDb2dVertex
 10
147.6960665863399
 20
136.6886420014181
 30
0.0
  0
VERTEX
  5
1CF
330
1CD
100
AcDbEntity
  8
Capa 1
 62
   250
420
  1842203
370
     9
100
AcDbVertex
100
AcDb2dVertex
 10
148.6069498326399
 20
136.6886420014181
 30
0.0
  0
SEQEND
  5
1D0
330
1CD
100
AcDbEntity
  8
Capa 1
370
     9
  0
POLYLINE
  5
1D1
330
3C
100
AcDbEntity
  8
Capa 1
 62
   250
420
  1842203
370
     9
100
AcDb2dPolyline
 66
     1
 10
0.0
 20
0.0
 30
0.0
  0
VERTEX
  5
1D2
330
1D1
100
AcDbEntity
  8
Capa 1
 62
   250
420
  1842203
370
     9
100
AcDbVertex
100
AcDb2dVertex
 10
147.6960665863399
 20
165.0381604947648
 30
0.0
  0
VERTEX
  5
1D3
330
1D1
100
AcDbEntity
  8
Capa 1
 62
   250
420
  1842203
370
     9
100
AcDbVertex
100
AcDb2dVertex
 10
148.4464083830273
 20
165.0381604947648
 30
0.0
  0
SEQEND
  5
1D4
330
1D1
100
AcDbEntity
  8
Capa 1
370
     9
  0
POLYLINE
  5
1D5
330
3C
100
AcDbEntity
  8
Capa 1
 62
   250
420
  1842203
370
     9
100
AcDb2dPolyline
 66
     1
 10
0.0
 20
0.0
 30
0.0
  0
VERTEX
  5
1D6
330
1D5
100
AcDbEntity
  8
Capa 1
 62
   250
420
  1842203
370
     9
100
AcDbVertex
100
AcDb2dVertex
 10
61.98536375403491
 20
156.9116970093832
 30
0.0
  0
VERTEX
  5
1D7
330
1D5
100
AcDbEntity
  8
Capa 1
 62
   250
420
  1842203
370
     9
100
AcDbVertex
100
AcDb2dVertex
 10
70.71213512772127
 20
156.9116970093832
 30
0.0
  0
SEQEND
  5
1D8
330
1D5
100
AcDbEntity
  8
Capa 1
370
     9
  0
POLYLINE
  5
1D9
330
3C
100
AcDbEntity
  8
Capa 1
370
     0
100
AcDb2dPolyline
 66
     1
 10
0.0
 20
0.0
 30
0.0
  0
VERTEX
  5
1DA
330
1D9
100
AcDbEntity
  8
Capa 1
370
     0
100
AcDbVertex
100
AcDb2dVertex
 10
61.07585854592895
 20
156.9116970093832
 30
0.0
  0
VERTEX
  5
1DB
330
1D9
100
AcDbEntity
  8
Capa 1
370
     0
100
AcDbVertex
100
AcDb2dVertex
 10
61.99742158823329
 20
157.3726507853096
 30
0.0
  0
VERTEX
  5
1DC
330
1D9
100
AcDbEntity
  8
Capa 1
370
     0
100
AcDbVertex
100
AcDb2dVertex
 10
61.99742158823329
 20
156.4507432334568
 30
0.0
  0
VERTEX
  5
1DD
330
1D9
100
AcDbEntity
  8
Capa 1
370
     0
100
AcDbVertex
100
AcDb2dVertex
 10
61.07585854592895
 20
156.9116970093832
 30
0.0
  0
VERTEX
  5
1DE
330
1D9
100
AcDbEntity
  8
Capa 1
370
     0
100
AcDbVertex
100
AcDb2dVertex
 10
61.07585854592895
 20
156.9116970093832
 30
0.0
  0
SEQEND
  5
1DF
330
1D9
100
AcDbEntity
  8
Capa 1
370
     0
  0
HATCH
  5
1E0
330
3C
100
AcDbEntity
  8
Capa 1
 62
   250
420
  1842203
100
AcDbHatch
 10
0.0
 20
0.0
 30
0.0
210
0.0
220
0.0
230
1.0
  2
SOLID
 70
     1
 71
     0
 91
        1
 92
        1
 93
        3
 72
     1
 10
61.07585854592895
 20
156.9116970093832
 11
61.99742158823329
 21
157.3726507853096
 72
     1
 10
61.99742158823329
 20
157.3726507853096
 11
61.99742158823329
 21
156.4507432334568
 72
     1
 10
61.99742158823329
 20
156.4507432334568
 11
61.07585854592895
 21
156.9116970093832
 97
        0
 75
     0
 76
     1
 98
        0
  0
POLYLINE
  5
1E1
330
3C
100
AcDbEntity
  8
Capa 1
 62
   250
420
  1842203
370
     9
100
AcDb2dPolyline
 66
     1
 10
0.0
 20
0.0
 30
0.0
  0
VERTEX
  5
1E2
330
1E1
100
AcDbEntity
  8
Capa 1
 62
   250
420
  1842203
370
     9
100
AcDbVertex
100
AcDb2dVertex
 10
90.16779511634694
 20
147.414602285195
 30
0.0
  0
VERTEX
  5
1E3
330
1E1
100
AcDbEntity
  8
Capa 1
 62
   250
420
  1842203
370
     9
100
AcDbVertex
100
AcDb2dVertex
 10
90.16779511634694
 20
154.5020249722252
 30
0.0
  0
SEQEND
  5
1E4
330
1E1
100
AcDbEntity
  8
Capa 1
370
     9
  0
POLYLINE
  5
1E5
330
3C
100
AcDbEntity
  8
Capa 1
370
     0
100
AcDb2dPolyline
 66
     1
 10
0.0
 20
0.0
 30
0.0
  0
VERTEX
  5
1E6
330
1E5
100
AcDbEntity
  8
Capa 1
370
     0
100
AcDbVertex
100
AcDb2dVertex
 10
90.16779511634694
 20
155.4117024351054
 30
0.0
  0
VERTEX
  5
1E7
330
1E5
100
AcDbEntity
  8
Capa 1
370
     0
100
AcDbVertex
100
AcDb2dVertex
 10
89.70684134042051
 20
154.4899671380268
 30
0.0
  0
VERTEX
  5
1E8
330
1E5
100
AcDbEntity
  8
Capa 1
370
     0
100
AcDbVertex
100
AcDb2dVertex
 10
90.62874889227338
 20
154.4899671380268
 30
0.0
  0
VERTEX
  5
1E9
330
1E5
100
AcDbEntity
  8
Capa 1
370
     0
100
AcDbVertex
100
AcDb2dVertex
 10
90.16779511634694
 20
155.4117024351054
 30
0.0
  0
VERTEX
  5
1EA
330
1E5
100
AcDbEntity
  8
Capa 1
370
     0
100
AcDbVertex
100
AcDb2dVertex
 10
90.16779511634694
 20
155.4117024351054
 30
0.0
  0
SEQEND
  5
1EB
330
1E5
100
AcDbEntity
  8
Capa 1
370
     0
  0
HATCH
  5
1EC
330
3C
100
AcDbEntity
  8
Capa 1
 62
   250
420
  1842203
100
AcDbHatch
 10
0.0
 20
0.0
 30
0.0
210
0.0
220
0.0
230
1.0
  2
SOLID
 70
     1
 71
     0
 91
        1
 92
        1
 93
        3
 72
     1
 10
90.16779511634694
 20
155.4117024351054
 11
89.70684134042051
 21
154.4899671380268
 72
     1
 10
89.70684134042051
 20
154.4899671380268
 11
90.62874889227338
 21
154.4899671380268
 72
     1
 10
90.62874889227338
 20
154.4899671380268
 11
90.16779511634694
 21
155.4117024351054
 97
        0
 75
     0
 76
     1
 98
        0
  0
POLYLINE
  5
1ED
330
3C
100
AcDbEntity
  8
Capa 1
 62
   250
420
  1842203
370
     9
100
AcDb2dPolyline
 66
     1
 10
0.0
 20
0.0
 30
0.0
  0
VERTEX
  5
1EE
330
1ED
100
AcDbEntity
  8
Capa 1
 62
   250
420
  1842203
370
     9
100
AcDbVertex
100
AcDb2dVertex
 10
87.69748939864854
 20
139.1791015277052
 30
0.0
  0
VERTEX
  5
1EF
330
1ED
100
AcDbEntity
  8
Capa 1
 62
   250
420
  1842203
370
     9
100
AcDbVertex
100
AcDb2dVertex
 10
87.69748939864854
 20
143.8261908277587
 30
0.0
  0
SEQEND
  5
1F0
330
1ED
100
AcDbEntity
  8
Capa 1
370
     9
  0
POLYLINE
  5
1F1
330
3C
100
AcDbEntity
  8
Capa 1
370
     0
100
AcDb2dPolyline
 66
     1
 10
0.0
 20
0.0
 30
0.0
  0
VERTEX
  5
1F2
330
1F1
100
AcDbEntity
  8
Capa 1
370
     0
100
AcDbVertex
100
AcDb2dVertex
 10
87.69748939864854
 20
138.2695963195993
 30
0.0
  0
VERTEX
  5
1F3
330
1F1
100
AcDbEntity
  8
Capa 1
370
     0
100
AcDbVertex
100
AcDb2dVertex
 10
87.23653562272212
 20
139.1911593619036
 30
0.0
  0
VERTEX
  5
1F4
330
1F1
100
AcDbEntity
  8
Capa 1
370
     0
100
AcDbVertex
100
AcDb2dVertex
 10
88.15844317457497
 20
139.1911593619036
 30
0.0
  0
VERTEX
  5
1F5
330
1F1
100
AcDbEntity
  8
Capa 1
370
     0
100
AcDbVertex
100
AcDb2dVertex
 10
87.69748939864854
 20
138.2695963195993
 30
0.0
  0
VERTEX
  5
1F6
330
1F1
100
AcDbEntity
  8
Capa 1
370
     0
100
AcDbVertex
100
AcDb2dVertex
 10
87.69748939864854
 20
138.2695963195993
 30
0.0
  0
SEQEND
  5
1F7
330
1F1
100
AcDbEntity
  8
Capa 1
370
     0
  0
HATCH
  5
1F8
330
3C
100
AcDbEntity
  8
Capa 1
 62
   250
420
  1842203
100
AcDbHatch
 10
0.0
 20
0.0
 30
0.0
210
0.0
220
0.0
230
1.0
  2
SOLID
 70
     1
 71
     0
 91
        1
 92
        1
 93
        3
 72
     1
 10
87.69748939864854
 20
138.2695963195993
 11
87.23653562272212
 21
139.1911593619036
 72
     1
 10
87.23653562272212
 20
139.1911593619036
 11
88.15844317457497
 21
139.1911593619036
 72
     1
 10
88.15844317457497
 20
139.1911593619036
 11
87.69748939864854
 21
138.2695963195993
 97
        0
 75
     0
 76
     1
 98
        0
  0
POLYLINE
  5
1F9
330
3C
100
AcDbEntity
  8
Capa 1
 62
   250
420
  1842203
370
     9
100
AcDb2dPolyline
 66
     1
 10
0.0
 20
0.0
 30
0.0
  0
VERTEX
  5
1FA
330
1F9
100
AcDbEntity
  8
Capa 1
 62
   250
420
  1842203
370
     9
100
AcDbVertex
100
AcDb2dVertex
 10
73.52212726026531
 20
133.7206922408754
 30
0.0
  0
VERTEX
  5
1FB
330
1F9
100
AcDbEntity
  8
Capa 1
 62
   250
420
  1842203
370
     9
100
AcDbVertex
100
AcDb2dVertex
 10
74.2707465092101
 20
133.7206922408754
 30
0.0
  0
SEQEND
  5
1FC
330
1F9
100
AcDbEntity
  8
Capa 1
370
     9
  0
POLYLINE
  5
1FD
330
3C
100
AcDbEntity
  8
Capa 1
370
     0
100
AcDb2dPolyline
 66
     1
 10
0.0
 20
0.0
 30
0.0
  0
VERTEX
  5
1FE
330
1FD
100
AcDbEntity
  8
Capa 1
370
     0
100
AcDbVertex
100
AcDb2dVertex
 10
72.61244979738508
 20
133.7206922408754
 30
0.0
  0
VERTEX
  5
1FF
330
1FD
100
AcDbEntity
  8
Capa 1
370
     0
100
AcDbVertex
100
AcDb2dVertex
 10
73.53418509446368
 20
134.1816460168018
 30
0.0
  0
VERTEX
  5
200
330
1FD
100
AcDbEntity
  8
Capa 1
370
     0
100
AcDbVertex
100
AcDb2dVertex
 10
73.53418509446368
 20
133.259738464949
 30
0.0
  0
VERTEX
  5
201
330
1FD
100
AcDbEntity
  8
Capa 1
370
     0
100
AcDbVertex
100
AcDb2dVertex
 10
72.61244979738508
 20
133.7206922408754
 30
0.0
  0
VERTEX
  5
202
330
1FD
100
AcDbEntity
  8
Capa 1
370
     0
100
AcDbVertex
100
AcDb2dVertex
 10
72.61244979738508
 20
133.7206922408754
 30
0.0
  0
SEQEND
  5
203
330
1FD
100
AcDbEntity
  8
Capa 1
370
     0
  0
HATCH
  5
204
330
3C
100
AcDbEntity
  8
Capa 1
 62
   250
420
  1842203
100
AcDbHatch
 10
0.0
 20
0.0
 30
0.0
210
0.0
220
0.0
230
1.0
  2
SOLID
 70
     1
 71
     0
 91
        1
 92
        1
 93
        3
 72
     1
 10
72.61244979738508
 20
133.7206922408754
 11
73.53418509446368
 21
134.1816460168018
 72
     1
 10
73.53418509446368
 20
134.1816460168018
 11
73.53418509446368
 21
133.259738464949
 72
     1
 10
73.53418509446368
 20
133.259738464949
 11
72.61244979738508
 21
133.7206922408754
 97
        0
 75
     0
 76
     1
 98
        0
  0
POLYLINE
  5
205
330
3C
100
AcDbEntity
  8
Capa 1
 62
   250
420
  1842203
370
     9
100
AcDb2dPolyline
 66
     1
 10
0.0
 20
0.0
 30
0.0
  0
VERTEX
  5
206
330
205
100
AcDbEntity
  8
Capa 1
 62
   250
420
  1842203
370
     9
100
AcDbVertex
100
AcDb2dVertex
 10
62.81184216094635
 20
133.7124240117108
 30
0.0
  0
VERTEX
  5
207
330
205
100
AcDbEntity
  8
Capa 1
 62
   250
420
  1842203
370
     9
100
AcDbVertex
100
AcDb2dVertex
 10
62.06322291200156
 20
133.7124240117108
 30
0.0
  0
SEQEND
  5
208
330
205
100
AcDbEntity
  8
Capa 1
370
     9
  0
POLYLINE
  5
209
330
3C
100
AcDbEntity
  8
Capa 1
370
     0
100
AcDb2dPolyline
 66
     1
 10
0.0
 20
0.0
 30
0.0
  0
VERTEX
  5
20A
330
209
100
AcDbEntity
  8
Capa 1
370
     0
100
AcDbVertex
100
AcDb2dVertex
 10
63.72151962382657
 20
133.7124240117108
 30
0.0
  0
VERTEX
  5
20B
330
209
100
AcDbEntity
  8
Capa 1
370
     0
100
AcDbVertex
100
AcDb2dVertex
 10
62.79978432674798
 20
133.2514702357844
 30
0.0
  0
VERTEX
  5
20C
330
209
100
AcDbEntity
  8
Capa 1
370
     0
100
AcDbVertex
100
AcDb2dVertex
 10
62.79978432674798
 20
134.1733777876372
 30
0.0
  0
VERTEX
  5
20D
330
209
100
AcDbEntity
  8
Capa 1
370
     0
100
AcDbVertex
100
AcDb2dVertex
 10
63.72151962382657
 20
133.7124240117108
 30
0.0
  0
VERTEX
  5
20E
330
209
100
AcDbEntity
  8
Capa 1
370
     0
100
AcDbVertex
100
AcDb2dVertex
 10
63.72151962382657
 20
133.7124240117108
 30
0.0
  0
SEQEND
  5
20F
330
209
100
AcDbEntity
  8
Capa 1
370
     0
  0
HATCH
  5
210
330
3C
100
AcDbEntity
  8
Capa 1
 62
   250
420
  1842203
100
AcDbHatch
 10
0.0
 20
0.0
 30
0.0
210
0.0
220
0.0
230
1.0
  2
SOLID
 70
     1
 71
     0
 91
        1
 92
        1
 93
        3
 72
     1
 10
63.72151962382657
 20
133.7124240117108
 11
62.79978432674798
 21
133.2514702357844
 72
     1
 10
62.79978432674798
 20
133.2514702357844
 11
62.79978432674798
 21
134.1733777876372
 72
     1
 10
62.79978432674798
 20
134.1733777876372
 11
63.72151962382657
 21
133.7124240117108
 97
        0
 75
     0
 76
     1
 98
        0
  0
POLYLINE
  5
211
330
3C
100
AcDbEntity
  8
Capa 1
 62
   250
420
  1842203
370
     9
100
AcDb2dPolyline
 66
     1
 10
0.0
 20
0.0
 30
0.0
  0
VERTEX
  5
212
330
211
100
AcDbEntity
  8
Capa 1
 62
   250
420
  1842203
370
     9
100
AcDbVertex
100
AcDb2dVertex
 10
65.84249265932063
 20
133.7124240117108
 30
0.0
  0
VERTEX
  5
213
330
211
100
AcDbEntity
  8
Capa 1
 62
   250
420
  1842203
370
     9
100
AcDbVertex
100
AcDb2dVertex
 10
66.59111190826542
 20
133.7124240117108
 30
0.0
  0
SEQEND
  5
214
330
211
100
AcDbEntity
  8
Capa 1
370
     9
  0
POLYLINE
  5
215
330
3C
100
AcDbEntity
  8
Capa 1
370
     0
100
AcDb2dPolyline
 66
     1
 10
0.0
 20
0.0
 30
0.0
  0
VERTEX
  5
216
330
215
100
AcDbEntity
  8
Capa 1
370
     0
100
AcDbVertex
100
AcDb2dVertex
 10
64.93281519644042
 20
133.7124240117108
 30
0.0
  0
VERTEX
  5
217
330
215
100
AcDbEntity
  8
Capa 1
370
     0
100
AcDbVertex
100
AcDb2dVertex
 10
65.854550493519
 20
134.1733777876372
 30
0.0
  0
VERTEX
  5
218
330
215
100
AcDbEntity
  8
Capa 1
370
     0
100
AcDbVertex
100
AcDb2dVertex
 10
65.854550493519
 20
133.2514702357844
 30
0.0
  0
VERTEX
  5
219
330
215
100
AcDbEntity
  8
Capa 1
370
     0
100
AcDbVertex
100
AcDb2dVertex
 10
64.93281519644042
 20
133.7124240117108
 30
0.0
  0
VERTEX
  5
21A
330
215
100
AcDbEntity
  8
Capa 1
370
     0
100
AcDbVertex
100
AcDb2dVertex
 10
64.93281519644042
 20
133.7124240117108
 30
0.0
  0
SEQEND
  5
21B
330
215
100
AcDbEntity
  8
Capa 1
370
     0
  0
HATCH
  5
21C
330
3C
100
AcDbEntity
  8
Capa 1
 62
   250
420
  1842203
100
AcDbHatch
 10
0.0
 20
0.0
 30
0.0
210
0.0
220
0.0
230
1.0
  2
SOLID
 70
     1
 71
     0
 91
        1
 92
        1
 93
        3
 72
     1
 10
64.93281519644042
 20
133.7124240117108
 11
65.854550493519
 21
134.1733777876372
 72
     1
 10
65.854550493519
 20
134.1733777876372
 11
65.854550493519
 21
133.2514702357844
 72
     1
 10
65.854550493519
 20
133.2514702357844
 11
64.93281519644042
 21
133.7124240117108
 97
        0
 75
     0
 76
     1
 98
        0
  0
POLYLINE
  5
21D
330
3C
100
AcDbEntity
  8
Capa 1
 62
   250
420
  1842203
370
     9
100
AcDb2dPolyline
 66
     1
 10
0.0
 20
0.0
 30
0.0
  0
VERTEX
  5
21E
330
21D
100
AcDbEntity
  8
Capa 1
 62
   250
420
  1842203
370
     9
100
AcDbVertex
100
AcDb2dVertex
 10
104.4592569725831
 20
132.8514946499469
 30
0.0
  0
VERTEX
  5
21F
330
21D
100
AcDbEntity
  8
Capa 1
 62
   250
420
  1842203
370
     9
100
AcDbVertex
100
AcDb2dVertex
 10
93.6904052500149
 20
132.8514946499469
 30
0.0
  0
SEQEND
  5
220
330
21D
100
AcDbEntity
  8
Capa 1
370
     9
  0
POLYLINE
  5
221
330
3C
100
AcDbEntity
  8
Capa 1
370
     0
100
AcDb2dPolyline
 66
     1
 10
0.0
 20
0.0
 30
0.0
  0
VERTEX
  5
222
330
221
100
AcDbEntity
  8
Capa 1
370
     0
100
AcDbVertex
100
AcDb2dVertex
 10
92.78090004190895
 20
132.8514946499469
 30
0.0
  0
VERTEX
  5
223
330
221
100
AcDbEntity
  8
Capa 1
370
     0
100
AcDbVertex
100
AcDb2dVertex
 10
93.70263533898753
 20
132.3905408740204
 30
0.0
  0
VERTEX
  5
224
330
221
100
AcDbEntity
  8
Capa 1
370
     0
100
AcDbVertex
100
AcDb2dVertex
 10
93.70263533898753
 20
133.3121039163248
 30
0.0
  0
VERTEX
  5
225
330
221
100
AcDbEntity
  8
Capa 1
370
     0
100
AcDbVertex
100
AcDb2dVertex
 10
92.78090004190895
 20
132.8514946499469
 30
0.0
  0
VERTEX
  5
226
330
221
100
AcDbEntity
  8
Capa 1
370
     0
100
AcDbVertex
100
AcDb2dVertex
 10
92.78090004190895
 20
132.8514946499469
 30
0.0
  0
SEQEND
  5
227
330
221
100
AcDbEntity
  8
Capa 1
370
     0
  0
HATCH
  5
228
330
3C
100
AcDbEntity
  8
Capa 1
 62
   250
420
  1842203
100
AcDbHatch
 10
0.0
 20
0.0
 30
0.0
210
0.0
220
0.0
230
1.0
  2
SOLID
 70
     1
 71
     0
 91
        1
 92
        1
 93
        3
 72
     1
 10
92.78090004190895
 20
132.8514946499469
 11
93.70263533898753
 21
132.3905408740204
 72
     1
 10
93.70263533898753
 20
132.3905408740204
 11
93.70263533898753
 21
133.3121039163248
 72
     1
 10
93.70263533898753
 20
133.3121039163248
 11
92.78090004190895
 21
132.8514946499469
 97
        0
 75
     0
 76
     1
 98
        0
  0
POLYLINE
  5
229
330
3C
100
AcDbEntity
  8
Capa 1
 62
   250
420
  1842203
370
     9
100
AcDb2dPolyline
 66
     1
 10
0.0
 20
0.0
 30
0.0
  0
VERTEX
  5
22A
330
229
100
AcDbEntity
  8
Capa 1
 62
   250
420
  1842203
370
     9
100
AcDbVertex
100
AcDb2dVertex
 10
129.6031141169048
 20
132.847016025816
 30
0.0
  0
VERTEX
  5
22B
330
229
100
AcDbEntity
  8
Capa 1
 62
   250
420
  1842203
370
     9
100
AcDbVertex
100
AcDb2dVertex
 10
121.9818738844351
 20
132.847016025816
 30
0.0
  0
SEQEND
  5
22C
330
229
100
AcDbEntity
  8
Capa 1
370
     9
  0
POLYLINE
  5
22D
330
3C
100
AcDbEntity
  8
Capa 1
370
     0
100
AcDb2dPolyline
 66
     1
 10
0.0
 20
0.0
 30
0.0
  0
VERTEX
  5
22E
330
22D
100
AcDbEntity
  8
Capa 1
370
     0
100
AcDbVertex
100
AcDb2dVertex
 10
121.0723686763291
 20
132.847016025816
 30
0.0
  0
VERTEX
  5
22F
330
22D
100
AcDbEntity
  8
Capa 1
370
     0
100
AcDbVertex
100
AcDb2dVertex
 10
121.994276228182
 20
132.3860622498896
 30
0.0
  0
VERTEX
  5
230
330
22D
100
AcDbEntity
  8
Capa 1
370
     0
100
AcDbVertex
100
AcDb2dVertex
 10
121.994276228182
 20
133.3076252921939
 30
0.0
  0
VERTEX
  5
231
330
22D
100
AcDbEntity
  8
Capa 1
370
     0
100
AcDbVertex
100
AcDb2dVertex
 10
121.0723686763291
 20
132.847016025816
 30
0.0
  0
VERTEX
  5
232
330
22D
100
AcDbEntity
  8
Capa 1
370
     0
100
AcDbVertex
100
AcDb2dVertex
 10
121.0723686763291
 20
132.847016025816
 30
0.0
  0
SEQEND
  5
233
330
22D
100
AcDbEntity
  8
Capa 1
370
     0
  0
HATCH
  5
234
330
3C
100
AcDbEntity
  8
Capa 1
 62
   250
420
  1842203
100
AcDbHatch
 10
0.0
 20
0.0
 30
0.0
210
0.0
220
0.0
230
1.0
  2
SOLID
 70
     1
 71
     0
 91
        1
 92
        1
 93
        3
 72
     1
 10
121.0723686763291
 20
132.847016025816
 11
121.994276228182
 21
132.3860622498896
 72
     1
 10
121.994276228182
 20
132.3860622498896
 11
121.994276228182
 21
133.3076252921939
 72
     1
 10
121.994276228182
 20
133.3076252921939
 11
121.0723686763291
 21
132.847016025816
 97
        0
 75
     0
 76
     1
 98
        0
  0
POLYLINE
  5
235
330
3C
100
AcDbEntity
  8
Capa 1
 62
   250
420
  1842203
370
     9
100
AcDb2dPolyline
 66
     1
 10
0.0
 20
0.0
 30
0.0
  0
VERTEX
  5
236
330
235
100
AcDbEntity
  8
Capa 1
 62
   250
420
  1842203
370
     9
100
AcDbVertex
100
AcDb2dVertex
 10
147.6960665863399
 20
164.1271049936905
 30
0.0
  0
VERTEX
  5
237
330
235
100
AcDbEntity
  8
Capa 1
 62
   250
420
  1842203
370
     9
100
AcDbVertex
100
AcDb2dVertex
 10
147.6960665863399
 20
155.3755289325103
 30
0.0
  0
VERTEX
  5
238
330
235
100
AcDbEntity
  8
Capa 1
 62
   250
420
  1842203
370
     9
100
AcDbVertex
100
AcDb2dVertex
 10
147.6960665863399
 20
155.4129082185252
 30
0.0
  0
VERTEX
  5
239
330
235
100
AcDbEntity
  8
Capa 1
 62
   250
420
  1842203
370
     9
100
AcDbVertex
100
AcDb2dVertex
 10
147.6960665863399
 20
153.6174967063873
 30
0.0
  0
SEQEND
  5
23A
330
235
100
AcDbEntity
  8
Capa 1
370
     9
  0
POLYLINE
  5
23B
330
3C
100
AcDbEntity
  8
Capa 1
370
     0
100
AcDb2dPolyline
 66
     1
 10
0.0
 20
0.0
 30
0.0
  0
VERTEX
  5
23C
330
23B
100
AcDbEntity
  8
Capa 1
370
     0
100
AcDbVertex
100
AcDb2dVertex
 10
147.6960665863399
 20
165.0367824565707
 30
0.0
  0
VERTEX
  5
23D
330
23B
100
AcDbEntity
  8
Capa 1
370
     0
100
AcDbVertex
100
AcDb2dVertex
 10
148.1570203622663
 20
164.1150471594921
 30
0.0
  0
VERTEX
  5
23E
330
23B
100
AcDbEntity
  8
Capa 1
370
     0
100
AcDbVertex
100
AcDb2dVertex
 10
147.2351128104135
 20
164.1150471594921
 30
0.0
  0
VERTEX
  5
23F
330
23B
100
AcDbEntity
  8
Capa 1
370
     0
100
AcDbVertex
100
AcDb2dVertex
 10
147.6960665863399
 20
165.0367824565707
 30
0.0
  0
VERTEX
  5
240
330
23B
100
AcDbEntity
  8
Capa 1
370
     0
100
AcDbVertex
100
AcDb2dVertex
 10
147.6960665863399
 20
165.0367824565707
 30
0.0
  0
SEQEND
  5
241
330
23B
100
AcDbEntity
  8
Capa 1
370
     0
  0
HATCH
  5
242
330
3C
100
AcDbEntity
  8
Capa 1
 62
   250
420
  1842203
100
AcDbHatch
 10
0.0
 20
0.0
 30
0.0
210
0.0
220
0.0
230
1.0
  2
SOLID
 70
     1
 71
     0
 91
        1
 92
        1
 93
        3
 72
     1
 10
147.6960665863399
 20
165.0367824565707
 11
148.1570203622663
 21
164.1150471594921
 72
     1
 10
148.1570203622663
 20
164.1150471594921
 11
147.2351128104135
 21
164.1150471594921
 72
     1
 10
147.2351128104135
 20
164.1150471594921
 11
147.6960665863399
 21
165.0367824565707
 97
        0
 75
     0
 76
     1
 98
        0
  0
POLYLINE
  5
243
330
3C
100
AcDbEntity
  8
Capa 1
 62
   250
420
  1842203
370
     9
100
AcDb2dPolyline
 66
     1
 10
0.0
 20
0.0
 30
0.0
  0
VERTEX
  5
244
330
243
100
AcDbEntity
  8
Capa 1
 62
   250
420
  1842203
370
     9
100
AcDbVertex
100
AcDb2dVertex
 10
145.2107747032806
 20
148.1675279034963
 30
0.0
  0
VERTEX
  5
245
330
243
100
AcDbEntity
  8
Capa 1
 62
   250
420
  1842203
370
     9
100
AcDbVertex
100
AcDb2dVertex
 10
145.2107747032806
 20
156.5981933202254
 30
0.0
  0
SEQEND
  5
246
330
243
100
AcDbEntity
  8
Capa 1
370
     9
  0
POLYLINE
  5
247
330
3C
100
AcDbEntity
  8
Capa 1
370
     0
100
AcDb2dPolyline
 66
     1
 10
0.0
 20
0.0
 30
0.0
  0
VERTEX
  5
248
330
247
100
AcDbEntity
  8
Capa 1
370
     0
100
AcDbVertex
100
AcDb2dVertex
 10
145.2107747032806
 20
157.5078707831057
 30
0.0
  0
VERTEX
  5
249
330
247
100
AcDbEntity
  8
Capa 1
370
     0
100
AcDbVertex
100
AcDb2dVertex
 10
144.7498209273542
 20
156.5861354860271
 30
0.0
  0
VERTEX
  5
24A
330
247
100
AcDbEntity
  8
Capa 1
370
     0
100
AcDbVertex
100
AcDb2dVertex
 10
145.6717284792071
 20
156.5861354860271
 30
0.0
  0
VERTEX
  5
24B
330
247
100
AcDbEntity
  8
Capa 1
370
     0
100
AcDbVertex
100
AcDb2dVertex
 10
145.2107747032806
 20
157.5078707831057
 30
0.0
  0
VERTEX
  5
24C
330
247
100
AcDbEntity
  8
Capa 1
370
     0
100
AcDbVertex
100
AcDb2dVertex
 10
145.2107747032806
 20
157.5078707831057
 30
0.0
  0
SEQEND
  5
24D
330
247
100
AcDbEntity
  8
Capa 1
370
     0
  0
HATCH
  5
24E
330
3C
100
AcDbEntity
  8
Capa 1
 62
   250
420
  1842203
100
AcDbHatch
 10
0.0
 20
0.0
 30
0.0
210
0.0
220
0.0
230
1.0
  2
SOLID
 70
     1
 71
     0
 91
        1
 92
        1
 93
        3
 72
     1
 10
145.2107747032806
 20
157.5078707831057
 11
144.7498209273542
 21
156.5861354860271
 72
     1
 10
144.7498209273542
 20
156.5861354860271
 11
145.6717284792071
 21
156.5861354860271
 72
     1
 10
145.6717284792071
 20
156.5861354860271
 11
145.2107747032806
 21
157.5078707831057
 97
        0
 75
     0
 76
     1
 98
        0
  0
POLYLINE
  5
24F
330
3C
100
AcDbEntity
  8
Capa 1
 62
   250
420
  1842203
370
     9
100
AcDb2dPolyline
 66
     1
 10
0.0
 20
0.0
 30
0.0
  0
VERTEX
  5
250
330
24F
100
AcDbEntity
  8
Capa 1
 62
   250
420
  1842203
370
     9
100
AcDbVertex
100
AcDb2dVertex
 10
141.8297579940565
 20
134.446918369166
 30
0.0
  0
VERTEX
  5
251
330
24F
100
AcDbEntity
  8
Capa 1
 62
   250
420
  1842203
370
     9
100
AcDbVertex
100
AcDb2dVertex
 10
141.8297579940565
 20
135.7777587551181
 30
0.0
  0
SEQEND
  5
252
330
24F
100
AcDbEntity
  8
Capa 1
370
     9
  0
POLYLINE
  5
253
330
3C
100
AcDbEntity
  8
Capa 1
370
     0
100
AcDb2dPolyline
 66
     1
 10
0.0
 20
0.0
 30
0.0
  0
VERTEX
  5
254
330
253
100
AcDbEntity
  8
Capa 1
370
     0
100
AcDbVertex
100
AcDb2dVertex
 10
141.8297579940565
 20
136.687263963224
 30
0.0
  0
VERTEX
  5
255
330
253
100
AcDbEntity
  8
Capa 1
370
     0
100
AcDbVertex
100
AcDb2dVertex
 10
141.36880421813
 20
135.7657009209197
 30
0.0
  0
VERTEX
  5
256
330
253
100
AcDbEntity
  8
Capa 1
370
     0
100
AcDbVertex
100
AcDb2dVertex
 10
142.2907117699829
 20
135.7657009209197
 30
0.0
  0
VERTEX
  5
257
330
253
100
AcDbEntity
  8
Capa 1
370
     0
100
AcDbVertex
100
AcDb2dVertex
 10
141.8297579940565
 20
136.687263963224
 30
0.0
  0
VERTEX
  5
258
330
253
100
AcDbEntity
  8
Capa 1
370
     0
100
AcDbVertex
100
AcDb2dVertex
 10
141.8297579940565
 20
136.687263963224
 30
0.0
  0
SEQEND
  5
259
330
253
100
AcDbEntity
  8
Capa 1
370
     0
  0
HATCH
  5
25A
330
3C
100
AcDbEntity
  8
Capa 1
 62
   250
420
  1842203
100
AcDbHatch
 10
0.0
 20
0.0
 30
0.0
210
0.0
220
0.0
230
1.0
  2
SOLID
 70
     1
 71
     0
 91
        1
 92
        1
 93
        3
 72
     1
 10
141.8297579940565
 20
136.687263963224
 11
141.36880421813
 21
135.7657009209197
 72
     1
 10
141.36880421813
 20
135.7657009209197
 11
142.2907117699829
 21
135.7657009209197
 72
     1
 10
142.2907117699829
 20
135.7657009209197
 11
141.8297579940565
 21
136.687263963224
 97
        0
 75
     0
 76
     1
 98
        0
  0
SPLINE
  5
25B
330
3C
100
AcDbEntity
  8
Capa 1
 62
   250
420
  1842203
370
    13
100
AcDbSpline
210
0.0
220
0.0
230
1.0
 70
    11
 71
     3
 72
    20
 73
    16
 74
     0
 42
0.0000000001
 43
0.0000000001
 40
0.0
 40
0.0
 40
0.0
 40
0.0
 40
1.0
 40
1.0
 40
1.0
 40
2.0
 40
2.0
 40
2.0
 40
3.0
 40
3.0
 40
3.0
 40
4.0
 40
4.0
 40
4.0
 40
5.0
 40
5.0
 40
5.0
 40
5.0
 10
63.73995088467265
 20
153.4212985185023
 30
0.0
 10
63.97835149225195
 20
153.4212985185023
 30
0.0
 10
64.17162134897445
 20
153.6147406299991
 30
0.0
 10
64.17162134897445
 20
153.8531412375784
 30
0.0
 10
64.17162134897445
 20
154.0915418451577
 30
0.0
 10
63.97835149225195
 20
154.2848117018802
 30
0.0
 10
63.73995088467265
 20
154.2848117018802
 30
0.0
 10
63.50155027709337
 20
154.2848117018802
 30
0.0
 10
63.30828042037085
 20
154.0915418451577
 30
0.0
 10
63.30828042037085
 20
153.8531412375784
 30
0.0
 10
63.30828042037085
 20
153.6147406299991
 30
0.0
 10
63.50155027709337
 20
153.4212985185023
 30
0.0
 10
63.73995088467265
 20
153.4212985185023
 30
0.0
 10
63.73995088467265
 20
153.4212985185023
 30
0.0
 10
63.73995088467265
 20
153.4212985185023
 30
0.0
 10
63.73995088467265
 20
153.4212985185023
 30
0.0
  0
SPLINE
  5
25C
330
3C
100
AcDbEntity
  8
Capa 1
 62
   250
420
  1842203
370
    13
100
AcDbSpline
210
0.0
220
0.0
230
1.0
 70
    11
 71
     3
 72
    20
 73
    16
 74
     0
 42
0.0000000001
 43
0.0000000001
 40
0.0
 40
0.0
 40
0.0
 40
0.0
 40
1.0
 40
1.0
 40
1.0
 40
2.0
 40
2.0
 40
2.0
 40
3.0
 40
3.0
 40
3.0
 40
4.0
 40
4.0
 40
4.0
 40
5.0
 40
5.0
 40
5.0
 40
5.0
 10
62.5401963819344
 20
153.4212985185023
 30
0.0
 10
62.77876924428795
 20
153.4212985185023
 30
0.0
 10
62.97203910101047
 20
153.6147406299991
 30
0.0
 10
62.97203910101047
 20
153.8531412375784
 30
0.0
 10
62.97203910101047
 20
154.0915418451577
 30
0.0
 10
62.77876924428795
 20
154.2848117018802
 30
0.0
 10
62.5401963819344
 20
154.2848117018802
 30
0.0
 10
62.30179577435511
 20
154.2848117018802
 30
0.0
 10
62.10852591763259
 20
154.0915418451577
 30
0.0
 10
62.10852591763259
 20
153.8531412375784
 30
0.0
 10
62.10852591763259
 20
153.6147406299991
 30
0.0
 10
62.30179577435511
 20
153.4212985185023
 30
0.0
 10
62.5401963819344
 20
153.4212985185023
 30
0.0
 10
62.5401963819344
 20
153.4212985185023
 30
0.0
 10
62.5401963819344
 20
153.4212985185023
 30
0.0
 10
62.5401963819344
 20
153.4212985185023
 30
0.0
  0
SPLINE
  5
25D
330
3C
100
AcDbEntity
  8
Capa 1
 62
   250
420
  1842203
370
    13
100
AcDbSpline
210
0.0
220
0.0
230
1.0
 70
    11
 71
     3
 72
    20
 73
    16
 74
     0
 42
0.0000000001
 43
0.0000000001
 40
0.0
 40
0.0
 40
0.0
 40
0.0
 40
1.0
 40
1.0
 40
1.0
 40
2.0
 40
2.0
 40
2.0
 40
3.0
 40
3.0
 40
3.0
 40
4.0
 40
4.0
 40
4.0
 40
5.0
 40
5.0
 40
5.0
 40
5.0
 10
64.93970538741091
 20
153.4212985185023
 30
0.0
 10
65.1781059949902
 20
153.4212985185023
 30
0.0
 10
65.37154810648698
 20
153.6147406299991
 30
0.0
 10
65.37154810648698
 20
153.8531412375784
 30
0.0
 10
65.37154810648698
 20
154.0915418451577
 30
0.0
 10
65.1781059949902
 20
154.2848117018802
 30
0.0
 10
64.93970538741091
 20
154.2848117018802
 30
0.0
 10
64.70130477983162
 20
154.2848117018802
 30
0.0
 10
64.50803492310911
 20
154.0915418451577
 30
0.0
 10
64.50803492310911
 20
153.8531412375784
 30
0.0
 10
64.50803492310911
 20
153.6147406299991
 30
0.0
 10
64.70130477983162
 20
153.4212985185023
 30
0.0
 10
64.93970538741091
 20
153.4212985185023
 30
0.0
 10
64.93970538741091
 20
153.4212985185023
 30
0.0
 10
64.93970538741091
 20
153.4212985185023
 30
0.0
 10
64.93970538741091
 20
153.4212985185023
 30
0.0
  0
SPLINE
  5
25E
330
3C
100
AcDbEntity
  8
Capa 1
 62
   250
420
  1842203
370
    13
100
AcDbSpline
210
0.0
220
0.0
230
1.0
 70
    11
 71
     3
 72
    20
 73
    16
 74
     0
 42
0.0000000001
 43
0.0000000001
 40
0.0
 40
0.0
 40
0.0
 40
0.0
 40
1.0
 40
1.0
 40
1.0
 40
2.0
 40
2.0
 40
2.0
 40
3.0
 40
3.0
 40
3.0
 40
4.0
 40
4.0
 40
4.0
 40
5.0
 40
5.0
 40
5.0
 40
5.0
 10
66.13963214492343
 20
153.4212985185023
 30
0.0
 10
66.37803275250272
 20
153.4212985185023
 30
0.0
 10
66.57130260922523
 20
153.6147406299991
 30
0.0
 10
66.57130260922523
 20
153.8531412375784
 30
0.0
 10
66.57130260922523
 20
154.0915418451577
 30
0.0
 10
66.37803275250272
 20
154.2848117018802
 30
0.0
 10
66.13963214492343
 20
154.2848117018802
 30
0.0
 10
65.90123153734415
 20
154.2848117018802
 30
0.0
 10
65.70778942584737
 20
154.0915418451577
 30
0.0
 10
65.70778942584737
 20
153.8531412375784
 30
0.0
 10
65.70778942584737
 20
153.6147406299991
 30
0.0
 10
65.90123153734415
 20
153.4212985185023
 30
0.0
 10
66.13963214492343
 20
153.4212985185023
 30
0.0
 10
66.13963214492343
 20
153.4212985185023
 30
0.0
 10
66.13963214492343
 20
153.4212985185023
 30
0.0
 10
66.13963214492343
 20
153.4212985185023
 30
0.0
  0
SPLINE
  5
25F
330
3C
100
AcDbEntity
  8
Capa 1
 62
   250
420
  1842203
370
    13
100
AcDbSpline
210
0.0
220
0.0
230
1.0
 70
    11
 71
     3
 72
    20
 73
    16
 74
     0
 42
0.0000000001
 43
0.0000000001
 40
0.0
 40
0.0
 40
0.0
 40
0.0
 40
1.0
 40
1.0
 40
1.0
 40
2.0
 40
2.0
 40
2.0
 40
3.0
 40
3.0
 40
3.0
 40
4.0
 40
4.0
 40
4.0
 40
5.0
 40
5.0
 40
5.0
 40
5.0
 10
67.33938664766168
 20
153.4212985185023
 30
0.0
 10
67.57778725524098
 20
153.4212985185023
 30
0.0
 10
67.77105711196349
 20
153.6147406299991
 30
0.0
 10
67.77105711196349
 20
153.8531412375784
 30
0.0
 10
67.77105711196349
 20
154.0915418451577
 30
0.0
 10
67.57778725524098
 20
154.2848117018802
 30
0.0
 10
67.33938664766168
 20
154.2848117018802
 30
0.0
 10
67.10098604008239
 20
154.2848117018802
 30
0.0
 10
66.90771618335988
 20
154.0915418451577
 30
0.0
 10
66.90771618335988
 20
153.8531412375784
 30
0.0
 10
66.90771618335988
 20
153.6147406299991
 30
0.0
 10
67.10098604008239
 20
153.4212985185023
 30
0.0
 10
67.33938664766168
 20
153.4212985185023
 30
0.0
 10
67.33938664766168
 20
153.4212985185023
 30
0.0
 10
67.33938664766168
 20
153.4212985185023
 30
0.0
 10
67.33938664766168
 20
153.4212985185023
 30
0.0
  0
SPLINE
  5
260
330
3C
100
AcDbEntity
  8
Capa 1
 62
   250
420
  1842203
370
    13
100
AcDbSpline
210
0.0
220
0.0
230
1.0
 70
    11
 71
     3
 72
    20
 73
    16
 74
     0
 42
0.0000000001
 43
0.0000000001
 40
0.0
 40
0.0
 40
0.0
 40
0.0
 40
1.0
 40
1.0
 40
1.0
 40
2.0
 40
2.0
 40
2.0
 40
3.0
 40
3.0
 40
3.0
 40
4.0
 40
4.0
 40
4.0
 40
5.0
 40
5.0
 40
5.0
 40
5.0
 10
68.53914115039994
 20
153.4212985185023
 30
0.0
 10
68.77754175797922
 20
153.4212985185023
 30
0.0
 10
68.97081161470174
 20
153.6147406299991
 30
0.0
 10
68.97081161470174
 20
153.8531412375784
 30
0.0
 10
68.97081161470174
 20
154.0915418451577
 30
0.0
 10
68.77754175797922
 20
154.2848117018802
 30
0.0
 10
68.53914115039994
 20
154.2848117018802
 30
0.0
 10
68.30074054282065
 20
154.2848117018802
 30
0.0
 10
68.10747068609814
 20
154.0915418451577
 30
0.0
 10
68.10747068609814
 20
153.8531412375784
 30
0.0
 10
68.10747068609814
 20
153.6147406299991
 30
0.0
 10
68.30074054282065
 20
153.4212985185023
 30
0.0
 10
68.53914115039994
 20
153.4212985185023
 30
0.0
 10
68.53914115039994
 20
153.4212985185023
 30
0.0
 10
68.53914115039994
 20
153.4212985185023
 30
0.0
 10
68.53914115039994
 20
153.4212985185023
 30
0.0
  0
SPLINE
  5
261
330
3C
100
AcDbEntity
  8
Capa 1
 62
   250
420
  1842203
370
    13
100
AcDbSpline
210
0.0
220
0.0
230
1.0
 70
    11
 71
     3
 72
    20
 73
    16
 74
     0
 42
0.0000000001
 43
0.0000000001
 40
0.0
 40
0.0
 40
0.0
 40
0.0
 40
1.0
 40
1.0
 40
1.0
 40
2.0
 40
2.0
 40
2.0
 40
3.0
 40
3.0
 40
3.0
 40
4.0
 40
4.0
 40
4.0
 40
5.0
 40
5.0
 40
5.0
 40
5.0
 10
69.7388956531382
 20
153.4212985185023
 30
0.0
 10
69.97729626071748
 20
153.4212985185023
 30
0.0
 10
70.17073837221426
 20
153.6147406299991
 30
0.0
 10
70.17073837221426
 20
153.8531412375784
 30
0.0
 10
70.17073837221426
 20
154.0915418451577
 30
0.0
 10
69.97729626071748
 20
154.2848117018802
 30
0.0
 10
69.7388956531382
 20
154.2848117018802
 30
0.0
 10
69.5004950455589
 20
154.2848117018802
 30
0.0
 10
69.3072251888364
 20
154.0915418451577
 30
0.0
 10
69.3072251888364
 20
153.8531412375784
 30
0.0
 10
69.3072251888364
 20
153.6147406299991
 30
0.0
 10
69.5004950455589
 20
153.4212985185023
 30
0.0
 10
69.7388956531382
 20
153.4212985185023
 30
0.0
 10
69.7388956531382
 20
153.4212985185023
 30
0.0
 10
69.7388956531382
 20
153.4212985185023
 30
0.0
 10
69.7388956531382
 20
153.4212985185023
 30
0.0
  0
SPLINE
  5
262
330
3C
100
AcDbEntity
  8
Capa 1
 62
   250
420
  1842203
370
    13
100
AcDbSpline
210
0.0
220
0.0
230
1.0
 70
    11
 71
     3
 72
    20
 73
    16
 74
     0
 42
0.0000000001
 43
0.0000000001
 40
0.0
 40
0.0
 40
0.0
 40
0.0
 40
1.0
 40
1.0
 40
1.0
 40
2.0
 40
2.0
 40
2.0
 40
3.0
 40
3.0
 40
3.0
 40
4.0
 40
4.0
 40
4.0
 40
5.0
 40
5.0
 40
5.0
 40
5.0
 10
70.93882241065072
 20
153.4212985185023
 30
0.0
 10
71.17722301823001
 20
153.4212985185023
 30
0.0
 10
71.37049287495252
 20
153.6147406299991
 30
0.0
 10
71.37049287495252
 20
153.8531412375784
 30
0.0
 10
71.37049287495252
 20
154.0915418451577
 30
0.0
 10
71.17722301823001
 20
154.2848117018802
 30
0.0
 10
70.93882241065072
 20
154.2848117018802
 30
0.0
 10
70.70042180307142
 20
154.2848117018802
 30
0.0
 10
70.50715194634891
 20
154.0915418451577
 30
0.0
 10
70.50715194634891
 20
153.8531412375784
 30
0.0
 10
70.50715194634891
 20
153.6147406299991
 30
0.0
 10
70.70042180307142
 20
153.4212985185023
 30
0.0
 10
70.93882241065072
 20
153.4212985185023
 30
0.0
 10
70.93882241065072
 20
153.4212985185023
 30
0.0
 10
70.93882241065072
 20
153.4212985185023
 30
0.0
 10
70.93882241065072
 20
153.4212985185023
 30
0.0
  0
POLYLINE
  5
263
330
3C
100
AcDbEntity
  8
Capa 1
 62
   250
420
  1842203
370
    13
100
AcDb2dPolyline
 66
     1
 10
0.0
 20
0.0
 30
0.0
  0
VERTEX
  5
264
330
263
100
AcDbEntity
  8
Capa 1
 62
   250
420
  1842203
370
    13
100
AcDbVertex
100
AcDb2dVertex
 10
93.72520071441592
 20
157.653770576906
 30
0.0
  0
VERTEX
  5
265
330
263
100
AcDbEntity
  8
Capa 1
 62
   250
420
  1842203
370
    13
100
AcDbVertex
100
AcDb2dVertex
 10
93.72520071441592
 20
160.6451469867484
 30
0.0
  0
VERTEX
  5
266
330
263
100
AcDbEntity
  8
Capa 1
 62
   250
420
  1842203
370
    13
100
AcDbVertex
100
AcDb2dVertex
 10
107.543478705753
 20
160.6451469867484
 30
0.0
  0
VERTEX
  5
267
330
263
100
AcDbEntity
  8
Capa 1
 62
   250
420
  1842203
370
    13
100
AcDbVertex
100
AcDb2dVertex
 10
107.543478705753
 20
157.653770576906
 30
0.0
  0
VERTEX
  5
268
330
263
100
AcDbEntity
  8
Capa 1
 62
   250
420
  1842203
370
    13
100
AcDbVertex
100
AcDb2dVertex
 10
93.72520071441592
 20
157.653770576906
 30
0.0
  0
VERTEX
  5
269
330
263
100
AcDbEntity
  8
Capa 1
 62
   250
420
  1842203
370
    13
100
AcDbVertex
100
AcDb2dVertex
 10
93.72520071441592
 20
157.653770576906
 30
0.0
  0
SEQEND
  5
26A
330
263
100
AcDbEntity
  8
Capa 1
370
    13
  0
POLYLINE
  5
26B
330
3C
100
AcDbEntity
  8
Capa 1
 62
   250
420
  1842203
370
    13
100
AcDb2dPolyline
 66
     1
 10
0.0
 20
0.0
 30
0.0
  0
VERTEX
  5
26C
330
26B
100
AcDbEntity
  8
Capa 1
 62
   250
420
  1842203
370
    13
100
AcDbVertex
100
AcDb2dVertex
 10
98.74677189371609
 20
160.6451469867484
 30
0.0
  0
VERTEX
  5
26D
330
26B
100
AcDbEntity
  8
Capa 1
 62
   250
420
  1842203
370
    13
100
AcDbVertex
100
AcDb2dVertex
 10
98.74677189371609
 20
157.653770576906
 30
0.0
  0
SEQEND
  5
26E
330
26B
100
AcDbEntity
  8
Capa 1
370
    13
  0
POLYLINE
  5
26F
330
3C
100
AcDbEntity
  8
Capa 1
 62
   250
420
  1842203
370
    13
100
AcDb2dPolyline
 66
     1
 10
0.0
 20
0.0
 30
0.0
  0
VERTEX
  5
270
330
26F
100
AcDbEntity
  8
Capa 1
 62
   250
420
  1842203
370
    13
100
AcDbVertex
100
AcDb2dVertex
 10
99.97822127491864
 20
157.653770576906
 30
0.0
  0
VERTEX
  5
271
330
26F
100
AcDbEntity
  8
Capa 1
 62
   250
420
  1842203
370
    13
100
AcDbVertex
100
AcDb2dVertex
 10
99.97822127491864
 20
160.6451469867484
 30
0.0
  0
SEQEND
  5
272
330
26F
100
AcDbEntity
  8
Capa 1
370
    13
  0
POLYLINE
  5
273
330
3C
100
AcDbEntity
  8
Capa 1
 62
   250
420
  1842203
370
    13
100
AcDb2dPolyline
 66
     1
 10
0.0
 20
0.0
 30
0.0
  0
VERTEX
  5
274
330
273
100
AcDbEntity
  8
Capa 1
 62
   250
420
  1842203
370
    13
100
AcDbVertex
100
AcDb2dVertex
 10
101.3355888961071
 20
160.6451469867484
 30
0.0
  0
VERTEX
  5
275
330
273
100
AcDbEntity
  8
Capa 1
 62
   250
420
  1842203
370
    13
100
AcDbVertex
100
AcDb2dVertex
 10
101.3355888961071
 20
157.653770576906
 30
0.0
  0
SEQEND
  5
276
330
273
100
AcDbEntity
  8
Capa 1
370
    13
  0
POLYLINE
  5
277
330
3C
100
AcDbEntity
  8
Capa 1
 62
   250
420
  1842203
370
    13
100
AcDb2dPolyline
 66
     1
 10
0.0
 20
0.0
 30
0.0
  0
VERTEX
  5
278
330
277
100
AcDbEntity
  8
Capa 1
 62
   250
420
  1842203
370
    13
100
AcDbVertex
100
AcDb2dVertex
 10
102.5923597291262
 20
160.6451469867484
 30
0.0
  0
VERTEX
  5
279
330
277
100
AcDbEntity
  8
Capa 1
 62
   250
420
  1842203
370
    13
100
AcDbVertex
100
AcDb2dVertex
 10
102.5923597291262
 20
157.653770576906
 30
0.0
  0
SEQEND
  5
27A
330
277
100
AcDbEntity
  8
Capa 1
370
    13
  0
POLYLINE
  5
27B
330
3C
100
AcDbEntity
  8
Capa 1
 62
   250
420
  1842203
370
    13
100
AcDb2dPolyline
 66
     1
 10
0.0
 20
0.0
 30
0.0
  0
VERTEX
  5
27C
330
27B
100
AcDbEntity
  8
Capa 1
 62
   250
420
  1842203
370
    13
100
AcDbVertex
100
AcDb2dVertex
 10
103.7735107162441
 20
160.6451469867484
 30
0.0
  0
VERTEX
  5
27D
330
27B
100
AcDbEntity
  8
Capa 1
 62
   250
420
  1842203
370
    13
100
AcDbVertex
100
AcDb2dVertex
 10
103.7735107162441
 20
157.653770576906
 30
0.0
  0
SEQEND
  5
27E
330
27B
100
AcDbEntity
  8
Capa 1
370
    13
  0
POLYLINE
  5
27F
330
3C
100
AcDbEntity
  8
Capa 1
 62
   250
420
  1842203
370
    13
100
AcDb2dPolyline
 66
     1
 10
0.0
 20
0.0
 30
0.0
  0
VERTEX
  5
280
330
27F
100
AcDbEntity
  8
Capa 1
 62
   250
420
  1842203
370
    13
100
AcDbVertex
100
AcDb2dVertex
 10
105.030109294489
 20
160.6451469867484
 30
0.0
  0
VERTEX
  5
281
330
27F
100
AcDbEntity
  8
Capa 1
 62
   250
420
  1842203
370
    13
100
AcDbVertex
100
AcDb2dVertex
 10
105.030109294489
 20
157.653770576906
 30
0.0
  0
SEQEND
  5
282
330
27F
100
AcDbEntity
  8
Capa 1
370
    13
  0
POLYLINE
  5
283
330
3C
100
AcDbEntity
  8
Capa 1
 62
   250
420
  1842203
370
    13
100
AcDb2dPolyline
 66
     1
 10
0.0
 20
0.0
 30
0.0
  0
VERTEX
  5
284
330
283
100
AcDbEntity
  8
Capa 1
 62
   250
420
  1842203
370
    13
100
AcDbVertex
100
AcDb2dVertex
 10
107.543478705753
 20
157.653770576906
 30
0.0
  0
VERTEX
  5
285
330
283
100
AcDbEntity
  8
Capa 1
 62
   250
420
  1842203
370
    13
100
AcDbVertex
100
AcDb2dVertex
 10
106.3873046609032
 20
160.6451469867484
 30
0.0
  0
VERTEX
  5
286
330
283
100
AcDbEntity
  8
Capa 1
 62
   250
420
  1842203
370
    13
100
AcDbVertex
100
AcDb2dVertex
 10
106.3873046609032
 20
157.653770576906
 30
0.0
  0
VERTEX
  5
287
330
283
100
AcDbEntity
  8
Capa 1
 62
   250
420
  1842203
370
    13
100
AcDbVertex
100
AcDb2dVertex
 10
107.543478705753
 20
160.6451469867484
 30
0.0
  0
SEQEND
  5
288
330
283
100
AcDbEntity
  8
Capa 1
370
    13
  0
POLYLINE
  5
289
330
3C
100
AcDbEntity
  8
Capa 1
 62
   250
420
  1842203
370
    13
100
AcDb2dPolyline
 66
     1
 10
0.0
 20
0.0
 30
0.0
  0
VERTEX
  5
28A
330
289
100
AcDbEntity
  8
Capa 1
 62
   250
420
  1842203
370
    13
100
AcDbVertex
100
AcDb2dVertex
 10
105.030109294489
 20
160.6451469867484
 30
0.0
  0
VERTEX
  5
28B
330
289
100
AcDbEntity
  8
Capa 1
 62
   250
420
  1842203
370
    13
100
AcDbVertex
100
AcDb2dVertex
 10
106.3370062668185
 20
157.653770576906
 30
0.0
  0
SEQEND
  5
28C
330
289
100
AcDbEntity
  8
Capa 1
370
    13
  0
POLYLINE
  5
28D
330
3C
100
AcDbEntity
  8
Capa 1
 62
   250
420
  1842203
370
    13
100
AcDb2dPolyline
 66
     1
 10
0.0
 20
0.0
 30
0.0
  0
VERTEX
  5
28E
330
28D
100
AcDbEntity
  8
Capa 1
 62
   250
420
  1842203
370
    13
100
AcDbVertex
100
AcDb2dVertex
 10
106.3873046609032
 20
160.6451469867484
 30
0.0
  0
VERTEX
  5
28F
330
28D
100
AcDbEntity
  8
Capa 1
 62
   250
420
  1842203
370
    13
100
AcDbVertex
100
AcDb2dVertex
 10
105.030109294489
 20
157.653770576906
 30
0.0
  0
VERTEX
  5
290
330
28D
100
AcDbEntity
  8
Capa 1
 62
   250
420
  1842203
370
    13
100
AcDbVertex
100
AcDb2dVertex
 10
103.7735107162441
 20
160.6451469867484
 30
0.0
  0
SEQEND
  5
291
330
28D
100
AcDbEntity
  8
Capa 1
370
    13
  0
POLYLINE
  5
292
330
3C
100
AcDbEntity
  8
Capa 1
 62
   250
420
  1842203
370
    13
100
AcDb2dPolyline
 66
     1
 10
0.0
 20
0.0
 30
0.0
  0
VERTEX
  5
293
330
292
100
AcDbEntity
  8
Capa 1
 62
   250
420
  1842203
370
    13
100
AcDbVertex
100
AcDb2dVertex
 10
105.030109294489
 20
160.6451469867484
 30
0.0
  0
VERTEX
  5
294
330
292
100
AcDbEntity
  8
Capa 1
 62
   250
420
  1842203
370
    13
100
AcDbVertex
100
AcDb2dVertex
 10
103.7735107162441
 20
157.653770576906
 30
0.0
  0
VERTEX
  5
295
330
292
100
AcDbEntity
  8
Capa 1
 62
   250
420
  1842203
370
    13
100
AcDbVertex
100
AcDb2dVertex
 10
102.5923597291262
 20
160.6451469867484
 30
0.0
  0
SEQEND
  5
296
330
292
100
AcDbEntity
  8
Capa 1
370
    13
  0
POLYLINE
  5
297
330
3C
100
AcDbEntity
  8
Capa 1
 62
   250
420
  1842203
370
    13
100
AcDb2dPolyline
 66
     1
 10
0.0
 20
0.0
 30
0.0
  0
VERTEX
  5
298
330
297
100
AcDbEntity
  8
Capa 1
 62
   250
420
  1842203
370
    13
100
AcDbVertex
100
AcDb2dVertex
 10
102.5923597291262
 20
157.653770576906
 30
0.0
  0
VERTEX
  5
299
330
297
100
AcDbEntity
  8
Capa 1
 62
   250
420
  1842203
370
    13
100
AcDbVertex
100
AcDb2dVertex
 10
103.7735107162441
 20
160.6451469867484
 30
0.0
  0
SEQEND
  5
29A
330
297
100
AcDbEntity
  8
Capa 1
370
    13
  0
POLYLINE
  5
29B
330
3C
100
AcDbEntity
  8
Capa 1
 62
   250
420
  1842203
370
    13
100
AcDb2dPolyline
 66
     1
 10
0.0
 20
0.0
 30
0.0
  0
VERTEX
  5
29C
330
29B
100
AcDbEntity
  8
Capa 1
 62
   250
420
  1842203
370
    13
100
AcDbVertex
100
AcDb2dVertex
 10
102.5923597291262
 20
157.653770576906
 30
0.0
  0
VERTEX
  5
29D
330
29B
100
AcDbEntity
  8
Capa 1
 62
   250
420
  1842203
370
    13
100
AcDbVertex
100
AcDb2dVertex
 10
101.3355888961071
 20
160.6451469867484
 30
0.0
  0
SEQEND
  5
29E
330
29B
100
AcDbEntity
  8
Capa 1
370
    13
  0
POLYLINE
  5
29F
330
3C
100
AcDbEntity
  8
Capa 1
 62
   250
420
  1842203
370
    13
100
AcDb2dPolyline
 66
     1
 10
0.0
 20
0.0
 30
0.0
  0
VERTEX
  5
2A0
330
29F
100
AcDbEntity
  8
Capa 1
 62
   250
420
  1842203
370
    13
100
AcDbVertex
100
AcDb2dVertex
 10
101.3355888961071
 20
157.653770576906
 30
0.0
  0
VERTEX
  5
2A1
330
29F
100
AcDbEntity
  8
Capa 1
 62
   250
420
  1842203
370
    13
100
AcDbVertex
100
AcDb2dVertex
 10
102.5923597291262
 20
160.6451469867484
 30
0.0
  0
SEQEND
  5
2A2
330
29F
100
AcDbEntity
  8
Capa 1
370
    13
  0
POLYLINE
  5
2A3
330
3C
100
AcDbEntity
  8
Capa 1
 62
   250
420
  1842203
370
    13
100
AcDb2dPolyline
 66
     1
 10
0.0
 20
0.0
 30
0.0
  0
VERTEX
  5
2A4
330
2A3
100
AcDbEntity
  8
Capa 1
 62
   250
420
  1842203
370
    13
100
AcDbVertex
100
AcDb2dVertex
 10
101.3355888961071
 20
157.653770576906
 30
0.0
  0
VERTEX
  5
2A5
330
2A3
100
AcDbEntity
  8
Capa 1
 62
   250
420
  1842203
370
    13
100
AcDbVertex
100
AcDb2dVertex
 10
99.97822127491864
 20
160.6451469867484
 30
0.0
  0
SEQEND
  5
2A6
330
2A3
100
AcDbEntity
  8
Capa 1
370
    13
  0
POLYLINE
  5
2A7
330
3C
100
AcDbEntity
  8
Capa 1
 62
   250
420
  1842203
370
    13
100
AcDb2dPolyline
 66
     1
 10
0.0
 20
0.0
 30
0.0
  0
VERTEX
  5
2A8
330
2A7
100
AcDbEntity
  8
Capa 1
 62
   250
420
  1842203
370
    13
100
AcDbVertex
100
AcDb2dVertex
 10
101.3355888961071
 20
160.6451469867484
 30
0.0
  0
VERTEX
  5
2A9
330
2A7
100
AcDbEntity
  8
Capa 1
 62
   250
420
  1842203
370
    13
100
AcDbVertex
100
AcDb2dVertex
 10
99.97822127491864
 20
157.653770576906
 30
0.0
  0
VERTEX
  5
2AA
330
2A7
100
AcDbEntity
  8
Capa 1
 62
   250
420
  1842203
370
    13
100
AcDbVertex
100
AcDb2dVertex
 10
98.74677189371609
 20
160.6451469867484
 30
0.0
  0
SEQEND
  5
2AB
330
2A7
100
AcDbEntity
  8
Capa 1
370
    13
  0
POLYLINE
  5
2AC
330
3C
100
AcDbEntity
  8
Capa 1
 62
   250
420
  1842203
370
    13
100
AcDb2dPolyline
 66
     1
 10
0.0
 20
0.0
 30
0.0
  0
VERTEX
  5
2AD
330
2AC
100
AcDbEntity
  8
Capa 1
 62
   250
420
  1842203
370
    13
100
AcDbVertex
100
AcDb2dVertex
 10
99.97822127491864
 20
160.6451469867484
 30
0.0
  0
VERTEX
  5
2AE
330
2AC
100
AcDbEntity
  8
Capa 1
 62
   250
420
  1842203
370
    13
100
AcDbVertex
100
AcDb2dVertex
 10
98.74677189371609
 20
157.653770576906
 30
0.0
  0
VERTEX
  5
2AF
330
2AC
100
AcDbEntity
  8
Capa 1
 62
   250
420
  1842203
370
    13
100
AcDbVertex
100
AcDb2dVertex
 10
97.54029945478159
 20
160.6451469867484
 30
0.0
  0
SEQEND
  5
2B0
330
2AC
100
AcDbEntity
  8
Capa 1
370
    13
  0
POLYLINE
  5
2B1
330
3C
100
AcDbEntity
  8
Capa 1
 62
   250
420
  1842203
370
    13
100
AcDb2dPolyline
 66
     1
 10
0.0
 20
0.0
 30
0.0
  0
VERTEX
  5
2B2
330
2B1
100
AcDbEntity
  8
Capa 1
 62
   250
420
  1842203
370
    13
100
AcDbVertex
100
AcDb2dVertex
 10
98.74677189371609
 20
160.6451469867484
 30
0.0
  0
VERTEX
  5
2B3
330
2B1
100
AcDbEntity
  8
Capa 1
 62
   250
420
  1842203
370
    13
100
AcDbVertex
100
AcDb2dVertex
 10
97.54029945478159
 20
157.653770576906
 30
0.0
  0
SEQEND
  5
2B4
330
2B1
100
AcDbEntity
  8
Capa 1
370
    13
  0
POLYLINE
  5
2B5
330
3C
100
AcDbEntity
  8
Capa 1
 62
   250
420
  1842203
370
    13
100
AcDb2dPolyline
 66
     1
 10
0.0
 20
0.0
 30
0.0
  0
VERTEX
  5
2B6
330
2B5
100
AcDbEntity
  8
Capa 1
 62
   250
420
  1842203
370
    13
100
AcDbVertex
100
AcDb2dVertex
 10
94.93184540812469
 20
160.6451469867484
 30
0.0
  0
VERTEX
  5
2B7
330
2B5
100
AcDbEntity
  8
Capa 1
 62
   250
420
  1842203
370
    13
100
AcDbVertex
100
AcDb2dVertex
 10
94.93184540812469
 20
157.653770576906
 30
0.0
  0
SEQEND
  5
2B8
330
2B5
100
AcDbEntity
  8
Capa 1
370
    13
  0
POLYLINE
  5
2B9
330
3C
100
AcDbEntity
  8
Capa 1
 62
   250
420
  1842203
370
    13
100
AcDb2dPolyline
 66
     1
 10
0.0
 20
0.0
 30
0.0
  0
VERTEX
  5
2BA
330
2B9
100
AcDbEntity
  8
Capa 1
 62
   250
420
  1842203
370
    13
100
AcDbVertex
100
AcDb2dVertex
 10
96.16329478932724
 20
157.653770576906
 30
0.0
  0
VERTEX
  5
2BB
330
2B9
100
AcDbEntity
  8
Capa 1
 62
   250
420
  1842203
370
    13
100
AcDbVertex
100
AcDb2dVertex
 10
96.16329478932724
 20
160.6451469867484
 30
0.0
  0
SEQEND
  5
2BC
330
2B9
100
AcDbEntity
  8
Capa 1
370
    13
  0
POLYLINE
  5
2BD
330
3C
100
AcDbEntity
  8
Capa 1
 62
   250
420
  1842203
370
    13
100
AcDb2dPolyline
 66
     1
 10
0.0
 20
0.0
 30
0.0
  0
VERTEX
  5
2BE
330
2BD
100
AcDbEntity
  8
Capa 1
 62
   250
420
  1842203
370
    13
100
AcDbVertex
100
AcDb2dVertex
 10
97.52049015574141
 20
160.6451469867484
 30
0.0
  0
VERTEX
  5
2BF
330
2BD
100
AcDbEntity
  8
Capa 1
 62
   250
420
  1842203
370
    13
100
AcDbVertex
100
AcDb2dVertex
 10
97.52049015574141
 20
157.653770576906
 30
0.0
  0
SEQEND
  5
2C0
330
2BD
100
AcDbEntity
  8
Capa 1
370
    13
  0
POLYLINE
  5
2C1
330
3C
100
AcDbEntity
  8
Capa 1
 62
   250
420
  1842203
370
    13
100
AcDb2dPolyline
 66
     1
 10
0.0
 20
0.0
 30
0.0
  0
VERTEX
  5
2C2
330
2C1
100
AcDbEntity
  8
Capa 1
 62
   250
420
  1842203
370
    13
100
AcDbVertex
100
AcDb2dVertex
 10
97.52049015574141
 20
157.653770576906
 30
0.0
  0
VERTEX
  5
2C3
330
2C1
100
AcDbEntity
  8
Capa 1
 62
   250
420
  1842203
370
    13
100
AcDbVertex
100
AcDb2dVertex
 10
96.16329478932724
 20
160.6451469867484
 30
0.0
  0
SEQEND
  5
2C4
330
2C1
100
AcDbEntity
  8
Capa 1
370
    13
  0
POLYLINE
  5
2C5
330
3C
100
AcDbEntity
  8
Capa 1
 62
   250
420
  1842203
370
    13
100
AcDb2dPolyline
 66
     1
 10
0.0
 20
0.0
 30
0.0
  0
VERTEX
  5
2C6
330
2C5
100
AcDbEntity
  8
Capa 1
 62
   250
420
  1842203
370
    13
100
AcDbVertex
100
AcDb2dVertex
 10
97.52049015574141
 20
160.6451469867484
 30
0.0
  0
VERTEX
  5
2C7
330
2C5
100
AcDbEntity
  8
Capa 1
 62
   250
420
  1842203
370
    13
100
AcDbVertex
100
AcDb2dVertex
 10
96.16329478932724
 20
157.653770576906
 30
0.0
  0
VERTEX
  5
2C8
330
2C5
100
AcDbEntity
  8
Capa 1
 62
   250
420
  1842203
370
    13
100
AcDbVertex
100
AcDb2dVertex
 10
94.93184540812469
 20
160.6451469867484
 30
0.0
  0
SEQEND
  5
2C9
330
2C5
100
AcDbEntity
  8
Capa 1
370
    13
  0
POLYLINE
  5
2CA
330
3C
100
AcDbEntity
  8
Capa 1
 62
   250
420
  1842203
370
    13
100
AcDb2dPolyline
 66
     1
 10
0.0
 20
0.0
 30
0.0
  0
VERTEX
  5
2CB
330
2CA
100
AcDbEntity
  8
Capa 1
 62
   250
420
  1842203
370
    13
100
AcDbVertex
100
AcDb2dVertex
 10
96.16329478932724
 20
160.6451469867484
 30
0.0
  0
VERTEX
  5
2CC
330
2CA
100
AcDbEntity
  8
Capa 1
 62
   250
420
  1842203
370
    13
100
AcDbVertex
100
AcDb2dVertex
 10
94.93184540812469
 20
157.653770576906
 30
0.0
  0
VERTEX
  5
2CD
330
2CA
100
AcDbEntity
  8
Capa 1
 62
   250
420
  1842203
370
    13
100
AcDbVertex
100
AcDb2dVertex
 10
93.72520071441592
 20
160.6451469867484
 30
0.0
  0
SEQEND
  5
2CE
330
2CA
100
AcDbEntity
  8
Capa 1
370
    13
  0
POLYLINE
  5
2CF
330
3C
100
AcDbEntity
  8
Capa 1
 62
   250
420
  1842203
370
    13
100
AcDb2dPolyline
 66
     1
 10
0.0
 20
0.0
 30
0.0
  0
VERTEX
  5
2D0
330
2CF
100
AcDbEntity
  8
Capa 1
 62
   250
420
  1842203
370
    13
100
AcDbVertex
100
AcDb2dVertex
 10
94.93184540812469
 20
160.6451469867484
 30
0.0
  0
VERTEX
  5
2D1
330
2CF
100
AcDbEntity
  8
Capa 1
 62
   250
420
  1842203
370
    13
100
AcDbVertex
100
AcDb2dVertex
 10
93.72520071441592
 20
157.653770576906
 30
0.0
  0
SEQEND
  5
2D2
330
2CF
100
AcDbEntity
  8
Capa 1
370
    13
  0
SPLINE
  5
2D3
330
3C
100
AcDbEntity
  8
Capa 1
 62
   250
420
  1842203
370
    13
100
AcDbSpline
210
0.0
220
0.0
230
1.0
 70
    11
 71
     3
 72
    20
 73
    16
 74
     0
 42
0.0000000001
 43
0.0000000001
 40
0.0
 40
0.0
 40
0.0
 40
0.0
 40
1.0
 40
1.0
 40
1.0
 40
2.0
 40
2.0
 40
2.0
 40
3.0
 40
3.0
 40
3.0
 40
4.0
 40
4.0
 40
4.0
 40
5.0
 40
5.0
 40
5.0
 40
5.0
 10
73.33833141612723
 20
153.4212985185023
 30
0.0
 10
73.57673202370651
 20
153.4212985185023
 30
0.0
 10
73.77000188042904
 20
153.6147406299991
 30
0.0
 10
73.77000188042904
 20
153.8531412375784
 30
0.0
 10
73.77000188042904
 20
154.0915418451577
 30
0.0
 10
73.57673202370651
 20
154.2848117018802
 30
0.0
 10
73.33833141612723
 20
154.2848117018802
 30
0.0
 10
73.09993080854794
 20
154.2848117018802
 30
0.0
 10
72.90666095182542
 20
154.0915418451577
 30
0.0
 10
72.90666095182542
 20
153.8531412375784
 30
0.0
 10
72.90666095182542
 20
153.6147406299991
 30
0.0
 10
73.09993080854794
 20
153.4212985185023
 30
0.0
 10
73.33833141612723
 20
153.4212985185023
 30
0.0
 10
73.33833141612723
 20
153.4212985185023
 30
0.0
 10
73.33833141612723
 20
153.4212985185023
 30
0.0
 10
73.33833141612723
 20
153.4212985185023
 30
0.0
  0
SPLINE
  5
2D4
330
3C
100
AcDbEntity
  8
Capa 1
 62
   250
420
  1842203
370
    13
100
AcDbSpline
210
0.0
220
0.0
230
1.0
 70
    11
 71
     3
 72
    20
 73
    16
 74
     0
 42
0.0000000001
 43
0.0000000001
 40
0.0
 40
0.0
 40
0.0
 40
0.0
 40
1.0
 40
1.0
 40
1.0
 40
2.0
 40
2.0
 40
2.0
 40
3.0
 40
3.0
 40
3.0
 40
4.0
 40
4.0
 40
4.0
 40
5.0
 40
5.0
 40
5.0
 40
5.0
 10
72.13857691338897
 20
153.4212985185023
 30
0.0
 10
72.37697752096825
 20
153.4212985185023
 30
0.0
 10
72.57024737769078
 20
153.6147406299991
 30
0.0
 10
72.57024737769078
 20
153.8531412375784
 30
0.0
 10
72.57024737769078
 20
154.0915418451577
 30
0.0
 10
72.37697752096825
 20
154.2848117018802
 30
0.0
 10
72.13857691338897
 20
154.2848117018802
 30
0.0
 10
71.90017630580968
 20
154.2848117018802
 30
0.0
 10
71.70690644908717
 20
154.0915418451577
 30
0.0
 10
71.70690644908717
 20
153.8531412375784
 30
0.0
 10
71.70690644908717
 20
153.6147406299991
 30
0.0
 10
71.90017630580968
 20
153.4212985185023
 30
0.0
 10
72.13857691338897
 20
153.4212985185023
 30
0.0
 10
72.13857691338897
 20
153.4212985185023
 30
0.0
 10
72.13857691338897
 20
153.4212985185023
 30
0.0
 10
72.13857691338897
 20
153.4212985185023
 30
0.0
  0
SPLINE
  5
2D5
330
3C
100
AcDbEntity
  8
Capa 1
 62
   250
420
  1842203
370
    13
100
AcDbSpline
210
0.0
220
0.0
230
1.0
 70
    11
 71
     3
 72
    20
 73
    16
 74
     0
 42
0.0000000001
 43
0.0000000001
 40
0.0
 40
0.0
 40
0.0
 40
0.0
 40
1.0
 40
1.0
 40
1.0
 40
2.0
 40
2.0
 40
2.0
 40
3.0
 40
3.0
 40
3.0
 40
4.0
 40
4.0
 40
4.0
 40
5.0
 40
5.0
 40
5.0
 40
5.0
 10
74.53825817363975
 20
153.4212985185023
 30
0.0
 10
74.77665878121903
 20
153.4212985185023
 30
0.0
 10
74.96992863794155
 20
153.6147406299991
 30
0.0
 10
74.96992863794155
 20
153.8531412375784
 30
0.0
 10
74.96992863794155
 20
154.0915418451577
 30
0.0
 10
74.77665878121903
 20
154.2848117018802
 30
0.0
 10
74.53825817363975
 20
154.2848117018802
 30
0.0
 10
74.29985756606045
 20
154.2848117018802
 30
0.0
 10
74.10641545456367
 20
154.0915418451577
 30
0.0
 10
74.10641545456367
 20
153.8531412375784
 30
0.0
 10
74.10641545456367
 20
153.6147406299991
 30
0.0
 10
74.29985756606045
 20
153.4212985185023
 30
0.0
 10
74.53825817363975
 20
153.4212985185023
 30
0.0
 10
74.53825817363975
 20
153.4212985185023
 30
0.0
 10
74.53825817363975
 20
153.4212985185023
 30
0.0
 10
74.53825817363975
 20
153.4212985185023
 30
0.0
  0
SPLINE
  5
2D6
330
3C
100
AcDbEntity
  8
Capa 1
 62
   250
420
  1842203
370
    13
100
AcDbSpline
210
0.0
220
0.0
230
1.0
 70
    11
 71
     3
 72
    20
 73
    16
 74
     0
 42
0.0000000001
 43
0.0000000001
 40
0.0
 40
0.0
 40
0.0
 40
0.0
 40
1.0
 40
1.0
 40
1.0
 40
2.0
 40
2.0
 40
2.0
 40
3.0
 40
3.0
 40
3.0
 40
4.0
 40
4.0
 40
4.0
 40
5.0
 40
5.0
 40
5.0
 40
5.0
 10
75.738012676378
 20
153.4212985185023
 30
0.0
 10
75.97641328395729
 20
153.4212985185023
 30
0.0
 10
76.16968314067981
 20
153.6147406299991
 30
0.0
 10
76.16968314067981
 20
153.8531412375784
 30
0.0
 10
76.16968314067981
 20
154.0915418451577
 30
0.0
 10
75.97641328395729
 20
154.2848117018802
 30
0.0
 10
75.738012676378
 20
154.2848117018802
 30
0.0
 10
75.49961206879871
 20
154.2848117018802
 30
0.0
 10
75.3063422120762
 20
154.0915418451577
 30
0.0
 10
75.3063422120762
 20
153.8531412375784
 30
0.0
 10
75.3063422120762
 20
153.6147406299991
 30
0.0
 10
75.49961206879871
 20
153.4212985185023
 30
0.0
 10
75.738012676378
 20
153.4212985185023
 30
0.0
 10
75.738012676378
 20
153.4212985185023
 30
0.0
 10
75.738012676378
 20
153.4212985185023
 30
0.0
 10
75.738012676378
 20
153.4212985185023
 30
0.0
  0
SPLINE
  5
2D7
330
3C
100
AcDbEntity
  8
Capa 1
 62
   250
420
  1842203
370
    13
100
AcDbSpline
210
0.0
220
0.0
230
1.0
 70
    11
 71
     3
 72
    20
 73
    16
 74
     0
 42
0.0000000001
 43
0.0000000001
 40
0.0
 40
0.0
 40
0.0
 40
0.0
 40
1.0
 40
1.0
 40
1.0
 40
2.0
 40
2.0
 40
2.0
 40
3.0
 40
3.0
 40
3.0
 40
4.0
 40
4.0
 40
4.0
 40
5.0
 40
5.0
 40
5.0
 40
5.0
 10
76.93776717911625
 20
153.4212985185023
 30
0.0
 10
77.17616778669554
 20
153.4212985185023
 30
0.0
 10
77.36943764341807
 20
153.6147406299991
 30
0.0
 10
77.36943764341807
 20
153.8531412375784
 30
0.0
 10
77.36943764341807
 20
154.0915418451577
 30
0.0
 10
77.17616778669554
 20
154.2848117018802
 30
0.0
 10
76.93776717911625
 20
154.2848117018802
 30
0.0
 10
76.69936657153697
 20
154.2848117018802
 30
0.0
 10
76.50609671481445
 20
154.0915418451577
 30
0.0
 10
76.50609671481445
 20
153.8531412375784
 30
0.0
 10
76.50609671481445
 20
153.6147406299991
 30
0.0
 10
76.69936657153697
 20
153.4212985185023
 30
0.0
 10
76.93776717911625
 20
153.4212985185023
 30
0.0
 10
76.93776717911625
 20
153.4212985185023
 30
0.0
 10
76.93776717911625
 20
153.4212985185023
 30
0.0
 10
76.93776717911625
 20
153.4212985185023
 30
0.0
  0
SPLINE
  5
2D8
330
3C
100
AcDbEntity
  8
Capa 1
 62
   250
420
  1842203
370
    13
100
AcDbSpline
210
0.0
220
0.0
230
1.0
 70
    11
 71
     3
 72
    20
 73
    16
 74
     0
 42
0.0000000001
 43
0.0000000001
 40
0.0
 40
0.0
 40
0.0
 40
0.0
 40
1.0
 40
1.0
 40
1.0
 40
2.0
 40
2.0
 40
2.0
 40
3.0
 40
3.0
 40
3.0
 40
4.0
 40
4.0
 40
4.0
 40
5.0
 40
5.0
 40
5.0
 40
5.0
 10
78.13752168185451
 20
153.4212985185023
 30
0.0
 10
78.3759222894338
 20
153.4212985185023
 30
0.0
 10
78.56936440093058
 20
153.6147406299991
 30
0.0
 10
78.56936440093058
 20
153.8531412375784
 30
0.0
 10
78.56936440093058
 20
154.0915418451577
 30
0.0
 10
78.3759222894338
 20
154.2848117018802
 30
0.0
 10
78.13752168185451
 20
154.2848117018802
 30
0.0
 10
77.89912107427523
 20
154.2848117018802
 30
0.0
 10
77.7058512175527
 20
154.0915418451577
 30
0.0
 10
77.7058512175527
 20
153.8531412375784
 30
0.0
 10
77.7058512175527
 20
153.6147406299991
 30
0.0
 10
77.89912107427523
 20
153.4212985185023
 30
0.0
 10
78.13752168185451
 20
153.4212985185023
 30
0.0
 10
78.13752168185451
 20
153.4212985185023
 30
0.0
 10
78.13752168185451
 20
153.4212985185023
 30
0.0
 10
78.13752168185451
 20
153.4212985185023
 30
0.0
  0
SPLINE
  5
2D9
330
3C
100
AcDbEntity
  8
Capa 1
 62
   250
420
  1842203
370
    13
100
AcDbSpline
210
0.0
220
0.0
230
1.0
 70
    11
 71
     3
 72
    20
 73
    16
 74
     0
 42
0.0000000001
 43
0.0000000001
 40
0.0
 40
0.0
 40
0.0
 40
0.0
 40
1.0
 40
1.0
 40
1.0
 40
2.0
 40
2.0
 40
2.0
 40
3.0
 40
3.0
 40
3.0
 40
4.0
 40
4.0
 40
4.0
 40
5.0
 40
5.0
 40
5.0
 40
5.0
 10
79.33744843936704
 20
153.4212985185023
 30
0.0
 10
79.57584904694632
 20
153.4212985185023
 30
0.0
 10
79.76911890366884
 20
153.6147406299991
 30
0.0
 10
79.76911890366884
 20
153.8531412375784
 30
0.0
 10
79.76911890366884
 20
154.0915418451577
 30
0.0
 10
79.57584904694632
 20
154.2848117018802
 30
0.0
 10
79.33744843936704
 20
154.2848117018802
 30
0.0
 10
79.09904783178774
 20
154.2848117018802
 30
0.0
 10
78.90560572029096
 20
154.0915418451577
 30
0.0
 10
78.90560572029096
 20
153.8531412375784
 30
0.0
 10
78.90560572029096
 20
153.6147406299991
 30
0.0
 10
79.09904783178774
 20
153.4212985185023
 30
0.0
 10
79.33744843936704
 20
153.4212985185023
 30
0.0
 10
79.33744843936704
 20
153.4212985185023
 30
0.0
 10
79.33744843936704
 20
153.4212985185023
 30
0.0
 10
79.33744843936704
 20
153.4212985185023
 30
0.0
  0
SPLINE
  5
2DA
330
3C
100
AcDbEntity
  8
Capa 1
 62
   250
420
  1842203
370
    13
100
AcDbSpline
210
0.0
220
0.0
230
1.0
 70
    11
 71
     3
 72
    20
 73
    16
 74
     0
 42
0.0000000001
 43
0.0000000001
 40
0.0
 40
0.0
 40
0.0
 40
0.0
 40
1.0
 40
1.0
 40
1.0
 40
2.0
 40
2.0
 40
2.0
 40
3.0
 40
3.0
 40
3.0
 40
4.0
 40
4.0
 40
4.0
 40
5.0
 40
5.0
 40
5.0
 40
5.0
 10
80.53720294210528
 20
153.4212985185023
 30
0.0
 10
80.77560354968458
 20
153.4212985185023
 30
0.0
 10
80.96887340640708
 20
153.6147406299991
 30
0.0
 10
80.96887340640708
 20
153.8531412375784
 30
0.0
 10
80.96887340640708
 20
154.0915418451577
 30
0.0
 10
80.77560354968458
 20
154.2848117018802
 30
0.0
 10
80.53720294210528
 20
154.2848117018802
 30
0.0
 10
80.298802334526
 20
154.2848117018802
 30
0.0
 10
80.10553247780348
 20
154.0915418451577
 30
0.0
 10
80.10553247780348
 20
153.8531412375784
 30
0.0
 10
80.10553247780348
 20
153.6147406299991
 30
0.0
 10
80.298802334526
 20
153.4212985185023
 30
0.0
 10
80.53720294210528
 20
153.4212985185023
 30
0.0
 10
80.53720294210528
 20
153.4212985185023
 30
0.0
 10
80.53720294210528
 20
153.4212985185023
 30
0.0
 10
80.53720294210528
 20
153.4212985185023
 30
0.0
  0
SPLINE
  5
2DB
330
3C
100
AcDbEntity
  8
Capa 1
 62
   250
420
  1842203
370
    13
100
AcDbSpline
210
0.0
220
0.0
230
1.0
 70
    11
 71
     3
 72
    20
 73
    16
 74
     0
 42
0.0000000001
 43
0.0000000001
 40
0.0
 40
0.0
 40
0.0
 40
0.0
 40
1.0
 40
1.0
 40
1.0
 40
2.0
 40
2.0
 40
2.0
 40
3.0
 40
3.0
 40
3.0
 40
4.0
 40
4.0
 40
4.0
 40
5.0
 40
5.0
 40
5.0
 40
5.0
 10
81.73695744484354
 20
153.4212985185023
 30
0.0
 10
81.97535805242283
 20
153.4212985185023
 30
0.0
 10
82.16862790914534
 20
153.6147406299991
 30
0.0
 10
82.16862790914534
 20
153.8531412375784
 30
0.0
 10
82.16862790914534
 20
154.0915418451577
 30
0.0
 10
81.97535805242283
 20
154.2848117018802
 30
0.0
 10
81.73695744484354
 20
154.2848117018802
 30
0.0
 10
81.49855683726426
 20
154.2848117018802
 30
0.0
 10
81.30528698054174
 20
154.0915418451577
 30
0.0
 10
81.30528698054174
 20
153.8531412375784
 30
0.0
 10
81.30528698054174
 20
153.6147406299991
 30
0.0
 10
81.49855683726426
 20
153.4212985185023
 30
0.0
 10
81.73695744484354
 20
153.4212985185023
 30
0.0
 10
81.73695744484354
 20
153.4212985185023
 30
0.0
 10
81.73695744484354
 20
153.4212985185023
 30
0.0
 10
81.73695744484354
 20
153.4212985185023
 30
0.0
  0
SPLINE
  5
2DC
330
3C
100
AcDbEntity
  8
Capa 1
 62
   250
420
  1842203
370
    13
100
AcDbSpline
210
0.0
220
0.0
230
1.0
 70
    11
 71
     3
 72
    20
 73
    16
 74
     0
 42
0.0000000001
 43
0.0000000001
 40
0.0
 40
0.0
 40
0.0
 40
0.0
 40
1.0
 40
1.0
 40
1.0
 40
2.0
 40
2.0
 40
2.0
 40
3.0
 40
3.0
 40
3.0
 40
4.0
 40
4.0
 40
4.0
 40
5.0
 40
5.0
 40
5.0
 40
5.0
 10
82.9367119475818
 20
153.4212985185023
 30
0.0
 10
83.17511255516109
 20
153.4212985185023
 30
0.0
 10
83.36855466665787
 20
153.6147406299991
 30
0.0
 10
83.36855466665787
 20
153.8531412375784
 30
0.0
 10
83.36855466665787
 20
154.0915418451577
 30
0.0
 10
83.17511255516109
 20
154.2848117018802
 30
0.0
 10
82.9367119475818
 20
154.2848117018802
 30
0.0
 10
82.6983113400025
 20
154.2848117018802
 30
0.0
 10
82.50504148328
 20
154.0915418451577
 30
0.0
 10
82.50504148328
 20
153.8531412375784
 30
0.0
 10
82.50504148328
 20
153.6147406299991
 30
0.0
 10
82.6983113400025
 20
153.4212985185023
 30
0.0
 10
82.9367119475818
 20
153.4212985185023
 30
0.0
 10
82.9367119475818
 20
153.4212985185023
 30
0.0
 10
82.9367119475818
 20
153.4212985185023
 30
0.0
 10
82.9367119475818
 20
153.4212985185023
 30
0.0
  0
SPLINE
  5
2DD
330
3C
100
AcDbEntity
  8
Capa 1
 62
   250
420
  1842203
370
    13
100
AcDbSpline
210
0.0
220
0.0
230
1.0
 70
    11
 71
     3
 72
    20
 73
    16
 74
     0
 42
0.0000000001
 43
0.0000000001
 40
0.0
 40
0.0
 40
0.0
 40
0.0
 40
1.0
 40
1.0
 40
1.0
 40
2.0
 40
2.0
 40
2.0
 40
3.0
 40
3.0
 40
3.0
 40
4.0
 40
4.0
 40
4.0
 40
5.0
 40
5.0
 40
5.0
 40
5.0
 10
84.13663870509431
 20
153.4212985185023
 30
0.0
 10
84.37503931267361
 20
153.4212985185023
 30
0.0
 10
84.56830916939612
 20
153.6147406299991
 30
0.0
 10
84.56830916939612
 20
153.8531412375784
 30
0.0
 10
84.56830916939612
 20
154.0915418451577
 30
0.0
 10
84.37503931267361
 20
154.2848117018802
 30
0.0
 10
84.13663870509431
 20
154.2848117018802
 30
0.0
 10
83.89823809751503
 20
154.2848117018802
 30
0.0
 10
83.70479598601825
 20
154.0915418451577
 30
0.0
 10
83.70479598601825
 20
153.8531412375784
 30
0.0
 10
83.70479598601825
 20
153.6147406299991
 30
0.0
 10
83.89823809751503
 20
153.4212985185023
 30
0.0
 10
84.13663870509431
 20
153.4212985185023
 30
0.0
 10
84.13663870509431
 20
153.4212985185023
 30
0.0
 10
84.13663870509431
 20
153.4212985185023
 30
0.0
 10
84.13663870509431
 20
153.4212985185023
 30
0.0
  0
SPLINE
  5
2DE
330
3C
100
AcDbEntity
  8
Capa 1
 62
   250
420
  1842203
370
    13
100
AcDbSpline
210
0.0
220
0.0
230
1.0
 70
    11
 71
     3
 72
    20
 73
    16
 74
     0
 42
0.0000000001
 43
0.0000000001
 40
0.0
 40
0.0
 40
0.0
 40
0.0
 40
1.0
 40
1.0
 40
1.0
 40
2.0
 40
2.0
 40
2.0
 40
3.0
 40
3.0
 40
3.0
 40
4.0
 40
4.0
 40
4.0
 40
5.0
 40
5.0
 40
5.0
 40
5.0
 10
63.73995088467265
 20
137.9047607077113
 30
0.0
 10
63.97835149225195
 20
137.9047607077113
 30
0.0
 10
64.17162134897445
 20
138.0980305644338
 30
0.0
 10
64.17162134897445
 20
138.3364311720131
 30
0.0
 10
64.17162134897445
 20
138.5748317795924
 30
0.0
 10
63.97835149225195
 20
138.7681016363149
 30
0.0
 10
63.73995088467265
 20
138.7681016363149
 30
0.0
 10
63.50155027709337
 20
138.7681016363149
 30
0.0
 10
63.30828042037085
 20
138.5748317795924
 30
0.0
 10
63.30828042037085
 20
138.3364311720131
 30
0.0
 10
63.30828042037085
 20
138.0980305644338
 30
0.0
 10
63.50155027709337
 20
137.9047607077113
 30
0.0
 10
63.73995088467265
 20
137.9047607077113
 30
0.0
 10
63.73995088467265
 20
137.9047607077113
 30
0.0
 10
63.73995088467265
 20
137.9047607077113
 30
0.0
 10
63.73995088467265
 20
137.9047607077113
 30
0.0
  0
SPLINE
  5
2DF
330
3C
100
AcDbEntity
  8
Capa 1
 62
   250
420
  1842203
370
    13
100
AcDbSpline
210
0.0
220
0.0
230
1.0
 70
    11
 71
     3
 72
    20
 73
    16
 74
     0
 42
0.0000000001
 43
0.0000000001
 40
0.0
 40
0.0
 40
0.0
 40
0.0
 40
1.0
 40
1.0
 40
1.0
 40
2.0
 40
2.0
 40
2.0
 40
3.0
 40
3.0
 40
3.0
 40
4.0
 40
4.0
 40
4.0
 40
5.0
 40
5.0
 40
5.0
 40
5.0
 10
62.5401963819344
 20
137.9047607077113
 30
0.0
 10
62.77876924428795
 20
137.9047607077113
 30
0.0
 10
62.97203910101047
 20
138.0980305644338
 30
0.0
 10
62.97203910101047
 20
138.3364311720131
 30
0.0
 10
62.97203910101047
 20
138.5748317795924
 30
0.0
 10
62.77876924428795
 20
138.7681016363149
 30
0.0
 10
62.5401963819344
 20
138.7681016363149
 30
0.0
 10
62.30179577435511
 20
138.7681016363149
 30
0.0
 10
62.10852591763259
 20
138.5748317795924
 30
0.0
 10
62.10852591763259
 20
138.3364311720131
 30
0.0
 10
62.10852591763259
 20
138.0980305644338
 30
0.0
 10
62.30179577435511
 20
137.9047607077113
 30
0.0
 10
62.5401963819344
 20
137.9047607077113
 30
0.0
 10
62.5401963819344
 20
137.9047607077113
 30
0.0
 10
62.5401963819344
 20
137.9047607077113
 30
0.0
 10
62.5401963819344
 20
137.9047607077113
 30
0.0
  0
SPLINE
  5
2E0
330
3C
100
AcDbEntity
  8
Capa 1
 62
   250
420
  1842203
370
    13
100
AcDbSpline
210
0.0
220
0.0
230
1.0
 70
    11
 71
     3
 72
    20
 73
    16
 74
     0
 42
0.0000000001
 43
0.0000000001
 40
0.0
 40
0.0
 40
0.0
 40
0.0
 40
1.0
 40
1.0
 40
1.0
 40
2.0
 40
2.0
 40
2.0
 40
3.0
 40
3.0
 40
3.0
 40
4.0
 40
4.0
 40
4.0
 40
5.0
 40
5.0
 40
5.0
 40
5.0
 10
64.93970538741091
 20
137.9047607077113
 30
0.0
 10
65.1781059949902
 20
137.9047607077113
 30
0.0
 10
65.37154810648698
 20
138.0980305644338
 30
0.0
 10
65.37154810648698
 20
138.3364311720131
 30
0.0
 10
65.37154810648698
 20
138.5748317795924
 30
0.0
 10
65.1781059949902
 20
138.7681016363149
 30
0.0
 10
64.93970538741091
 20
138.7681016363149
 30
0.0
 10
64.70130477983162
 20
138.7681016363149
 30
0.0
 10
64.50803492310911
 20
138.5748317795924
 30
0.0
 10
64.50803492310911
 20
138.3364311720131
 30
0.0
 10
64.50803492310911
 20
138.0980305644338
 30
0.0
 10
64.70130477983162
 20
137.9047607077113
 30
0.0
 10
64.93970538741091
 20
137.9047607077113
 30
0.0
 10
64.93970538741091
 20
137.9047607077113
 30
0.0
 10
64.93970538741091
 20
137.9047607077113
 30
0.0
 10
64.93970538741091
 20
137.9047607077113
 30
0.0
  0
SPLINE
  5
2E1
330
3C
100
AcDbEntity
  8
Capa 1
 62
   250
420
  1842203
370
    13
100
AcDbSpline
210
0.0
220
0.0
230
1.0
 70
    11
 71
     3
 72
    20
 73
    16
 74
     0
 42
0.0000000001
 43
0.0000000001
 40
0.0
 40
0.0
 40
0.0
 40
0.0
 40
1.0
 40
1.0
 40
1.0
 40
2.0
 40
2.0
 40
2.0
 40
3.0
 40
3.0
 40
3.0
 40
4.0
 40
4.0
 40
4.0
 40
5.0
 40
5.0
 40
5.0
 40
5.0
 10
66.13963214492343
 20
137.9047607077113
 30
0.0
 10
66.37803275250272
 20
137.9047607077113
 30
0.0
 10
66.57130260922523
 20
138.0980305644338
 30
0.0
 10
66.57130260922523
 20
138.3364311720131
 30
0.0
 10
66.57130260922523
 20
138.5748317795924
 30
0.0
 10
66.37803275250272
 20
138.7681016363149
 30
0.0
 10
66.13963214492343
 20
138.7681016363149
 30
0.0
 10
65.90123153734415
 20
138.7681016363149
 30
0.0
 10
65.70778942584737
 20
138.5748317795924
 30
0.0
 10
65.70778942584737
 20
138.3364311720131
 30
0.0
 10
65.70778942584737
 20
138.0980305644338
 30
0.0
 10
65.90123153734415
 20
137.9047607077113
 30
0.0
 10
66.13963214492343
 20
137.9047607077113
 30
0.0
 10
66.13963214492343
 20
137.9047607077113
 30
0.0
 10
66.13963214492343
 20
137.9047607077113
 30
0.0
 10
66.13963214492343
 20
137.9047607077113
 30
0.0
  0
SPLINE
  5
2E2
330
3C
100
AcDbEntity
  8
Capa 1
 62
   250
420
  1842203
370
    13
100
AcDbSpline
210
0.0
220
0.0
230
1.0
 70
    11
 71
     3
 72
    20
 73
    16
 74
     0
 42
0.0000000001
 43
0.0000000001
 40
0.0
 40
0.0
 40
0.0
 40
0.0
 40
1.0
 40
1.0
 40
1.0
 40
2.0
 40
2.0
 40
2.0
 40
3.0
 40
3.0
 40
3.0
 40
4.0
 40
4.0
 40
4.0
 40
5.0
 40
5.0
 40
5.0
 40
5.0
 10
67.33938664766168
 20
137.9047607077113
 30
0.0
 10
67.57778725524098
 20
137.9047607077113
 30
0.0
 10
67.77105711196349
 20
138.0980305644338
 30
0.0
 10
67.77105711196349
 20
138.3364311720131
 30
0.0
 10
67.77105711196349
 20
138.5748317795924
 30
0.0
 10
67.57778725524098
 20
138.7681016363149
 30
0.0
 10
67.33938664766168
 20
138.7681016363149
 30
0.0
 10
67.10098604008239
 20
138.7681016363149
 30
0.0
 10
66.90771618335988
 20
138.5748317795924
 30
0.0
 10
66.90771618335988
 20
138.3364311720131
 30
0.0
 10
66.90771618335988
 20
138.0980305644338
 30
0.0
 10
67.10098604008239
 20
137.9047607077113
 30
0.0
 10
67.33938664766168
 20
137.9047607077113
 30
0.0
 10
67.33938664766168
 20
137.9047607077113
 30
0.0
 10
67.33938664766168
 20
137.9047607077113
 30
0.0
 10
67.33938664766168
 20
137.9047607077113
 30
0.0
  0
SPLINE
  5
2E3
330
3C
100
AcDbEntity
  8
Capa 1
 62
   250
420
  1842203
370
    13
100
AcDbSpline
210
0.0
220
0.0
230
1.0
 70
    11
 71
     3
 72
    20
 73
    16
 74
     0
 42
0.0000000001
 43
0.0000000001
 40
0.0
 40
0.0
 40
0.0
 40
0.0
 40
1.0
 40
1.0
 40
1.0
 40
2.0
 40
2.0
 40
2.0
 40
3.0
 40
3.0
 40
3.0
 40
4.0
 40
4.0
 40
4.0
 40
5.0
 40
5.0
 40
5.0
 40
5.0
 10
68.53914115039994
 20
137.9047607077113
 30
0.0
 10
68.77754175797922
 20
137.9047607077113
 30
0.0
 10
68.97081161470174
 20
138.0980305644338
 30
0.0
 10
68.97081161470174
 20
138.3364311720131
 30
0.0
 10
68.97081161470174
 20
138.5748317795924
 30
0.0
 10
68.77754175797922
 20
138.7681016363149
 30
0.0
 10
68.53914115039994
 20
138.7681016363149
 30
0.0
 10
68.30074054282065
 20
138.7681016363149
 30
0.0
 10
68.10747068609814
 20
138.5748317795924
 30
0.0
 10
68.10747068609814
 20
138.3364311720131
 30
0.0
 10
68.10747068609814
 20
138.0980305644338
 30
0.0
 10
68.30074054282065
 20
137.9047607077113
 30
0.0
 10
68.53914115039994
 20
137.9047607077113
 30
0.0
 10
68.53914115039994
 20
137.9047607077113
 30
0.0
 10
68.53914115039994
 20
137.9047607077113
 30
0.0
 10
68.53914115039994
 20
137.9047607077113
 30
0.0
  0
SPLINE
  5
2E4
330
3C
100
AcDbEntity
  8
Capa 1
 62
   250
420
  1842203
370
    13
100
AcDbSpline
210
0.0
220
0.0
230
1.0
 70
    11
 71
     3
 72
    20
 73
    16
 74
     0
 42
0.0000000001
 43
0.0000000001
 40
0.0
 40
0.0
 40
0.0
 40
0.0
 40
1.0
 40
1.0
 40
1.0
 40
2.0
 40
2.0
 40
2.0
 40
3.0
 40
3.0
 40
3.0
 40
4.0
 40
4.0
 40
4.0
 40
5.0
 40
5.0
 40
5.0
 40
5.0
 10
69.7388956531382
 20
137.9047607077113
 30
0.0
 10
69.97729626071748
 20
137.9047607077113
 30
0.0
 10
70.17073837221426
 20
138.0980305644338
 30
0.0
 10
70.17073837221426
 20
138.3364311720131
 30
0.0
 10
70.17073837221426
 20
138.5748317795924
 30
0.0
 10
69.97729626071748
 20
138.7681016363149
 30
0.0
 10
69.7388956531382
 20
138.7681016363149
 30
0.0
 10
69.5004950455589
 20
138.7681016363149
 30
0.0
 10
69.3072251888364
 20
138.5748317795924
 30
0.0
 10
69.3072251888364
 20
138.3364311720131
 30
0.0
 10
69.3072251888364
 20
138.0980305644338
 30
0.0
 10
69.5004950455589
 20
137.9047607077113
 30
0.0
 10
69.7388956531382
 20
137.9047607077113
 30
0.0
 10
69.7388956531382
 20
137.9047607077113
 30
0.0
 10
69.7388956531382
 20
137.9047607077113
 30
0.0
 10
69.7388956531382
 20
137.9047607077113
 30
0.0
  0
SPLINE
  5
2E5
330
3C
100
AcDbEntity
  8
Capa 1
 62
   250
420
  1842203
370
    13
100
AcDbSpline
210
0.0
220
0.0
230
1.0
 70
    11
 71
     3
 72
    20
 73
    16
 74
     0
 42
0.0000000001
 43
0.0000000001
 40
0.0
 40
0.0
 40
0.0
 40
0.0
 40
1.0
 40
1.0
 40
1.0
 40
2.0
 40
2.0
 40
2.0
 40
3.0
 40
3.0
 40
3.0
 40
4.0
 40
4.0
 40
4.0
 40
5.0
 40
5.0
 40
5.0
 40
5.0
 10
70.93882241065072
 20
137.9047607077113
 30
0.0
 10
71.17722301823001
 20
137.9047607077113
 30
0.0
 10
71.37049287495252
 20
138.0980305644338
 30
0.0
 10
71.37049287495252
 20
138.3364311720131
 30
0.0
 10
71.37049287495252
 20
138.5748317795924
 30
0.0
 10
71.17722301823001
 20
138.7681016363149
 30
0.0
 10
70.93882241065072
 20
138.7681016363149
 30
0.0
 10
70.70042180307142
 20
138.7681016363149
 30
0.0
 10
70.50715194634891
 20
138.5748317795924
 30
0.0
 10
70.50715194634891
 20
138.3364311720131
 30
0.0
 10
70.50715194634891
 20
138.0980305644338
 30
0.0
 10
70.70042180307142
 20
137.9047607077113
 30
0.0
 10
70.93882241065072
 20
137.9047607077113
 30
0.0
 10
70.93882241065072
 20
137.9047607077113
 30
0.0
 10
70.93882241065072
 20
137.9047607077113
 30
0.0
 10
70.93882241065072
 20
137.9047607077113
 30
0.0
  0
SPLINE
  5
2E6
330
3C
100
AcDbEntity
  8
Capa 1
 62
   250
420
  1842203
370
    13
100
AcDbSpline
210
0.0
220
0.0
230
1.0
 70
    11
 71
     3
 72
    20
 73
    16
 74
     0
 42
0.0000000001
 43
0.0000000001
 40
0.0
 40
0.0
 40
0.0
 40
0.0
 40
1.0
 40
1.0
 40
1.0
 40
2.0
 40
2.0
 40
2.0
 40
3.0
 40
3.0
 40
3.0
 40
4.0
 40
4.0
 40
4.0
 40
5.0
 40
5.0
 40
5.0
 40
5.0
 10
73.33833141612723
 20
137.9047607077113
 30
0.0
 10
73.57673202370651
 20
137.9047607077113
 30
0.0
 10
73.77000188042904
 20
138.0980305644338
 30
0.0
 10
73.77000188042904
 20
138.3364311720131
 30
0.0
 10
73.77000188042904
 20
138.5748317795924
 30
0.0
 10
73.57673202370651
 20
138.7681016363149
 30
0.0
 10
73.33833141612723
 20
138.7681016363149
 30
0.0
 10
73.09993080854794
 20
138.7681016363149
 30
0.0
 10
72.90666095182542
 20
138.5748317795924
 30
0.0
 10
72.90666095182542
 20
138.3364311720131
 30
0.0
 10
72.90666095182542
 20
138.0980305644338
 30
0.0
 10
73.09993080854794
 20
137.9047607077113
 30
0.0
 10
73.33833141612723
 20
137.9047607077113
 30
0.0
 10
73.33833141612723
 20
137.9047607077113
 30
0.0
 10
73.33833141612723
 20
137.9047607077113
 30
0.0
 10
73.33833141612723
 20
137.9047607077113
 30
0.0
  0
SPLINE
  5
2E7
330
3C
100
AcDbEntity
  8
Capa 1
 62
   250
420
  1842203
370
    13
100
AcDbSpline
210
0.0
220
0.0
230
1.0
 70
    11
 71
     3
 72
    20
 73
    16
 74
     0
 42
0.0000000001
 43
0.0000000001
 40
0.0
 40
0.0
 40
0.0
 40
0.0
 40
1.0
 40
1.0
 40
1.0
 40
2.0
 40
2.0
 40
2.0
 40
3.0
 40
3.0
 40
3.0
 40
4.0
 40
4.0
 40
4.0
 40
5.0
 40
5.0
 40
5.0
 40
5.0
 10
72.13857691338897
 20
137.9047607077113
 30
0.0
 10
72.37697752096825
 20
137.9047607077113
 30
0.0
 10
72.57024737769078
 20
138.0980305644338
 30
0.0
 10
72.57024737769078
 20
138.3364311720131
 30
0.0
 10
72.57024737769078
 20
138.5748317795924
 30
0.0
 10
72.37697752096825
 20
138.7681016363149
 30
0.0
 10
72.13857691338897
 20
138.7681016363149
 30
0.0
 10
71.90017630580968
 20
138.7681016363149
 30
0.0
 10
71.70690644908717
 20
138.5748317795924
 30
0.0
 10
71.70690644908717
 20
138.3364311720131
 30
0.0
 10
71.70690644908717
 20
138.0980305644338
 30
0.0
 10
71.90017630580968
 20
137.9047607077113
 30
0.0
 10
72.13857691338897
 20
137.9047607077113
 30
0.0
 10
72.13857691338897
 20
137.9047607077113
 30
0.0
 10
72.13857691338897
 20
137.9047607077113
 30
0.0
 10
72.13857691338897
 20
137.9047607077113
 30
0.0
  0
SPLINE
  5
2E8
330
3C
100
AcDbEntity
  8
Capa 1
 62
   250
420
  1842203
370
    13
100
AcDbSpline
210
0.0
220
0.0
230
1.0
 70
    11
 71
     3
 72
    20
 73
    16
 74
     0
 42
0.0000000001
 43
0.0000000001
 40
0.0
 40
0.0
 40
0.0
 40
0.0
 40
1.0
 40
1.0
 40
1.0
 40
2.0
 40
2.0
 40
2.0
 40
3.0
 40
3.0
 40
3.0
 40
4.0
 40
4.0
 40
4.0
 40
5.0
 40
5.0
 40
5.0
 40
5.0
 10
74.53825817363975
 20
137.9047607077113
 30
0.0
 10
74.77665878121903
 20
137.9047607077113
 30
0.0
 10
74.96992863794155
 20
138.0980305644338
 30
0.0
 10
74.96992863794155
 20
138.3364311720131
 30
0.0
 10
74.96992863794155
 20
138.5748317795924
 30
0.0
 10
74.77665878121903
 20
138.7681016363149
 30
0.0
 10
74.53825817363975
 20
138.7681016363149
 30
0.0
 10
74.29985756606045
 20
138.7681016363149
 30
0.0
 10
74.10641545456367
 20
138.5748317795924
 30
0.0
 10
74.10641545456367
 20
138.3364311720131
 30
0.0
 10
74.10641545456367
 20
138.0980305644338
 30
0.0
 10
74.29985756606045
 20
137.9047607077113
 30
0.0
 10
74.53825817363975
 20
137.9047607077113
 30
0.0
 10
74.53825817363975
 20
137.9047607077113
 30
0.0
 10
74.53825817363975
 20
137.9047607077113
 30
0.0
 10
74.53825817363975
 20
137.9047607077113
 30
0.0
  0
SPLINE
  5
2E9
330
3C
100
AcDbEntity
  8
Capa 1
 62
   250
420
  1842203
370
    13
100
AcDbSpline
210
0.0
220
0.0
230
1.0
 70
    11
 71
     3
 72
    20
 73
    16
 74
     0
 42
0.0000000001
 43
0.0000000001
 40
0.0
 40
0.0
 40
0.0
 40
0.0
 40
1.0
 40
1.0
 40
1.0
 40
2.0
 40
2.0
 40
2.0
 40
3.0
 40
3.0
 40
3.0
 40
4.0
 40
4.0
 40
4.0
 40
5.0
 40
5.0
 40
5.0
 40
5.0
 10
75.738012676378
 20
137.9047607077113
 30
0.0
 10
75.97641328395729
 20
137.9047607077113
 30
0.0
 10
76.16968314067981
 20
138.0980305644338
 30
0.0
 10
76.16968314067981
 20
138.3364311720131
 30
0.0
 10
76.16968314067981
 20
138.5748317795924
 30
0.0
 10
75.97641328395729
 20
138.7681016363149
 30
0.0
 10
75.738012676378
 20
138.7681016363149
 30
0.0
 10
75.49961206879871
 20
138.7681016363149
 30
0.0
 10
75.3063422120762
 20
138.5748317795924
 30
0.0
 10
75.3063422120762
 20
138.3364311720131
 30
0.0
 10
75.3063422120762
 20
138.0980305644338
 30
0.0
 10
75.49961206879871
 20
137.9047607077113
 30
0.0
 10
75.738012676378
 20
137.9047607077113
 30
0.0
 10
75.738012676378
 20
137.9047607077113
 30
0.0
 10
75.738012676378
 20
137.9047607077113
 30
0.0
 10
75.738012676378
 20
137.9047607077113
 30
0.0
  0
SPLINE
  5
2EA
330
3C
100
AcDbEntity
  8
Capa 1
 62
   250
420
  1842203
370
    13
100
AcDbSpline
210
0.0
220
0.0
230
1.0
 70
    11
 71
     3
 72
    20
 73
    16
 74
     0
 42
0.0000000001
 43
0.0000000001
 40
0.0
 40
0.0
 40
0.0
 40
0.0
 40
1.0
 40
1.0
 40
1.0
 40
2.0
 40
2.0
 40
2.0
 40
3.0
 40
3.0
 40
3.0
 40
4.0
 40
4.0
 40
4.0
 40
5.0
 40
5.0
 40
5.0
 40
5.0
 10
76.93776717911625
 20
137.9047607077113
 30
0.0
 10
77.17616778669554
 20
137.9047607077113
 30
0.0
 10
77.36943764341807
 20
138.0980305644338
 30
0.0
 10
77.36943764341807
 20
138.3364311720131
 30
0.0
 10
77.36943764341807
 20
138.5748317795924
 30
0.0
 10
77.17616778669554
 20
138.7681016363149
 30
0.0
 10
76.93776717911625
 20
138.7681016363149
 30
0.0
 10
76.69936657153697
 20
138.7681016363149
 30
0.0
 10
76.50609671481445
 20
138.5748317795924
 30
0.0
 10
76.50609671481445
 20
138.3364311720131
 30
0.0
 10
76.50609671481445
 20
138.0980305644338
 30
0.0
 10
76.69936657153697
 20
137.9047607077113
 30
0.0
 10
76.93776717911625
 20
137.9047607077113
 30
0.0
 10
76.93776717911625
 20
137.9047607077113
 30
0.0
 10
76.93776717911625
 20
137.9047607077113
 30
0.0
 10
76.93776717911625
 20
137.9047607077113
 30
0.0
  0
SPLINE
  5
2EB
330
3C
100
AcDbEntity
  8
Capa 1
 62
   250
420
  1842203
370
    13
100
AcDbSpline
210
0.0
220
0.0
230
1.0
 70
    11
 71
     3
 72
    20
 73
    16
 74
     0
 42
0.0000000001
 43
0.0000000001
 40
0.0
 40
0.0
 40
0.0
 40
0.0
 40
1.0
 40
1.0
 40
1.0
 40
2.0
 40
2.0
 40
2.0
 40
3.0
 40
3.0
 40
3.0
 40
4.0
 40
4.0
 40
4.0
 40
5.0
 40
5.0
 40
5.0
 40
5.0
 10
78.13752168185451
 20
137.9047607077113
 30
0.0
 10
78.3759222894338
 20
137.9047607077113
 30
0.0
 10
78.56936440093058
 20
138.0980305644338
 30
0.0
 10
78.56936440093058
 20
138.3364311720131
 30
0.0
 10
78.56936440093058
 20
138.5748317795924
 30
0.0
 10
78.3759222894338
 20
138.7681016363149
 30
0.0
 10
78.13752168185451
 20
138.7681016363149
 30
0.0
 10
77.89912107427523
 20
138.7681016363149
 30
0.0
 10
77.7058512175527
 20
138.5748317795924
 30
0.0
 10
77.7058512175527
 20
138.3364311720131
 30
0.0
 10
77.7058512175527
 20
138.0980305644338
 30
0.0
 10
77.89912107427523
 20
137.9047607077113
 30
0.0
 10
78.13752168185451
 20
137.9047607077113
 30
0.0
 10
78.13752168185451
 20
137.9047607077113
 30
0.0
 10
78.13752168185451
 20
137.9047607077113
 30
0.0
 10
78.13752168185451
 20
137.9047607077113
 30
0.0
  0
SPLINE
  5
2EC
330
3C
100
AcDbEntity
  8
Capa 1
 62
   250
420
  1842203
370
    13
100
AcDbSpline
210
0.0
220
0.0
230
1.0
 70
    11
 71
     3
 72
    20
 73
    16
 74
     0
 42
0.0000000001
 43
0.0000000001
 40
0.0
 40
0.0
 40
0.0
 40
0.0
 40
1.0
 40
1.0
 40
1.0
 40
2.0
 40
2.0
 40
2.0
 40
3.0
 40
3.0
 40
3.0
 40
4.0
 40
4.0
 40
4.0
 40
5.0
 40
5.0
 40
5.0
 40
5.0
 10
79.33744843936704
 20
137.9047607077113
 30
0.0
 10
79.57584904694632
 20
137.9047607077113
 30
0.0
 10
79.76911890366884
 20
138.0980305644338
 30
0.0
 10
79.76911890366884
 20
138.3364311720131
 30
0.0
 10
79.76911890366884
 20
138.5748317795924
 30
0.0
 10
79.57584904694632
 20
138.7681016363149
 30
0.0
 10
79.33744843936704
 20
138.7681016363149
 30
0.0
 10
79.09904783178774
 20
138.7681016363149
 30
0.0
 10
78.90560572029096
 20
138.5748317795924
 30
0.0
 10
78.90560572029096
 20
138.3364311720131
 30
0.0
 10
78.90560572029096
 20
138.0980305644338
 30
0.0
 10
79.09904783178774
 20
137.9047607077113
 30
0.0
 10
79.33744843936704
 20
137.9047607077113
 30
0.0
 10
79.33744843936704
 20
137.9047607077113
 30
0.0
 10
79.33744843936704
 20
137.9047607077113
 30
0.0
 10
79.33744843936704
 20
137.9047607077113
 30
0.0
  0
SPLINE
  5
2ED
330
3C
100
AcDbEntity
  8
Capa 1
 62
   250
420
  1842203
370
    13
100
AcDbSpline
210
0.0
220
0.0
230
1.0
 70
    11
 71
     3
 72
    20
 73
    16
 74
     0
 42
0.0000000001
 43
0.0000000001
 40
0.0
 40
0.0
 40
0.0
 40
0.0
 40
1.0
 40
1.0
 40
1.0
 40
2.0
 40
2.0
 40
2.0
 40
3.0
 40
3.0
 40
3.0
 40
4.0
 40
4.0
 40
4.0
 40
5.0
 40
5.0
 40
5.0
 40
5.0
 10
80.53720294210528
 20
137.9047607077113
 30
0.0
 10
80.77560354968458
 20
137.9047607077113
 30
0.0
 10
80.96887340640708
 20
138.0980305644338
 30
0.0
 10
80.96887340640708
 20
138.3364311720131
 30
0.0
 10
80.96887340640708
 20
138.5748317795924
 30
0.0
 10
80.77560354968458
 20
138.7681016363149
 30
0.0
 10
80.53720294210528
 20
138.7681016363149
 30
0.0
 10
80.298802334526
 20
138.7681016363149
 30
0.0
 10
80.10553247780348
 20
138.5748317795924
 30
0.0
 10
80.10553247780348
 20
138.3364311720131
 30
0.0
 10
80.10553247780348
 20
138.0980305644338
 30
0.0
 10
80.298802334526
 20
137.9047607077113
 30
0.0
 10
80.53720294210528
 20
137.9047607077113
 30
0.0
 10
80.53720294210528
 20
137.9047607077113
 30
0.0
 10
80.53720294210528
 20
137.9047607077113
 30
0.0
 10
80.53720294210528
 20
137.9047607077113
 30
0.0
  0
SPLINE
  5
2EE
330
3C
100
AcDbEntity
  8
Capa 1
 62
   250
420
  1842203
370
    13
100
AcDbSpline
210
0.0
220
0.0
230
1.0
 70
    11
 71
     3
 72
    20
 73
    16
 74
     0
 42
0.0000000001
 43
0.0000000001
 40
0.0
 40
0.0
 40
0.0
 40
0.0
 40
1.0
 40
1.0
 40
1.0
 40
2.0
 40
2.0
 40
2.0
 40
3.0
 40
3.0
 40
3.0
 40
4.0
 40
4.0
 40
4.0
 40
5.0
 40
5.0
 40
5.0
 40
5.0
 10
81.73695744484354
 20
137.9047607077113
 30
0.0
 10
81.97535805242283
 20
137.9047607077113
 30
0.0
 10
82.16862790914534
 20
138.0980305644338
 30
0.0
 10
82.16862790914534
 20
138.3364311720131
 30
0.0
 10
82.16862790914534
 20
138.5748317795924
 30
0.0
 10
81.97535805242283
 20
138.7681016363149
 30
0.0
 10
81.73695744484354
 20
138.7681016363149
 30
0.0
 10
81.49855683726426
 20
138.7681016363149
 30
0.0
 10
81.30528698054174
 20
138.5748317795924
 30
0.0
 10
81.30528698054174
 20
138.3364311720131
 30
0.0
 10
81.30528698054174
 20
138.0980305644338
 30
0.0
 10
81.49855683726426
 20
137.9047607077113
 30
0.0
 10
81.73695744484354
 20
137.9047607077113
 30
0.0
 10
81.73695744484354
 20
137.9047607077113
 30
0.0
 10
81.73695744484354
 20
137.9047607077113
 30
0.0
 10
81.73695744484354
 20
137.9047607077113
 30
0.0
  0
SPLINE
  5
2EF
330
3C
100
AcDbEntity
  8
Capa 1
 62
   250
420
  1842203
370
    13
100
AcDbSpline
210
0.0
220
0.0
230
1.0
 70
    11
 71
     3
 72
    20
 73
    16
 74
     0
 42
0.0000000001
 43
0.0000000001
 40
0.0
 40
0.0
 40
0.0
 40
0.0
 40
1.0
 40
1.0
 40
1.0
 40
2.0
 40
2.0
 40
2.0
 40
3.0
 40
3.0
 40
3.0
 40
4.0
 40
4.0
 40
4.0
 40
5.0
 40
5.0
 40
5.0
 40
5.0
 10
82.9367119475818
 20
137.9047607077113
 30
0.0
 10
83.17511255516109
 20
137.9047607077113
 30
0.0
 10
83.36855466665787
 20
138.0980305644338
 30
0.0
 10
83.36855466665787
 20
138.3364311720131
 30
0.0
 10
83.36855466665787
 20
138.5748317795924
 30
0.0
 10
83.17511255516109
 20
138.7681016363149
 30
0.0
 10
82.9367119475818
 20
138.7681016363149
 30
0.0
 10
82.6983113400025
 20
138.7681016363149
 30
0.0
 10
82.50504148328
 20
138.5748317795924
 30
0.0
 10
82.50504148328
 20
138.3364311720131
 30
0.0
 10
82.50504148328
 20
138.0980305644338
 30
0.0
 10
82.6983113400025
 20
137.9047607077113
 30
0.0
 10
82.9367119475818
 20
137.9047607077113
 30
0.0
 10
82.9367119475818
 20
137.9047607077113
 30
0.0
 10
82.9367119475818
 20
137.9047607077113
 30
0.0
 10
82.9367119475818
 20
137.9047607077113
 30
0.0
  0
SPLINE
  5
2F0
330
3C
100
AcDbEntity
  8
Capa 1
 62
   250
420
  1842203
370
    13
100
AcDbSpline
210
0.0
220
0.0
230
1.0
 70
    11
 71
     3
 72
    20
 73
    16
 74
     0
 42
0.0000000001
 43
0.0000000001
 40
0.0
 40
0.0
 40
0.0
 40
0.0
 40
1.0
 40
1.0
 40
1.0
 40
2.0
 40
2.0
 40
2.0
 40
3.0
 40
3.0
 40
3.0
 40
4.0
 40
4.0
 40
4.0
 40
5.0
 40
5.0
 40
5.0
 40
5.0
 10
84.13663870509431
 20
137.9047607077113
 30
0.0
 10
84.37503931267361
 20
137.9047607077113
 30
0.0
 10
84.56830916939612
 20
138.0980305644338
 30
0.0
 10
84.56830916939612
 20
138.3364311720131
 30
0.0
 10
84.56830916939612
 20
138.5748317795924
 30
0.0
 10
84.37503931267361
 20
138.7681016363149
 30
0.0
 10
84.13663870509431
 20
138.7681016363149
 30
0.0
 10
83.89823809751503
 20
138.7681016363149
 30
0.0
 10
83.70479598601825
 20
138.5748317795924
 30
0.0
 10
83.70479598601825
 20
138.3364311720131
 30
0.0
 10
83.70479598601825
 20
138.0980305644338
 30
0.0
 10
83.89823809751503
 20
137.9047607077113
 30
0.0
 10
84.13663870509431
 20
137.9047607077113
 30
0.0
 10
84.13663870509431
 20
137.9047607077113
 30
0.0
 10
84.13663870509431
 20
137.9047607077113
 30
0.0
 10
84.13663870509431
 20
137.9047607077113
 30
0.0
  0
POLYLINE
  5
2F1
330
3C
100
AcDbEntity
  8
Capa 1
 62
   250
420
  1842203
370
    13
100
AcDb2dPolyline
 66
     1
 10
0.0
 20
0.0
 30
0.0
  0
VERTEX
  5
2F2
330
2F1
100
AcDbEntity
  8
Capa 1
 62
   250
420
  1842203
370
    13
100
AcDbVertex
100
AcDb2dVertex
 10
135.0821939766461
 20
136.6993217974224
 30
0.0
  0
VERTEX
  5
2F3
330
2F1
100
AcDbEntity
  8
Capa 1
 62
   250
420
  1842203
370
    13
100
AcDbVertex
100
AcDb2dVertex
 10
140.3111599041583
 20
136.6993217974224
 30
0.0
  0
SEQEND
  5
2F4
330
2F1
100
AcDbEntity
  8
Capa 1
370
    13
  0
POLYLINE
  5
2F5
330
3C
100
AcDbEntity
  8
Capa 1
 62
   250
420
  1842203
370
    13
100
AcDb2dPolyline
 66
     1
 10
0.0
 20
0.0
 30
0.0
  0
VERTEX
  5
2F6
330
2F5
100
AcDbEntity
  8
Capa 1
 62
   250
420
  1842203
370
    13
100
AcDbVertex
100
AcDb2dVertex
 10
121.1488497961017
 20
164.8752074783125
 30
0.0
  0
VERTEX
  5
2F7
330
2F5
100
AcDbEntity
  8
Capa 1
 62
   250
420
  1842203
370
    13
100
AcDbVertex
100
AcDb2dVertex
 10
140.1402831680899
 20
164.8752074783125
 30
0.0
  0
SEQEND
  5
2F8
330
2F5
100
AcDbEntity
  8
Capa 1
370
    13
  0
POLYLINE
  5
2F9
330
3C
100
AcDbEntity
  8
Capa 1
 62
   250
420
  1842203
370
    13
100
AcDb2dPolyline
 66
     1
 10
0.0
 20
0.0
 30
0.0
  0
VERTEX
  5
2FA
330
2F9
100
AcDbEntity
  8
Capa 1
 62
   250
420
  1842203
370
    13
100
AcDbVertex
100
AcDb2dVertex
 10
121.1240451086079
 20
162.7614691433374
 30
0.0
  0
VERTEX
  5
2FB
330
2F9
100
AcDbEntity
  8
Capa 1
 62
   250
420
  1842203
370
    13
100
AcDbVertex
100
AcDb2dVertex
 10
121.1240451086079
 20
164.8752074783125
 30
0.0
  0
SEQEND
  5
2FC
330
2F9
100
AcDbEntity
  8
Capa 1
370
    13
  0
POLYLINE
  5
2FD
330
3C
100
AcDbEntity
  8
Capa 1
 62
   250
420
  1842203
370
    13
100
AcDb2dPolyline
 66
     1
 10
0.0
 20
0.0
 30
0.0
  0
VERTEX
  5
2FE
330
2FD
100
AcDbEntity
  8
Capa 1
 62
   250
420
  1842203
370
    13
100
AcDbVertex
100
AcDb2dVertex
 10
140.2470811281327
 20
162.7614691433374
 30
0.0
  0
VERTEX
  5
2FF
330
2FD
100
AcDbEntity
  8
Capa 1
 62
   250
420
  1842203
370
    13
100
AcDbVertex
100
AcDb2dVertex
 10
140.2470811281327
 20
164.8752074783125
 30
0.0
  0
SEQEND
  5
300
330
2FD
100
AcDbEntity
  8
Capa 1
370
    13
  0
POLYLINE
  5
301
330
3C
100
AcDbEntity
  8
Capa 1
 62
   250
420
  1842203
370
    13
100
AcDb2dPolyline
 66
     1
 10
0.0
 20
0.0
 30
0.0
  0
VERTEX
  5
302
330
301
100
AcDbEntity
  8
Capa 1
 62
   250
420
  1842203
370
    13
100
AcDbVertex
100
AcDb2dVertex
 10
135.0821939766461
 20
136.7606444970598
 30
0.0
  0
VERTEX
  5
303
330
301
100
AcDbEntity
  8
Capa 1
 62
   250
420
  1842203
370
    13
100
AcDbVertex
100
AcDb2dVertex
 10
135.0821939766461
 20
137.968839483737
 30
0.0
  0
SEQEND
  5
304
330
301
100
AcDbEntity
  8
Capa 1
370
    13
  0
ENDBLK
  5
3F
330
3C
100
AcDbEntity
  8
0
100
AcDbBlockEnd
  0
ENDSEC
  0
SECTION
  2
ENTITIES
  0
INSERT
  5
3D
330
1F
100
AcDbEntity
  8
Capa 1
100
AcDbBlockReference
  2
block 2
 10
0.0
 20
0.0
 30
0.0
  0
MTEXT
  5
306
330
1F
100
AcDbEntity
  8
numeros
 62
   250
420
  1842203
100
AcDbMText
 10
149.1106227925835
 20
147.9833875498097
 30
0.0
 40
2.3988648668226
 41
0.0
 71
     7
 72
     1
  1
\fArial|b0|i0|c0|p34;\W1;110
 11
-4.371139000186241E-8
 21
0.999999999999999
 31
0.0
 73
     1
 44
1.0
  0
MTEXT
  5
307
330
1F
100
AcDbEntity
  8
numeros
 62
   250
420
  1842203
100
AcDbMText
 10
146.581233687313
 20
145.1101779151114
 30
0.0
 40
2.3988648668226
 41
0.0
 71
     7
 72
     1
  1
\fArial|b0|i0|c0|p34;\W1;87
 11
-4.371139000186241E-8
 21
0.999999999999999
 31
0.0
 73
     1
 44
1.0
  0
MTEXT
  5
308
330
1F
100
AcDbEntity
  8
numeros
 62
   250
420
  1842203
100
AcDbMText
 10
144.7546440610336
 20
134.77764753575
 30
0.0
 40
2.3988648668226
 41
0.0
 71
     7
 72
     1
  1
\fArial|b0|i0|c0|p34;\W1;4,5
 11
-4.371139000186241E-8
 21
0.999999999999999
 31
0.0
 73
     1
 44
1.0
  0
MTEXT
  5
309
330
1F
100
AcDbEntity
  8
numeros
 62
   250
420
  1842203
100
AcDbMText
 10
128.7563096466304
 20
131.5261664167712
 30
0.0
 40
2.398888888289167
 41
0.0
 71
     7
 72
     1
  1
\fArial|b0|i0|c0|p34;\W1;75
 73
     1
 44
1.0
  0
MTEXT
  5
30A
330
1F
100
AcDbEntity
  8
numeros
 62
   250
420
  1842203
100
AcDbMText
 10
91.58217906781627
 20
143.7975965352312
 30
0.0
 40
2.3988648668226
 41
0.0
 71
     7
 72
     1
  1
\fArial|b0|i0|c0|p34;\W0.99999;72
 11
-4.371139000186241E-8
 21
0.999999999999999
 31
0.0
 73
     1
 44
1.0
  0
MTEXT
  5
30B
330
1F
100
AcDbEntity
  8
numeros
 62
   250
420
  1842203
100
AcDbMText
 10
102.7975151652728
 20
131.4644992075853
 30
0.0
 40
2.398888888289167
 41
0.0
 71
     7
 72
     1
  1
\fArial|b0|i0|c0|p34;\W1;100
 73
     1
 44
1.0
  0
MTEXT
  5
30C
330
1F
100
AcDbEntity
  8
numeros
 62
   250
420
  1842203
100
AcDbMText
 10
88.60682235198024
 20
144.6450900246026
 30
0.0
 40
2.3988648668226
 41
0.0
 71
     7
 72
     1
  1
\fArial|b0|i0|c0|p34;\W0.99999;62
 11
-4.371139000186241E-8
 21
0.999999999999999
 31
0.0
 73
     1
 44
1.0
  0
MTEXT
  5
30D
330
1F
100
AcDbEntity
  8
numeros
 62
   250
420
  1842203
100
AcDbMText
 10
71.13295354124455
 20
129.9651936524045
 30
0.0
 40
2.398888888289167
 41
0.0
 71
     7
 72
     1
  1
\fArial|b0|i0|c0|p34;\W1;4
 73
     1
 44
1.0
  0
MTEXT
  5
30E
330
1F
100
AcDbEntity
  8
numeros
 62
   250
420
  1842203
100
AcDbMText
 10
63.26056584790014
 20
129.7226589302429
 30
0.0
 40
2.398888888289167
 41
0.0
 71
     7
 72
     1
  1
\fArial|b0|i0|c0|p34;\W1;5
 73
     1
 44
1.0
  0
MTEXT
  5
30F
330
1F
100
AcDbEntity
  8
numeros
 62
   250
420
  1842203
100
AcDbMText
 10
71.02271048571654
 20
156.1610107031472
 30
0.0
 40
2.398888888289167
 41
0.0
 71
     7
 72
     1
  1
\fArial|b0|i0|c0|p34;\W1;95
 73
     1
 44
1.0
  0
ENDSEC
  0
SECTION
  2
OBJECTS
  0
DICTIONARY
  5
C
330
0
100
AcDbDictionary
281
     1
  3
ACAD_GROUP
350
D
  3
ACAD_LAYOUT
350
1A
  3
ACAD_MLINESTYLE
350
17
  3
ACAD_PLOTSETTINGS
350
19
  3
ACAD_PLOTSTYLENAME
350
E
  3
ACAD_TABLESTYLE
350
310
  3
ACAD_VISUALSTYLE
350
2A
  0
DICTIONARY
  5
D
102
{ACAD_REACTORS
330
C
102
}
330
C
100
AcDbDictionary
281
     1
  0
DICTIONARY
  5
1A
102
{ACAD_REACTORS
330
C
102
}
330
C
100
AcDbDictionary
281
     1
  3
Layout1
350
1E
  3
Layout2
350
26
  3
Model
350
22
  0
DICTIONARY
  5
17
102
{ACAD_REACTORS
330
C
102
}
330
C
100
AcDbDictionary
281
     1
  3
Standard
350
18
  0
DICTIONARY
  5
19
102
{ACAD_REACTORS
330
C
102
}
330
C
100
AcDbDictionary
281
     1
  0
ACDBDICTIONARYWDFLT
  5
E
102
{ACAD_REACTORS
330
C
102
}
330
C
100
AcDbDictionary
281
     1
  3
Normal
350
F
100
AcDbDictionaryWithDefault
340
F
  0
DICTIONARY
  5
310
102
{ACAD_REACTORS
330
C
102
}
330
C
100
AcDbDictionary
281
     1
  0
DICTIONARY
  5
2A
102
{ACAD_REACTORS
330
C
102
}
330
C
100
AcDbDictionary
281
     1
  3
2dWireframe
350
2F
  3
3D Hidden
350
31
  3
3dWireframe
350
30
  3
Basic
350
32
  3
Brighten
350
36
  3
ColorChange
350
3A
  3
Conceptual
350
34
  3
Dim
350
35
  3
Facepattern
350
39
  3
Flat
350
2B
  3
FlatWithEdges
350
2C
  3
Gouraud
350
2D
  3
GouraudWithEdges
350
2E
  3
Linepattern
350
38
  3
Realistic
350
33
  3
Thicken
350
37
  0
LAYOUT
  5
1E
102
{ACAD_REACTORS
330
1A
102
}
330
1A
100
AcDbPlotSettings
  1

  2
none_device
  4

  6

 40
0.0
 41
0.0
 42
0.0
 43
0.0
 44
0.0
 45
0.0
 46
0.0
 47
0.0
 48
0.0
 49
0.0
140
0.0
141
0.0
142
1.0
143
1.0
 70
   688
 72
     0
 73
     0
 74
     5
  7

 75
    16
 76
     0
 77
     2
 78
   300
147
1.0
148
0.0
149
0.0
100
AcDbLayout
  1
Layout1
 70
     1
 71
     1
 10
0.0
 20
0.0
 11
12.0
 21
9.0
 12
0.0
 22
0.0
 32
0.0
 14
1.000000000000000E+20
 24
1.000000000000000E+20
 34
1.000000000000000E+20
 15
-1.000000000000000E+20
 25
-1.000000000000000E+20
 35
-1.000000000000000E+20
146
0.0
 13
0.0
 23
0.0
 33
0.0
 16
1.0
 26
0.0
 36
0.0
 17
0.0
 27
1.0
 37
0.0
 76
     0
330
1B
  0
LAYOUT
  5
26
102
{ACAD_REACTORS
330
1A
102
}
330
1A
100
AcDbPlotSettings
  1

  2
none_device
  4

  6

 40
0.0
 41
0.0
 42
0.0
 43
0.0
 44
0.0
 45
0.0
 46
0.0
 47
0.0
 48
0.0
 49
0.0
140
0.0
141
0.0
142
1.0
143
1.0
 70
   688
 72
     0
 73
     0
 74
     5
  7

 75
    16
 76
     0
 77
     2
 78
   300
147
1.0
148
0.0
149
0.0
100
AcDbLayout
  1
Layout2
 70
     1
 71
     2
 10
0.0
 20
0.0
 11
0.0
 21
0.0
 12
0.0
 22
0.0
 32
0.0
 14
0.0
 24
0.0
 34
0.0
 15
0.0
 25
0.0
 35
0.0
146
0.0
 13
0.0
 23
0.0
 33
0.0
 16
1.0
 26
0.0
 36
0.0
 17
0.0
 27
1.0
 37
0.0
 76
     0
330
23
  0
LAYOUT
  5
22
102
{ACAD_REACTORS
330
1A
102
}
330
1A
100
AcDbPlotSettings
  1

  2
none_device
  4

  6

 40
0.0
 41
0.0
 42
0.0
 43
0.0
 44
0.0
 45
0.0
 46
0.0
 47
0.0
 48
0.0
 49
0.0
140
0.0
141
0.0
142
1.0
143
1.0
 70
  1712
 72
     0
 73
     0
 74
     0
  7

 75
     0
 76
     0
 77
     2
 78
   300
147
1.0
148
0.0
149
0.0
100
AcDbLayout
  1
Model
 70
     1
 71
     0
 10
0.0
 20
0.0
 11
12.0
 21
9.0
 12
0.0
 22
0.0
 32
0.0
 14
1.000000000000000E+20
 24
1.000000000000000E+20
 34
1.000000000000000E+20
 15
-1.000000000000000E+20
 25
-1.000000000000000E+20
 35
-1.000000000000000E+20
146
0.0
 13
0.0
 23
0.0
 33
0.0
 16
1.0
 26
0.0
 36
0.0
 17
0.0
 27
1.0
 37
0.0
 76
     0
330
1F
331
29
  0
MLINESTYLE
  5
18
102
{ACAD_REACTORS
330
17
102
}
330
17
100
AcDbMlineStyle
  2
Standard
 70
     0
  3

 62
   256
 51
90.0
 52
90.0
 71
     2
 49
0.5
 62
   256
  6
BYLAYER
 49
-0.5
 62
   256
  6
BYLAYER
  0
ACDBPLACEHOLDER
  5
F
102
{ACAD_REACTORS
330
E
102
}
330
E
  0
VISUALSTYLE
  5
2F
102
{ACAD_REACTORS
330
2A
102
}
330
2A
100
AcDbVisualStyle
  2
2dWireframe
 70
     4
 71
     0
 72
     2
 73
     0
 90
        0
 40
-0.6
 41
-30.0
 62
     5
 63
     7
421
 16777215
 74
     1
 91
        4
 64
     7
 65
   257
 75
     1
175
     1
 42
1.0
 92
        0
 66
   257
 43
1.0
 76
     1
 77
     6
 78
     2
 67
     7
 79
     5
170
     0
171
     0
290
     0
174
     0
 93
        1
 44
0.0
173
     0
291
     0
 45
0.0
1001
ACAD
1000
AcDbSavedByObjectVersion
1070
     0
  0
VISUALSTYLE
  5
31
102
{ACAD_REACTORS
330
2A
102
}
330
2A
100
AcDbVisualStyle
  2
3D Hidden
 70
     6
 71
     1
 72
     2
 73
     2
 90
        0
 40
-0.6
 41
-30.0
 62
     5
 63
     7
421
 16777215
 74
     2
 91
        2
 64
     7
 65
   257
 75
     2
175
     1
 42
40.0
 92
        0
 66
   257
 43
1.0
 76
     1
 77
     6
 78
     2
 67
     7
 79
     3
170
     0
171
     0
290
     0
174
     0
 93
        1
 44
0.0
173
     0
291
     0
 45
0.0
1001
ACAD
1000
AcDbSavedByObjectVersion
1070
     0
  0
VISUALSTYLE
  5
30
102
{ACAD_REACTORS
330
2A
102
}
330
2A
100
AcDbVisualStyle
  2
3dWireframe
 70
     5
 71
     0
 72
     2
 73
     0
 90
        0
 40
-0.6
 41
-30.0
 62
     5
 63
     7
421
 16777215
 74
     1
 91
        4
 64
     7
 65
   257
 75
     1
175
     1
 42
1.0
 92
        0
 66
   257
 43
1.0
 76
     1
 77
     6
 78
     2
 67
     7
 79
     5
170
     0
171
     0
290
     0
174
     0
 93
        1
 44
0.0
173
     0
291
     0
 45
0.0
1001
ACAD
1000
AcDbSavedByObjectVersion
1070
     0
  0
VISUALSTYLE
  5
32
102
{ACAD_REACTORS
330
2A
102
}
330
2A
100
AcDbVisualStyle
  2
Basic
 70
     7
 71
     1
 72
     0
 73
     1
 90
        0
 40
-0.6
 41
-30.0
 62
     5
 63
     7
421
 16777215
 74
     0
 91
        4
 64
     7
 65
   257
 75
     1
175
     1
 42
1.0
 92
        8
 66
     7
 43
1.0
 76
     1
 77
     6
 78
     2
 67
     7
 79
     5
170
     0
171
     0
290
     0
174
     0
 93
        1
 44
0.0
173
     0
291
     1
 45
0.0
1001
ACAD
1000
AcDbSavedByObjectVersion
1070
     0
  0
VISUALSTYLE
  5
36
102
{ACAD_REACTORS
330
2A
102
}
330
2A
100
AcDbVisualStyle
  2
Brighten
 70
    12
 71
     2
 72
     2
 73
     0
 90
        0
 40
-0.6
 41
-30.0
 62
     5
 63
     7
421
 16777215
 74
     1
 91
        4
 64
     7
 65
   257
 75
     1
175
     1
 42
1.0
 92
        8
 66
     7
 43
1.0
 76
     1
 77
     6
 78
     2
 67
     7
 79
     5
170
     0
171
     0
290
     0
174
     0
 93
        1
 44
50.0
173
     0
291
     1
 45
0.0
1001
ACAD
1000
AcDbSavedByObjectVersion
1070
     0
  0
VISUALSTYLE
  5
3A
102
{ACAD_REACTORS
330
2A
102
}
330
2A
100
AcDbVisualStyle
  2
ColorChange
 70
    16
 71
     2
 72
     2
 73
     3
 90
        0
 40
-0.6
 41
-30.0
 62
     5
 63
     8
421
  8421504
 74
     1
 91
        4
 64
     7
 65
   257
 75
     1
175
     1
 42
1.0
 92
        8
 66
     8
424
  8421504
 43
1.0
 76
     1
 77
     6
 78
     2
 67
     7
 79
     5
170
     0
171
     0
290
     0
174
     0
 93
        1
 44
0.0
173
     0
291
     1
 45
0.0
1001
ACAD
1000
AcDbSavedByObjectVersion
1070
     0
  0
VISUALSTYLE
  5
34
102
{ACAD_REACTORS
330
2A
102
}
330
2A
100
AcDbVisualStyle
  2
Conceptual
 70
     9
 71
     3
 72
     2
 73
     0
 90
        0
 40
-0.6
 41
-30.0
 62
     5
 63
     7
421
 16777215
 74
     2
 91
        2
 64
     7
 65
   257
 75
     1
175
     1
 42
40.0
 92
        8
 66
     7
 43
1.0
 76
     1
 77
     6
 78
     2
 67
     7
 79
     3
170
     0
171
     0
290
     0
174
     0
 93
        1
 44
0.0
173
     0
291
     0
 45
0.0
1001
ACAD
1000
AcDbSavedByObjectVersion
1070
     0
  0
VISUALSTYLE
  5
35
102
{ACAD_REACTORS
330
2A
102
}
330
2A
100
AcDbVisualStyle
  2
Dim
 70
    11
 71
     2
 72
     2
 73
     0
 90
        0
 40
-0.6
 41
-30.0
 62
     5
 63
     7
421
 16777215
 74
     1
 91
        4
 64
     7
 65
   257
 75
     1
175
     1
 42
1.0
 92
        8
 66
     7
 43
1.0
 76
     1
 77
     6
 78
     2
 67
     7
 79
     5
170
     0
171
     0
290
     0
174
     0
 93
        1
 44
-50.0
173
     0
291
     1
 45
0.0
1001
ACAD
1000
AcDbSavedByObjectVersion
1070
     0
  0
VISUALSTYLE
  5
39
102
{ACAD_REACTORS
330
2A
102
}
330
2A
100
AcDbVisualStyle
  2
Facepattern
 70
    15
 71
     2
 72
     2
 73
     0
 90
        0
 40
-0.6
 41
-30.0
 62
     5
 63
     7
421
 16777215
 74
     1
 91
        4
 64
     7
 65
   257
 75
     1
175
     1
 42
1.0
 92
        8
 66
     7
 43
1.0
 76
     1
 77
     6
 78
     2
 67
     7
 79
     5
170
     0
171
     0
290
     0
174
     0
 93
        1
 44
0.0
173
     0
291
     1
 45
0.0
1001
ACAD
1000
AcDbSavedByObjectVersion
1070
     0
  0
VISUALSTYLE
  5
2B
102
{ACAD_REACTORS
330
2A
102
}
330
2A
100
AcDbVisualStyle
  2
Flat
 70
     0
 71
     2
 72
     1
 73
     1
 90
        2
 40
-0.6
 41
30.0
 62
     5
 63
     7
421
 16777215
 74
     0
 91
        4
 64
     7
 65
   257
 75
     1
175
     1
 42
1.0
 92
        8
 66
     7
 43
1.0
 76
     1
 77
     6
 78
     2
 67
     7
 79
     5
170
     0
171
     0
290
     0
174
     0
 93
       13
 44
0.0
173
     0
291
     1
 45
0.0
1001
ACAD
1000
AcDbSavedByObjectVersion
1070
     0
  0
VISUALSTYLE
  5
2C
102
{ACAD_REACTORS
330
2A
102
}
330
2A
100
AcDbVisualStyle
  2
FlatWithEdges
 70
     1
 71
     2
 72
     1
 73
     1
 90
        2
 40
-0.6
 41
30.0
 62
     5
 63
     7
421
 16777215
 74
     1
 91
        4
 64
     7
 65
   257
 75
     1
175
     1
 42
1.0
 92
        0
 66
   257
 43
1.0
 76
     1
 77
     6
 78
     2
 67
     7
 79
     5
170
     0
171
     0
290
     0
174
     0
 93
       13
 44
0.0
173
     0
291
     1
 45
0.0
1001
ACAD
1000
AcDbSavedByObjectVersion
1070
     0
  0
VISUALSTYLE
  5
2D
102
{ACAD_REACTORS
330
2A
102
}
330
2A
100
AcDbVisualStyle
  2
Gouraud
 70
     2
 71
     2
 72
     2
 73
     1
 90
        2
 40
-0.6
 41
30.0
 62
     5
 63
     7
421
 16777215
 74
     0
 91
        4
 64
     7
 65
   257
 75
     1
175
     1
 42
1.0
 92
        0
 66
     7
 43
1.0
 76
     1
 77
     6
 78
     2
 67
     7
 79
     5
170
     0
171
     0
290
     0
174
     0
 93
       13
 44
0.0
173
     0
291
     1
 45
0.0
1001
ACAD
1000
AcDbSavedByObjectVersion
1070
     0
  0
VISUALSTYLE
  5
2E
102
{ACAD_REACTORS
330
2A
102
}
330
2A
100
AcDbVisualStyle
  2
GouraudWithEdges
 70
     3
 71
     2
 72
     2
 73
     1
 90
        2
 40
-0.6
 41
30.0
 62
     5
 63
     7
421
 16777215
 74
     1
 91
        4
 64
     7
 65
   257
 75
     1
175
     1
 42
1.0
 92
        0
 66
   257
 43
1.0
 76
     1
 77
     6
 78
     2
 67
     7
 79
     5
170
     0
171
     0
290
     0
174
     0
 93
       13
 44
0.0
173
     0
291
     1
 45
0.0
1001
ACAD
1000
AcDbSavedByObjectVersion
1070
     0
  0
VISUALSTYLE
  5
38
102
{ACAD_REACTORS
330
2A
102
}
330
2A
100
AcDbVisualStyle
  2
Linepattern
 70
    14
 71
     2
 72
     2
 73
     0
 90
        0
 40
-0.6
 41
-30.0
 62
     5
 63
     7
421
 16777215
 74
     1
 91
        4
 64
     7
 65
   257
 75
     7
175
     7
 42
1.0
 92
        8
 66
     7
 43
1.0
 76
     1
 77
     6
 78
     2
 67
     7
 79
     5
170
     0
171
     0
290
     0
174
     0
 93
        1
 44
0.0
173
     0
291
     1
 45
0.0
1001
ACAD
1000
AcDbSavedByObjectVersion
1070
     0
  0
VISUALSTYLE
  5
33
102
{ACAD_REACTORS
330
2A
102
}
330
2A
100
AcDbVisualStyle
  2
Realistic
 70
     8
 71
     2
 72
     2
 73
     0
 90
        0
 40
-0.6
 41
-30.0
 62
     5
 63
     7
421
 16777215
 74
     1
 91
        0
 64
     7
 65
   257
 75
     1
175
     1
 42
1.0
 92
        8
 66
     8
424
  7895160
 43
1.0
 76
     1
 77
     6
 78
     2
 67
     7
 79
     5
170
     0
171
     0
290
     0
174
     0
 93
       13
 44
0.0
173
     0
291
     0
 45
0.0
1001
ACAD
1000
AcDbSavedByObjectVersion
1070
     0
  0
VISUALSTYLE
  5
37
102
{ACAD_REACTORS
330
2A
102
}
330
2A
100
AcDbVisualStyle
  2
Thicken
 70
    13
 71
     2
 72
     2
 73
     0
 90
        0
 40
-0.6
 41
-30.0
 62
     5
 63
     7
421
 16777215
 74
     1
 91
        4
 64
     7
 65
   257
 75
     1
175
     1
 42
1.0
 92
       12
 66
     7
 43
1.0
 76
     1
 77
     6
 78
     2
 67
     7
 79
     5
170
     0
171
     0
290
     0
174
     0
 93
        1
 44
0.0
173
     0
291
     1
 45
0.0
1001
ACAD
1000
AcDbSavedByObjectVersion
1070
     0
  0
ENDSEC
  0
EOF
