  0
SECTION
  2
HEADER
  9
$ACADVER
  1
AC1027
  9
$ACADMAINTVER
 70
   125
  9
$DWGCODEPAGE
  3
ANSI_1252
  9
$REQUIREDVERSIONS
160
                 0
  9
$INSBASE
 10
0.0
 20
0.0
 30
0.0
  9
$EXTMIN
 10
1.000000000000000E+20
 20
1.000000000000000E+20
 30
1.000000000000000E+20
  9
$EXTMAX
 10
-1.000000000000000E+20
 20
-1.000000000000000E+20
 30
-1.000000000000000E+20
  9
$LIMMIN
 10
0.0
 20
0.0
  9
$LIMMAX
 10
12.0
 20
9.0
  9
$ORTHOMODE
 70
     0
  9
$REGENMODE
 70
     1
  9
$FILLMODE
 70
     1
  9
$QTEXTMODE
 70
     0
  9
$MIRRTEXT
 70
     0
  9
$LTSCALE
 40
1.0
  9
$ATTMODE
 70
     1
  9
$TEXTSIZE
 40
0.2
  9
$TRACEWID
 40
0.05
  9
$TEXTSTYLE
  7
Standard
  9
$CLAYER
  8
0
  9
$CELTYPE
  6
ByLayer
  9
$CECOLOR
 62
   256
  9
$CELTSCALE
 40
1.0
  9
$DISPSILH
 70
     0
  9
$DIMSCALE
 40
1.0
  9
$DIMASZ
 40
0.18
  9
$DIMEXO
 40
0.0625
  9
$DIMDLI
 40
0.38
  9
$DIMRND
 40
0.0
  9
$DIMDLE
 40
0.0
  9
$DIMEXE
 40
0.18
  9
$DIMTP
 40
0.0
  9
$DIMTM
 40
0.0
  9
$DIMTXT
 40
0.18
  9
$DIMCEN
 40
0.09
  9
$DIMTSZ
 40
0.0
  9
$DIMTOL
 70
     0
  9
$DIMLIM
 70
     0
  9
$DIMTIH
 70
     1
  9
$DIMTOH
 70
     1
  9
$DIMSE1
 70
     0
  9
$DIMSE2
 70
     0
  9
$DIMTAD
 70
     0
  9
$DIMZIN
 70
     0
  9
$DIMBLK
  1

  9
$DIMASO
 70
     1
  9
$DIMSHO
 70
     1
  9
$DIMPOST
  1

  9
$DIMAPOST
  1

  9
$DIMALT
 70
     0
  9
$DIMALTD
 70
     2
  9
$DIMALTF
 40
25.4
  9
$DIMLFAC
 40
1.0
  9
$DIMTOFL
 70
     0
  9
$DIMTVP
 40
0.0
  9
$DIMTIX
 70
     0
  9
$DIMSOXD
 70
     0
  9
$DIMSAH
 70
     0
  9
$DIMBLK1
  1

  9
$DIMBLK2
  1

  9
$DIMSTYLE
  2
Standard
  9
$DIMCLRD
 70
     0
  9
$DIMCLRE
 70
     0
  9
$DIMCLRT
 70
     0
  9
$DIMTFAC
 40
1.0
  9
$DIMGAP
 40
0.09
  9
$DIMJUST
 70
     0
  9
$DIMSD1
 70
     0
  9
$DIMSD2
 70
     0
  9
$DIMTOLJ
 70
     1
  9
$DIMTZIN
 70
     0
  9
$DIMALTZ
 70
     0
  9
$DIMALTTZ
 70
     0
  9
$DIMUPT
 70
     0
  9
$DIMDEC
 70
     4
  9
$DIMTDEC
 70
     4
  9
$DIMALTU
 70
     2
  9
$DIMALTTD
 70
     2
  9
$DIMTXSTY
  7
Standard
  9
$DIMAUNIT
 70
     0
  9
$DIMADEC
 70
     0
  9
$DIMALTRND
 40
0.0
  9
$DIMAZIN
 70
     0
  9
$DIMDSEP
 70
    46
  9
$DIMATFIT
 70
     3
  9
$DIMFRAC
 70
     0
  9
$DIMLDRBLK
  1

  9
$DIMLUNIT
 70
     2
  9
$DIMLWD
 70
    -2
  9
$DIMLWE
 70
    -2
  9
$DIMTMOVE
 70
     0
  9
$DIMFXL
 40
1.0
  9
$DIMFXLON
 70
     0
  9
$DIMJOGANG
 40
0.7853981633974483
  9
$DIMTFILL
 70
     0
  9
$DIMTFILLCLR
 70
     0
  9
$DIMARCSYM
 70
     0
  9
$DIMLTYPE
  6

  9
$DIMLTEX1
  6

  9
$DIMLTEX2
  6

  9
$DIMTXTDIRECTION
 70
     0
  9
$LUNITS
 70
     2
  9
$LUPREC
 70
     4
  9
$SKETCHINC
 40
0.1
  9
$FILLETRAD
 40
0.0
  9
$AUNITS
 70
     0
  9
$AUPREC
 70
     0
  9
$MENU
  1
.
  9
$ELEVATION
 40
0.0
  9
$PELEVATION
 40
0.0
  9
$THICKNESS
 40
0.0
  9
$LIMCHECK
 70
     0
  9
$CHAMFERA
 40
0.0
  9
$CHAMFERB
 40
0.0
  9
$CHAMFERC
 40
0.0
  9
$CHAMFERD
 40
0.0
  9
$SKPOLY
 70
     0
  9
$TDCREATE
 40
2459468.438657407
  9
$TDUCREATE
 40
2459468.355324074
  9
$TDUPDATE
 40
2459468.438657407
  9
$TDUUPDATE
 40
2459468.355324074
  9
$TDINDWG
 40
0.0000000000
  9
$TDUSRTIMER
 40
0.0000000000
  9
$USRTIMER
 70
     1
  9
$ANGBASE
 50
0.0
  9
$ANGDIR
 70
     0
  9
$PDMODE
 70
     0
  9
$PDSIZE
 40
0.0
  9
$PLINEWID
 40
0.0
  9
$SPLFRAME
 70
     0
  9
$SPLINETYPE
 70
     6
  9
$SPLINESEGS
 70
     8
  9
$HANDSEED
  5
10F
  9
$SURFTAB1
 70
     6
  9
$SURFTAB2
 70
     6
  9
$SURFTYPE
 70
     6
  9
$SURFU
 70
     6
  9
$SURFV
 70
     6
  9
$UCSBASE
  2

  9
$UCSNAME
  2

  9
$UCSORG
 10
0.0
 20
0.0
 30
0.0
  9
$UCSXDIR
 10
1.0
 20
0.0
 30
0.0
  9
$UCSYDIR
 10
0.0
 20
1.0
 30
0.0
  9
$UCSORTHOREF
  2

  9
$UCSORTHOVIEW
 70
     0
  9
$UCSORGTOP
 10
0.0
 20
0.0
 30
0.0
  9
$UCSORGBOTTOM
 10
0.0
 20
0.0
 30
0.0
  9
$UCSORGLEFT
 10
0.0
 20
0.0
 30
0.0
  9
$UCSORGRIGHT
 10
0.0
 20
0.0
 30
0.0
  9
$UCSORGFRONT
 10
0.0
 20
0.0
 30
0.0
  9
$UCSORGBACK
 10
0.0
 20
0.0
 30
0.0
  9
$PUCSBASE
  2

  9
$PUCSNAME
  2

  9
$PUCSORG
 10
0.0
 20
0.0
 30
0.0
  9
$PUCSXDIR
 10
1.0
 20
0.0
 30
0.0
  9
$PUCSYDIR
 10
0.0
 20
1.0
 30
0.0
  9
$PUCSORTHOREF
  2

  9
$PUCSORTHOVIEW
 70
     0
  9
$PUCSORGTOP
 10
0.0
 20
0.0
 30
0.0
  9
$PUCSORGBOTTOM
 10
0.0
 20
0.0
 30
0.0
  9
$PUCSORGLEFT
 10
0.0
 20
0.0
 30
0.0
  9
$PUCSORGRIGHT
 10
0.0
 20
0.0
 30
0.0
  9
$PUCSORGFRONT
 10
0.0
 20
0.0
 30
0.0
  9
$PUCSORGBACK
 10
0.0
 20
0.0
 30
0.0
  9
$USERI1
 70
     0
  9
$USERI2
 70
     0
  9
$USERI3
 70
     0
  9
$USERI4
 70
     0
  9
$USERI5
 70
     0
  9
$USERR1
 40
0.0
  9
$USERR2
 40
0.0
  9
$USERR3
 40
0.0
  9
$USERR4
 40
0.0
  9
$USERR5
 40
0.0
  9
$WORLDVIEW
 70
     1
  9
$SHADEDGE
 70
     3
  9
$SHADEDIF
 70
    70
  9
$TILEMODE
 70
     1
  9
$MAXACTVP
 70
    64
  9
$PINSBASE
 10
0.0
 20
0.0
 30
0.0
  9
$PLIMCHECK
 70
     0
  9
$PEXTMIN
 10
1.000000000000000E+20
 20
1.000000000000000E+20
 30
1.000000000000000E+20
  9
$PEXTMAX
 10
-1.000000000000000E+20
 20
-1.000000000000000E+20
 30
-1.000000000000000E+20
  9
$PLIMMIN
 10
0.0
 20
0.0
  9
$PLIMMAX
 10
12.0
 20
9.0
  9
$UNITMODE
 70
     0
  9
$VISRETAIN
 70
     1
  9
$PLINEGEN
 70
     0
  9
$PSLTSCALE
 70
     1
  9
$TREEDEPTH
 70
  3020
  9
$CMLSTYLE
  2
Standard
  9
$CMLJUST
 70
     0
  9
$CMLSCALE
 40
1.0
  9
$PROXYGRAPHICS
 70
     1
  9
$MEASUREMENT
 70
     0
  9
$CELWEIGHT
370
    -1
  9
$ENDCAPS
280
     0
  9
$JOINSTYLE
280
     0
  9
$LWDISPLAY
290
     1
  9
$INSUNITS
 70
     0
  9
$HYPERLINKBASE
  1

  9
$STYLESHEET
  1

  9
$XEDIT
290
     1
  9
$CEPSNTYPE
380
     0
  9
$PSTYLEMODE
290
     1
  9
$FINGERPRINTGUID
  2
{3871A81E-7126-694A-95C1-CC3FD82C0131}
  9
$VERSIONGUID
  2
{7FF0EE0F-A98F-5640-A1BF-B701E565A9CF}
  9
$EXTNAMES
290
     1
  9
$PSVPSCALE
 40
0.0
  9
$OLESTARTUP
290
     0
  9
$SORTENTS
280
   127
  9
$INDEXCTL
280
     0
  9
$HIDETEXT
280
     1
  9
$XCLIPFRAME
280
     2
  9
$HALOGAP
280
     0
  9
$OBSCOLOR
 70
   257
  9
$OBSLTYPE
280
     0
  9
$INTERSECTIONDISPLAY
280
     0
  9
$INTERSECTIONCOLOR
 70
   257
  9
$DIMASSOC
280
     2
  9
$PROJECTNAME
  1

  9
$CAMERADISPLAY
290
     0
  9
$LENSLENGTH
 40
50.0
  9
$CAMERAHEIGHT
 40
0.0
  9
$STEPSPERSEC
 40
2.0
  9
$STEPSIZE
 40
6.0
  9
$3DDWFPREC
 40
2.0
  9
$PSOLWIDTH
 40
0.25
  9
$PSOLHEIGHT
 40
4.0
  9
$LOFTANG1
 40
1.570796326794896
  9
$LOFTANG2
 40
1.570796326794896
  9
$LOFTMAG1
 40
0.0
  9
$LOFTMAG2
 40
0.0
  9
$LOFTPARAM
 70
     7
  9
$LOFTNORMALS
280
     1
  9
$LATITUDE
 40
37.795
  9
$LONGITUDE
 40
-122.394
  9
$NORTHDIRECTION
 40
0.0
  9
$TIMEZONE
 70
 -8000
  9
$LIGHTGLYPHDISPLAY
280
     1
  9
$TILEMODELIGHTSYNCH
280
     1
  9
$CMATERIAL
347
11
  9
$SOLIDHIST
280
     0
  9
$SHOWHIST
280
     1
  9
$DWFFRAME
280
     2
  9
$DGNFRAME
280
     0
  9
$REALWORLDSCALE
290
     1
  9
$INTERFERECOLOR
 62
     1
  9
$INTERFEREOBJVS
345
33
  9
$INTERFEREVPVS
346
30
  9
$CSHADOW
280
     0
  9
$SHADOWPLANELOCATION
 40
0.0
  0
ENDSEC
  0
SECTION
  2
CLASSES
  0
CLASS
  1
ACDBDICTIONARYWDFLT
  2
AcDbDictionaryWithDefault
  3
ObjectDBX Classes
 90
        0
 91
        1
280
     0
281
     0
  0
CLASS
  1
MATERIAL
  2
AcDbMaterial
  3
ObjectDBX Classes
 90
     1153
 91
        3
280
     0
281
     0
  0
CLASS
  1
VISUALSTYLE
  2
AcDbVisualStyle
  3
ObjectDBX Classes
 90
     4095
 91
       24
280
     0
281
     0
  0
CLASS
  1
SCALE
  2
AcDbScale
  3
ObjectDBX Classes
 90
     1153
 91
       17
280
     0
281
     0
  0
CLASS
  1
TABLESTYLE
  2
AcDbTableStyle
  3
ObjectDBX Classes
 90
     4095
 91
        1
280
     0
281
     0
  0
CLASS
  1
MLEADERSTYLE
  2
AcDbMLeaderStyle
  3
ACDB_MLEADERSTYLE_CLASS
 90
     4095
 91
        1
280
     0
281
     0
  0
CLASS
  1
ACDBSECTIONVIEWSTYLE
  2
AcDbSectionViewStyle
  3
ObjectDBX Classes
 90
     1025
 91
        1
280
     0
281
     0
  0
CLASS
  1
ACDBDETAILVIEWSTYLE
  2
AcDbDetailViewStyle
  3
ObjectDBX Classes
 90
     1025
 91
        1
280
     0
281
     0
  0
CLASS
  1
DICTIONARYVAR
  2
AcDbDictionaryVar
  3
ObjectDBX Classes
 90
        0
 91
        5
280
     0
281
     0
  0
CLASS
  1
CELLSTYLEMAP
  2
AcDbCellStyleMap
  3
ObjectDBX Classes
 90
     1152
 91
        1
280
     0
281
     0
  0
ENDSEC
  0
SECTION
  2
TABLES
  0
TABLE
  2
VPORT
  5
8
330
0
100
AcDbSymbolTable
 70
     1
1001
ACAD
1000
DbSaveVer
1071
      205
  0
VPORT
  5
57
330
8
100
AcDbSymbolTableRecord
100
AcDbViewportTableRecord
  2
*Active
 70
     0
 10
0.0
 20
0.0
 11
1.0
 21
1.0
 12
0.0
 22
0.0
 13
0.0
 23
0.0
 14
1.0
 24
1.0
 15
0.0
 25
0.0
 16
0.0
 26
0.0
 36
1.0
 17
133.4444444444445
 27
694.7777777777765
 37
0.0
 40
223.0400000000012
 41
0.9674796747967452
 42
50.0
 43
0.0
 44
0.0
 50
0.0
 51
0.0
 71
     0
 72
   100
 73
     1
 74
     0
 75
     1
 76
     0
 77
     0
 78
     0
281
     0
 65
     1
110
0.0
120
0.0
130
0.0
111
1.0
121
0.0
131
0.0
112
0.0
122
1.0
132
0.0
 79
     0
146
0.0
 60
     3
 61
     5
292
     1
282
     1
141
0.0
142
0.0
 63
   250
421
  3355443
  0
ENDTAB
  0
TABLE
  2
LTYPE
  5
5
330
0
100
AcDbSymbolTable
 70
     1
  0
LTYPE
  5
5B
330
5
100
AcDbSymbolTableRecord
100
AcDbLinetypeTableRecord
  2
ByBlock
 70
     0
  3

 72
    65
 73
     0
 40
0.0
  0
LTYPE
  5
5C
330
5
100
AcDbSymbolTableRecord
100
AcDbLinetypeTableRecord
  2
ByLayer
 70
     0
  3

 72
    65
 73
     0
 40
0.0
  0
LTYPE
  5
5D
330
5
100
AcDbSymbolTableRecord
100
AcDbLinetypeTableRecord
  2
Continuous
 70
     0
  3
Solid line
 72
    65
 73
     0
 40
0.0
  0
ENDTAB
  0
TABLE
  2
LAYER
  5
2
330
0
100
AcDbSymbolTable
 70
     2
  0
LAYER
  5
54
330
2
100
AcDbSymbolTableRecord
100
AcDbLayerTableRecord
  2
0
 70
     0
 62
     7
  6
Continuous
370
    -3
390
F
347
21
348
0
  0
LAYER
  5
78
330
2
100
AcDbSymbolTableRecord
100
AcDbLayerTableRecord
  2
capa1
 70
     0
 62
     7
  6
Continuous
370
     0
390
F
347
21
348
0
  0
ENDTAB
  0
TABLE
  2
STYLE
  5
3
330
0
100
AcDbSymbolTable
 70
     2
  0
STYLE
  5
55
330
3
100
AcDbSymbolTableRecord
100
AcDbTextStyleTableRecord
  2
Standard
 70
     0
 40
0.0
 41
1.0
 50
0.0
 71
     0
 42
0.2
  3
txt
  4

  0
STYLE
  5
5A
330
3
100
AcDbSymbolTableRecord
100
AcDbTextStyleTableRecord
  2
Annotative
 70
     0
 40
0.0
 41
1.0
 50
0.0
 71
     0
 42
0.2
  3
txt
  4

1001
AcadAnnotative
1000
AnnotativeData
1002
{
1070
     1
1070
     1
1002
}
  0
ENDTAB
  0
TABLE
  2
VIEW
  5
6
330
0
100
AcDbSymbolTable
 70
     0
  0
ENDTAB
  0
TABLE
  2
UCS
  5
7
330
0
100
AcDbSymbolTable
 70
     0
  0
ENDTAB
  0
TABLE
  2
APPID
  5
9
330
0
100
AcDbSymbolTable
 70
     2
  0
APPID
  5
56
330
9
100
AcDbSymbolTableRecord
100
AcDbRegAppTableRecord
  2
ACAD
 70
     0
  0
APPID
  5
5E
330
9
100
AcDbSymbolTableRecord
100
AcDbRegAppTableRecord
  2
AcadAnnotative
 70
     0
  0
ENDTAB
  0
TABLE
  2
DIMSTYLE
  5
A
330
0
100
AcDbSymbolTable
 70
     2
100
AcDbDimStyleTable
 71
     0
  0
DIMSTYLE
105
58
330
A
100
AcDbSymbolTableRecord
100
AcDbDimStyleTableRecord
  2
Standard
 70
     0
340
55
  0
DIMSTYLE
105
59
330
A
100
AcDbSymbolTableRecord
100
AcDbDimStyleTableRecord
  2
Annotative
 70
     0
340
55
1001
AcadAnnotative
1000
AnnotativeData
1002
{
1070
     1
1070
     1
1002
}
  0
ENDTAB
  0
TABLE
  2
BLOCK_RECORD
  5
1
330
0
100
AcDbSymbolTable
 70
     3
  0
BLOCK_RECORD
  5
70
330
1
100
AcDbSymbolTableRecord
100
AcDbBlockTableRecord
  2
*Model_Space
340
73
 70
     0
280
     1
281
     0
  0
BLOCK_RECORD
  5
6C
330
1
100
AcDbSymbolTableRecord
100
AcDbBlockTableRecord
  2
*Paper_Space
340
6F
 70
     0
280
     1
281
     0
  0
BLOCK_RECORD
  5
74
330
1
100
AcDbSymbolTableRecord
100
AcDbBlockTableRecord
  2
*Paper_Space0
340
77
 70
     0
280
     1
281
     0
  0
BLOCK_RECORD
  5
88
330
1
100
AcDbSymbolTableRecord
100
AcDbBlockTableRecord
  2
Block_0
340
0
102
{BLKREFS
331
89
102
}
 70
     0
280
     1
281
     0
  0
BLOCK_RECORD
  5
95
330
1
100
AcDbSymbolTableRecord
100
AcDbBlockTableRecord
  2
Block_1
340
0
102
{BLKREFS
331
96
102
}
 70
     0
280
     1
281
     0
  0
ENDTAB
  0
ENDSEC
  0
SECTION
  2
BLOCKS
  0
BLOCK
  5
71
330
70
100
AcDbEntity
  8
0
100
AcDbBlockBegin
  2
*Model_Space
 70
     0
 10
0.0
 20
0.0
 30
0.0
  3
*Model_Space
  1

  0
ENDBLK
  5
72
330
70
100
AcDbEntity
  8
0
100
AcDbBlockEnd
  0
BLOCK
  5
6D
330
6C
100
AcDbEntity
 67
     1
  8
0
100
AcDbBlockBegin
  2
*Paper_Space
 70
     0
 10
0.0
 20
0.0
 30
0.0
  3
*Paper_Space
  1

  0
ENDBLK
  5
6E
330
6C
100
AcDbEntity
 67
     1
  8
0
100
AcDbBlockEnd
  0
BLOCK
  5
75
330
74
100
AcDbEntity
 67
     1
  8
0
100
AcDbBlockBegin
  2
*Paper_Space0
 70
     0
 10
0.0
 20
0.0
 30
0.0
  3
*Paper_Space0
  1

  0
ENDBLK
  5
76
330
74
100
AcDbEntity
 67
     1
  8
0
100
AcDbBlockEnd
  0
BLOCK
  5
8A
330
88
100
AcDbEntity
  8
0
100
AcDbBlockBegin
  2
Block_0
 70
     0
 10
0.0
 20
0.0
 30
0.0
  3
Block_0
  1

  0
LWPOLYLINE
  5
8C
330
88
100
AcDbEntity
  8
capa1
 62
   250
420
  1907995
370
    13
100
AcDbPolyline
 90
        4
 70
     1
 43
0.0
 10
79.5600000000004
 20
678.5279828589409
 10
87.33600000000024
 20
678.5279828589409
 10
87.33600000000024
 20
689.903982571559
 10
79.5600000000004
 20
689.903982571559
  0
LWPOLYLINE
  5
8D
330
88
100
AcDbEntity
  8
capa1
 62
   250
420
  1907995
370
    13
100
AcDbPolyline
 90
        4
 70
     1
 43
0.0
 10
87.33600000000024
 20
678.5279828589409
 10
95.11200000000007
 20
678.5279828589409
 10
95.11200000000007
 20
689.903982571559
 10
87.33600000000024
 20
689.903982571559
  0
LWPOLYLINE
  5
8E
330
88
100
AcDbEntity
  8
capa1
 62
   250
420
  1907995
370
    13
100
AcDbPolyline
 90
        4
 70
     1
 43
0.0
 10
95.11200000000007
 20
678.5279828589409
 10
102.8879974008305
 20
678.5279828589409
 10
102.8879974008305
 20
689.903982571559
 10
95.11200000000007
 20
689.903982571559
  0
LWPOLYLINE
  5
8F
330
88
100
AcDbEntity
  8
capa1
 62
   250
420
  1907995
370
    13
100
AcDbPolyline
 90
        4
 70
     1
 43
0.0
 10
102.8879974008305
 20
678.5279828589409
 10
110.6639972043922
 20
678.5279828589409
 10
110.6639972043922
 20
689.903982571559
 10
102.8879974008305
 20
689.903982571559
  0
LWPOLYLINE
  5
90
330
88
100
AcDbEntity
  8
capa1
 62
   250
420
  1907995
370
    13
100
AcDbPolyline
 90
        4
 70
     1
 43
0.0
 10
110.6639972043922
 20
678.5279828589409
 10
118.4399970079539
 20
678.5279828589409
 10
118.4399970079539
 20
689.903982571559
 10
110.6639972043922
 20
689.903982571559
  0
LWPOLYLINE
  5
91
330
88
100
AcDbEntity
  8
capa1
 62
   250
420
  1907995
370
    13
100
AcDbPolyline
 90
        4
 70
     1
 43
0.0
 10
118.4399970079539
 20
678.5279828589409
 10
126.2879968096968
 20
678.5279828589409
 10
126.2879968096968
 20
689.903982571559
 10
118.4399970079539
 20
689.903982571559
  0
LWPOLYLINE
  5
92
330
88
100
AcDbEntity
  8
capa1
 62
   250
420
  1907995
370
    13
100
AcDbPolyline
 90
        4
 70
     1
 43
0.0
 10
126.2879968096968
 20
678.5279828589409
 10
134.0639966132585
 20
678.5279828589409
 10
134.0639966132585
 20
689.903982571559
 10
126.2879968096968
 20
689.903982571559
  0
LWPOLYLINE
  5
93
330
88
100
AcDbEntity
  8
capa1
 62
   250
420
  1907995
370
    13
100
AcDbPolyline
 90
        4
 70
     1
 43
0.0
 10
134.0639966132585
 20
678.5279828589409
 10
141.8399964168202
 20
678.5279828589409
 10
141.8399964168202
 20
689.903982571559
 10
134.0639966132585
 20
689.903982571559
  0
LWPOLYLINE
  5
94
330
88
100
AcDbEntity
  8
capa1
 62
   250
420
  1907995
370
    13
100
AcDbPolyline
 90
        4
 70
     1
 43
0.0
 10
141.8399964168202
 20
678.5279828589409
 10
149.6159962203819
 20
678.5279828589409
 10
149.6159962203819
 20
689.903982571559
 10
141.8399964168202
 20
689.903982571559
  0
ENDBLK
  5
8B
330
88
100
AcDbEntity
  8
0
100
AcDbBlockEnd
  0
BLOCK
  5
97
330
95
100
AcDbEntity
  8
0
100
AcDbBlockBegin
  2
Block_1
 70
     0
 10
0.0
 20
0.0
 30
0.0
  3
Block_1
  1

  0
LWPOLYLINE
  5
99
330
95
100
AcDbEntity
  8
capa1
 62
   250
420
  1907995
370
    13
100
AcDbPolyline
 90
        4
 70
     1
 43
0.0
 10
89.42399999999997
 20
632.3039840266574
 10
97.27199999999994
 20
632.3039840266574
 10
97.27199999999994
 20
643.9679837319999
 10
89.42399999999997
 20
643.9679837319999
  0
LWPOLYLINE
  5
9A
330
95
100
AcDbEntity
  8
capa1
 62
   250
420
  1907995
370
    13
100
AcDbPolyline
 90
        4
 70
     1
 43
0.0
 10
97.27199999999994
 20
632.3039840266574
 10
105.0479973462643
 20
632.3039840266574
 10
105.0479973462643
 20
643.9679837319999
 10
97.27199999999994
 20
643.9679837319999
  0
LWPOLYLINE
  5
9B
330
95
100
AcDbEntity
  8
capa1
 62
   250
420
  1907995
370
    13
100
AcDbPolyline
 90
        4
 70
     1
 43
0.0
 10
105.0479973462643
 20
632.3039840266574
 10
112.8959971480071
 20
632.3039840266574
 10
112.8959971480071
 20
643.9679837319999
 10
105.0479973462643
 20
643.9679837319999
  0
LWPOLYLINE
  5
9C
330
95
100
AcDbEntity
  8
capa1
 62
   250
420
  1907995
370
    13
100
AcDbPolyline
 90
        4
 70
     1
 43
0.0
 10
112.8959971480071
 20
632.3039840266574
 10
120.74399694975
 20
632.3039840266574
 10
120.74399694975
 20
643.9679837319999
 10
112.8959971480071
 20
643.9679837319999
  0
LWPOLYLINE
  5
9D
330
95
100
AcDbEntity
  8
capa1
 62
   250
420
  1907995
370
    13
100
AcDbPolyline
 90
        4
 70
     1
 43
0.0
 10
120.74399694975
 20
632.3039840266574
 10
128.5199967533117
 20
632.3039840266574
 10
128.5199967533117
 20
643.9679837319999
 10
120.74399694975
 20
643.9679837319999
  0
LWPOLYLINE
  5
9E
330
95
100
AcDbEntity
  8
capa1
 62
   250
420
  1907995
370
    13
100
AcDbPolyline
 90
        4
 70
     1
 43
0.0
 10
128.5199967533117
 20
632.3039840266574
 10
136.3679965550545
 20
632.3039840266574
 10
136.3679965550545
 20
643.9679837319999
 10
128.5199967533117
 20
643.9679837319999
  0
LWPOLYLINE
  5
9F
330
95
100
AcDbEntity
  8
capa1
 62
   250
420
  1907995
370
    13
100
AcDbPolyline
 90
        4
 70
     1
 43
0.0
 10
136.3679965550545
 20
632.3039840266574
 10
144.1439963586162
 20
632.3039840266574
 10
144.1439963586162
 20
643.9679837319999
 10
136.3679965550545
 20
643.9679837319999
  0
LWPOLYLINE
  5
A0
330
95
100
AcDbEntity
  8
capa1
 62
   250
420
  1907995
370
    13
100
AcDbPolyline
 90
        4
 70
     1
 43
0.0
 10
144.1439963586162
 20
632.3039840266574
 10
151.9919961603591
 20
632.3039840266574
 10
151.9919961603591
 20
643.9679837319999
 10
144.1439963586162
 20
643.9679837319999
  0
LWPOLYLINE
  5
A1
330
95
100
AcDbEntity
  8
capa1
 62
   250
420
  1907995
370
    13
100
AcDbPolyline
 90
        4
 70
     1
 43
0.0
 10
151.9919961603591
 20
632.3039840266574
 10
159.8399959621019
 20
632.3039840266574
 10
159.8399959621019
 20
643.9679837319999
 10
151.9919961603591
 20
643.9679837319999
  0
LWPOLYLINE
  5
A2
330
95
100
AcDbEntity
  8
capa1
 62
   250
420
  1907995
370
    13
100
AcDbPolyline
 90
        4
 70
     1
 43
0.0
 10
159.8399959621019
 20
632.3039840266574
 10
167.6159957656637
 20
632.3039840266574
 10
167.6159957656637
 20
643.9679837319999
 10
159.8399959621019
 20
643.9679837319999
  0
ENDBLK
  5
98
330
95
100
AcDbEntity
  8
0
100
AcDbBlockEnd
  0
ENDSEC
  0
SECTION
  2
ENTITIES
  0
LWPOLYLINE
  5
79
330
70
100
AcDbEntity
  8
capa1
100
AcDbPolyline
 90
        8
 70
     1
 43
0.0
 10
205.6319948052987
 20
612.2159845341229
 10
205.6319948052987
 20
616.3919844286283
 10
204.1199948434951
 20
616.3919844286283
 10
204.1199948434951
 20
617.1839844086207
 10
208.1519947416382
 20
617.1839844086207
 10
208.1519947416382
 20
616.3919844286283
 10
206.6399947798345
 20
616.3919844286283
 10
206.6399947798345
 20
612.2159845341229
  0
HATCH
  5
7A
330
70
100
AcDbEntity
  8
capa1
 62
   250
420
  1907995
440
 33554687
100
AcDbHatch
 10
0.0
 20
0.0
 30
0.0
210
0.0
220
0.0
230
1.0
  2
SOLID
 70
     1
 71
     1
 91
        1
 92
        1
 93
        8
 72
     1
 10
205.6319948052987
 20
612.2159845341229
 11
205.6319948052987
 21
616.3919844286283
 72
     1
 10
205.6319948052987
 20
616.3919844286283
 11
204.1199948434951
 21
616.3919844286283
 72
     1
 10
204.1199948434951
 20
616.3919844286283
 11
204.1199948434951
 21
617.1839844086207
 72
     1
 10
204.1199948434951
 20
617.1839844086207
 11
208.1519947416382
 21
617.1839844086207
 72
     1
 10
208.1519947416382
 20
617.1839844086207
 11
208.1519947416382
 21
616.3919844286283
 72
     1
 10
208.1519947416382
 20
616.3919844286283
 11
206.6399947798345
 21
616.3919844286283
 72
     1
 10
206.6399947798345
 20
616.3919844286283
 11
206.6399947798345
 21
612.2159845341229
 72
     1
 10
206.6399947798345
 20
612.2159845341229
 11
205.6319948052987
 21
612.2159845341229
 97
        1
330
79
 75
     2
 76
     1
 98
        1
 10
0.0
 20
0.0
450
        0
451
        0
460
0.0
461
0.0
452
        0
462
0.0
453
        0
470

  0
SPLINE
  5
7B
330
70
100
AcDbEntity
  8
capa1
100
AcDbSpline
210
0.0
220
0.0
230
1.0
 70
     9
 71
     3
 72
    95
 73
    91
 74
     0
 42
0.0000000001
 43
0.0000000001
 40
0.0
 40
0.0
 40
0.0
 40
0.0
 40
1.0
 40
1.0
 40
1.0
 40
2.0
 40
2.0
 40
2.0
 40
3.0
 40
3.0
 40
3.0
 40
4.0
 40
4.0
 40
4.0
 40
5.0
 40
5.0
 40
5.0
 40
6.0
 40
6.0
 40
6.0
 40
7.0
 40
7.0
 40
7.0
 40
8.0
 40
8.0
 40
8.0
 40
9.0
 40
9.0
 40
9.0
 40
10.0
 40
10.0
 40
10.0
 40
11.0
 40
11.0
 40
11.0
 40
12.0
 40
12.0
 40
12.0
 40
13.0
 40
13.0
 40
13.0
 40
14.0
 40
14.0
 40
14.0
 40
15.0
 40
15.0
 40
15.0
 40
16.0
 40
16.0
 40
16.0
 40
17.0
 40
17.0
 40
17.0
 40
18.0
 40
18.0
 40
18.0
 40
19.0
 40
19.0
 40
19.0
 40
20.0
 40
20.0
 40
20.0
 40
21.0
 40
21.0
 40
21.0
 40
22.0
 40
22.0
 40
22.0
 40
23.0
 40
23.0
 40
23.0
 40
24.0
 40
24.0
 40
24.0
 40
25.0
 40
25.0
 40
25.0
 40
26.0
 40
26.0
 40
26.0
 40
27.0
 40
27.0
 40
27.0
 40
28.0
 40
28.0
 40
28.0
 40
29.0
 40
29.0
 40
29.0
 40
30.0
 40
30.0
 40
30.0
 40
30.0
 10
208.5119947325438
 20
613.7999844941077
 30
0.0
 10
208.5119947325438
 20
613.7999844941077
 30
0.0
 10
209.5199947070796
 20
613.94398449047
 30
0.0
 10
209.5199947070796
 20
613.94398449047
 30
0.0
 10
209.5919947052607
 20
613.5839844995643
 30
0.0
 10
209.6639947034419
 20
613.367984505021
 30
0.0
 10
209.8799946979852
 20
613.2239845086587
 30
0.0
 10
210.0239946943475
 20
613.0079845141153
 30
0.0
 10
210.311994687072
 20
612.9359845159342
 30
0.0
 10
210.5999946797965
 20
612.9359845159342
 30
0.0
 10
210.9599946707021
 20
612.9359845159342
 30
0.0
 10
211.1759946652455
 20
613.0079845141153
 30
0.0
 10
211.3199946616078
 20
613.1519845104776
 30
0.0
 10
211.5359946561512
 20
613.2959845068398
 30
0.0
 10
211.6079946543323
 20
613.4399845032021
 30
0.0
 10
211.6079946543323
 20
613.6559844977455
 30
0.0
 10
211.6079946543323
 20
613.7999844941077
 30
0.0
 10
211.5359946561512
 20
613.8719844922889
 30
0.0
 10
211.46399465797
 20
613.94398449047
 30
0.0
 10
211.3919946597889
 20
614.0159844886511
 30
0.0
 10
211.3199946616078
 20
614.0879844868322
 30
0.0
 10
211.1039946670644
 20
614.1599844850134
 30
0.0
 10
211.0319946688833
 20
614.2319844831945
 30
0.0
 10
210.7439946761588
 20
614.3039844813756
 30
0.0
 10
210.311994687072
 20
614.3759844795567
 30
0.0
 10
209.735994701623
 20
614.519984475919
 30
0.0
 10
209.3759947107173
 20
614.6639844722812
 30
0.0
 10
209.159994716174
 20
614.8799844668246
 30
0.0
 10
208.8719947234495
 20
615.1679844595491
 30
0.0
 10
208.7279947270872
 20
615.5279844504548
 30
0.0
 10
208.7279947270872
 20
615.8879844413604
 30
0.0
 10
208.7279947270872
 20
616.1759844340849
 30
0.0
 10
208.7999947252683
 20
616.3919844286283
 30
0.0
 10
208.9439947216306
 20
616.6079844231717
 30
0.0
 10
209.0879947179928
 20
616.8239844177151
 30
0.0
 10
209.3039947125362
 20
616.9679844140773
 30
0.0
 10
209.5199947070796
 20
617.1119844104396
 30
0.0
 10
209.8079946998041
 20
617.2559844068018
 30
0.0
 10
210.1679946907097
 20
617.2559844068018
 30
0.0
 10
210.5279946816154
 20
617.2559844068018
 30
0.0
 10
211.1759946652455
 20
617.2559844068018
 30
0.0
 10
211.6079946543323
 20
617.1839844086207
 30
0.0
 10
211.9679946452379
 20
616.8959844158962
 30
0.0
 10
212.2559946379624
 20
616.6079844231717
 30
0.0
 10
212.4719946325058
 20
616.247984432266
 30
0.0
 10
212.4719946325058
 20
615.7439844449982
 30
0.0
 10
212.4719946325058
 20
615.7439844449982
 30
0.0
 10
211.46399465797
 20
615.7439844449982
 30
0.0
 10
211.46399465797
 20
615.7439844449982
 30
0.0
 10
211.3919946597889
 20
615.9599844395415
 30
0.0
 10
211.3199946616078
 20
616.1759844340849
 30
0.0
 10
211.1759946652455
 20
616.247984432266
 30
0.0
 10
211.0319946688833
 20
616.3919844286283
 30
0.0
 10
210.8159946743399
 20
616.4639844268094
 30
0.0
 10
210.5279946816154
 20
616.4639844268094
 30
0.0
 10
210.2399946888909
 20
616.4639844268094
 30
0.0
 10
210.0239946943475
 20
616.3919844286283
 30
0.0
 10
209.8079946998041
 20
616.247984432266
 30
0.0
 10
209.735994701623
 20
616.1759844340849
 30
0.0
 10
209.6639947034419
 20
616.1039844359038
 30
0.0
 10
209.6639947034419
 20
615.9599844395415
 30
0.0
 10
209.6639947034419
 20
615.8159844431793
 30
0.0
 10
209.735994701623
 20
615.7439844449982
 30
0.0
 10
209.8079946998041
 20
615.671984446817
 30
0.0
 10
209.9519946961664
 20
615.5279844504548
 30
0.0
 10
210.2399946888909
 20
615.4559844522736
 30
0.0
 10
210.7439946761588
 20
615.3119844559114
 30
0.0
 10
211.2479946634266
 20
615.2399844577303
 30
0.0
 10
211.6079946543323
 20
615.095984461368
 30
0.0
 10
211.8239946488757
 20
614.9519844650058
 30
0.0
 10
212.1119946416002
 20
614.8079844686435
 30
0.0
 10
212.2559946379624
 20
614.6639844722812
 30
0.0
 10
212.3999946343247
 20
614.4479844777379
 30
0.0
 10
212.5439946306869
 20
614.2319844831945
 30
0.0
 10
212.6159946288681
 20
613.94398449047
 30
0.0
 10
212.6159946288681
 20
613.6559844977455
 30
0.0
 10
212.6159946288681
 20
613.367984505021
 30
0.0
 10
212.5439946306869
 20
613.0799845122965
 30
0.0
 10
212.3279946361436
 20
612.8639845177531
 30
0.0
 10
212.1839946397813
 20
612.5759845250286
 30
0.0
 10
211.9679946452379
 20
612.4319845286663
 30
0.0
 10
211.6799946525134
 20
612.2879845323041
 30
0.0
 10
211.3919946597889
 20
612.1439845359418
 30
0.0
 10
211.0319946688833
 20
612.0719845377607
 30
0.0
 10
210.5999946797965
 20
612.0719845377607
 30
0.0
 10
209.9519946961664
 20
612.0719845377607
 30
0.0
 10
209.4479947088985
 20
612.2159845341229
 30
0.0
 10
209.159994716174
 20
612.5759845250286
 30
0.0
 10
208.7999947252683
 20
612.8639845177531
 30
0.0
 10
208.5839947307249
 20
613.2959845068398
 30
0.0
 10
208.5119947325438
 20
613.7999844941077
 30
0.0
  0
HATCH
  5
7C
330
70
100
AcDbEntity
  8
capa1
 62
   250
420
  1907995
440
 33554687
100
AcDbHatch
 10
0.0
 20
0.0
 30
0.0
210
0.0
220
0.0
230
1.0
  2
SOLID
 70
     1
 71
     1
 91
        1
 92
        1
 93
        1
 72
     4
 94
        3
 73
     0
 74
     0
 95
       95
 96
       91
 40
0.0
 40
0.0
 40
0.0
 40
0.0
 40
1.0
 40
1.0
 40
1.0
 40
2.0
 40
2.0
 40
2.0
 40
3.0
 40
3.0
 40
3.0
 40
4.0
 40
4.0
 40
4.0
 40
5.0
 40
5.0
 40
5.0
 40
6.0
 40
6.0
 40
6.0
 40
7.0
 40
7.0
 40
7.0
 40
8.0
 40
8.0
 40
8.0
 40
9.0
 40
9.0
 40
9.0
 40
10.0
 40
10.0
 40
10.0
 40
11.0
 40
11.0
 40
11.0
 40
12.0
 40
12.0
 40
12.0
 40
13.0
 40
13.0
 40
13.0
 40
14.0
 40
14.0
 40
14.0
 40
15.0
 40
15.0
 40
15.0
 40
16.0
 40
16.0
 40
16.0
 40
17.0
 40
17.0
 40
17.0
 40
18.0
 40
18.0
 40
18.0
 40
19.0
 40
19.0
 40
19.0
 40
20.0
 40
20.0
 40
20.0
 40
21.0
 40
21.0
 40
21.0
 40
22.0
 40
22.0
 40
22.0
 40
23.0
 40
23.0
 40
23.0
 40
24.0
 40
24.0
 40
24.0
 40
25.0
 40
25.0
 40
25.0
 40
26.0
 40
26.0
 40
26.0
 40
27.0
 40
27.0
 40
27.0
 40
28.0
 40
28.0
 40
28.0
 40
29.0
 40
29.0
 40
29.0
 40
30.0
 40
30.0
 40
30.0
 40
30.0
 10
208.5119947325438
 20
613.7999844941077
 10
208.5119947325438
 20
613.7999844941077
 10
209.5199947070796
 20
613.94398449047
 10
209.5199947070796
 20
613.94398449047
 10
209.5919947052607
 20
613.5839844995643
 10
209.6639947034419
 20
613.367984505021
 10
209.8799946979852
 20
613.2239845086587
 10
210.0239946943475
 20
613.0079845141153
 10
210.311994687072
 20
612.9359845159342
 10
210.5999946797965
 20
612.9359845159342
 10
210.9599946707021
 20
612.9359845159342
 10
211.1759946652455
 20
613.0079845141153
 10
211.3199946616078
 20
613.1519845104776
 10
211.5359946561512
 20
613.2959845068398
 10
211.6079946543323
 20
613.4399845032021
 10
211.6079946543323
 20
613.6559844977455
 10
211.6079946543323
 20
613.7999844941077
 10
211.5359946561512
 20
613.8719844922889
 10
211.46399465797
 20
613.94398449047
 10
211.3919946597889
 20
614.0159844886511
 10
211.3199946616078
 20
614.0879844868322
 10
211.1039946670644
 20
614.1599844850134
 10
211.0319946688833
 20
614.2319844831945
 10
210.7439946761588
 20
614.3039844813756
 10
210.311994687072
 20
614.3759844795567
 10
209.735994701623
 20
614.519984475919
 10
209.3759947107173
 20
614.6639844722812
 10
209.159994716174
 20
614.8799844668246
 10
208.8719947234495
 20
615.1679844595491
 10
208.7279947270872
 20
615.5279844504548
 10
208.7279947270872
 20
615.8879844413604
 10
208.7279947270872
 20
616.1759844340849
 10
208.7999947252683
 20
616.3919844286283
 10
208.9439947216306
 20
616.6079844231717
 10
209.0879947179928
 20
616.8239844177151
 10
209.3039947125362
 20
616.9679844140773
 10
209.5199947070796
 20
617.1119844104396
 10
209.8079946998041
 20
617.2559844068018
 10
210.1679946907097
 20
617.2559844068018
 10
210.5279946816154
 20
617.2559844068018
 10
211.1759946652455
 20
617.2559844068018
 10
211.6079946543323
 20
617.1839844086207
 10
211.9679946452379
 20
616.8959844158962
 10
212.2559946379624
 20
616.6079844231717
 10
212.4719946325058
 20
616.247984432266
 10
212.4719946325058
 20
615.7439844449982
 10
212.4719946325058
 20
615.7439844449982
 10
211.46399465797
 20
615.7439844449982
 10
211.46399465797
 20
615.7439844449982
 10
211.3919946597889
 20
615.9599844395415
 10
211.3199946616078
 20
616.1759844340849
 10
211.1759946652455
 20
616.247984432266
 10
211.0319946688833
 20
616.3919844286283
 10
210.8159946743399
 20
616.4639844268094
 10
210.5279946816154
 20
616.4639844268094
 10
210.2399946888909
 20
616.4639844268094
 10
210.0239946943475
 20
616.3919844286283
 10
209.8079946998041
 20
616.247984432266
 10
209.735994701623
 20
616.1759844340849
 10
209.6639947034419
 20
616.1039844359038
 10
209.6639947034419
 20
615.9599844395415
 10
209.6639947034419
 20
615.8159844431793
 10
209.735994701623
 20
615.7439844449982
 10
209.8079946998041
 20
615.671984446817
 10
209.9519946961664
 20
615.5279844504548
 10
210.2399946888909
 20
615.4559844522736
 10
210.7439946761588
 20
615.3119844559114
 10
211.2479946634266
 20
615.2399844577303
 10
211.6079946543323
 20
615.095984461368
 10
211.8239946488757
 20
614.9519844650058
 10
212.1119946416002
 20
614.8079844686435
 10
212.2559946379624
 20
614.6639844722812
 10
212.3999946343247
 20
614.4479844777379
 10
212.5439946306869
 20
614.2319844831945
 10
212.6159946288681
 20
613.94398449047
 10
212.6159946288681
 20
613.6559844977455
 10
212.6159946288681
 20
613.367984505021
 10
212.5439946306869
 20
613.0799845122965
 10
212.3279946361436
 20
612.8639845177531
 10
212.1839946397813
 20
612.5759845250286
 10
211.9679946452379
 20
612.4319845286663
 10
211.6799946525134
 20
612.2879845323041
 10
211.3919946597889
 20
612.1439845359418
 10
211.0319946688833
 20
612.0719845377607
 10
210.5999946797965
 20
612.0719845377607
 10
209.9519946961664
 20
612.0719845377607
 10
209.4479947088985
 20
612.2159845341229
 10
209.159994716174
 20
612.5759845250286
 10
208.7999947252683
 20
612.8639845177531
 10
208.5839947307249
 20
613.2959845068398
 10
208.5119947325438
 20
613.7999844941077
 97
        0
 97
        1
330
7B
 75
     2
 76
     1
 98
        1
 10
0.0
 20
0.0
450
        0
451
        0
460
0.0
461
0.0
452
        0
462
0.0
453
        0
470

  0
SPLINE
  5
7D
330
70
100
AcDbEntity
  8
capa1
100
AcDbSpline
210
0.0
220
0.0
230
1.0
 70
    11
 71
     3
 72
    50
 73
    46
 74
     0
 42
0.0000000001
 43
0.0000000001
 40
0.0
 40
0.0
 40
0.0
 40
0.0
 40
1.0
 40
1.0
 40
1.0
 40
2.0
 40
2.0
 40
2.0
 40
3.0
 40
3.0
 40
3.0
 40
4.0
 40
4.0
 40
4.0
 40
5.0
 40
5.0
 40
5.0
 40
6.0
 40
6.0
 40
6.0
 40
7.0
 40
7.0
 40
7.0
 40
8.0
 40
8.0
 40
8.0
 40
9.0
 40
9.0
 40
9.0
 40
10.0
 40
10.0
 40
10.0
 40
11.0
 40
11.0
 40
11.0
 40
12.0
 40
12.0
 40
12.0
 40
13.0
 40
13.0
 40
13.0
 40
14.0
 40
14.0
 40
14.0
 40
15.0
 40
15.0
 40
15.0
 40
15.0
 10
213.4799946070416
 20
612.2159845341229
 30
0.0
 10
213.4799946070416
 20
612.2159845341229
 30
0.0
 10
213.4799946070416
 20
617.1839844086207
 30
0.0
 10
213.4799946070416
 20
617.1839844086207
 30
0.0
 10
213.4799946070416
 20
617.1839844086207
 30
0.0
 10
215.4959945561131
 20
617.1839844086207
 30
0.0
 10
215.4959945561131
 20
617.1839844086207
 30
0.0
 10
215.4959945561131
 20
617.1839844086207
 30
0.0
 10
215.4959945561131
 20
616.3199844304472
 30
0.0
 10
215.4959945561131
 20
616.3199844304472
 30
0.0
 10
215.4959945561131
 20
616.3199844304472
 30
0.0
 10
215.2799945615698
 20
616.3919844286283
 30
0.0
 10
215.2799945615698
 20
616.3919844286283
 30
0.0
 10
215.2799945615698
 20
616.3919844286283
 30
0.0
 10
214.4879945815774
 20
616.3919844286283
 30
0.0
 10
214.4879945815774
 20
616.3919844286283
 30
0.0
 10
214.4879945815774
 20
616.3919844286283
 30
0.0
 10
214.4879945815774
 20
615.095984461368
 30
0.0
 10
214.4879945815774
 20
615.095984461368
 30
0.0
 10
214.4879945815774
 20
615.095984461368
 30
0.0
 10
215.2079945633886
 20
615.095984461368
 30
0.0
 10
215.2079945633886
 20
615.095984461368
 30
0.0
 10
215.2799945615698
 20
615.095984461368
 30
0.0
 10
215.423994557932
 20
615.095984461368
 30
0.0
 10
215.4959945561131
 20
615.095984461368
 30
0.0
 10
215.4959945561131
 20
615.095984461368
 30
0.0
 10
215.4959945561131
 20
614.0159844886511
 30
0.0
 10
215.4959945561131
 20
614.0159844886511
 30
0.0
 10
215.4959945561131
 20
614.0159844886511
 30
0.0
 10
215.4959945561131
 20
614.0159844886511
 30
0.0
 10
215.4959945561131
 20
614.0159844886511
 30
0.0
 10
215.423994557932
 20
614.0879844868322
 30
0.0
 10
215.2799945615698
 20
614.1599844850134
 30
0.0
 10
215.2079945633886
 20
614.2319844831945
 30
0.0
 10
215.0639945670264
 20
614.2319844831945
 30
0.0
 10
214.9199945706641
 20
614.3039844813756
 30
0.0
 10
214.7039945761207
 20
614.3039844813756
 30
0.0
 10
214.7039945761207
 20
614.3039844813756
 30
0.0
 10
214.4879945815774
 20
614.3039844813756
 30
0.0
 10
214.4879945815774
 20
614.3039844813756
 30
0.0
 10
214.4879945815774
 20
614.3039844813756
 30
0.0
 10
214.4879945815774
 20
612.2159845341229
 30
0.0
 10
214.4879945815774
 20
612.2159845341229
 30
0.0
 10
214.4879945815774
 20
612.2159845341229
 30
0.0
 10
213.4799946070416
 20
612.2159845341229
 30
0.0
 10
213.4799946070416
 20
612.2159845341229
 30
0.0
  0
SPLINE
  5
7E
330
70
100
AcDbEntity
  8
capa1
100
AcDbSpline
210
0.0
220
0.0
230
1.0
 70
    11
 71
     3
 72
    65
 73
    61
 74
     0
 42
0.0000000001
 43
0.0000000001
 40
0.0
 40
0.0
 40
0.0
 40
0.0
 40
1.0
 40
1.0
 40
1.0
 40
2.0
 40
2.0
 40
2.0
 40
3.0
 40
3.0
 40
3.0
 40
4.0
 40
4.0
 40
4.0
 40
5.0
 40
5.0
 40
5.0
 40
6.0
 40
6.0
 40
6.0
 40
7.0
 40
7.0
 40
7.0
 40
8.0
 40
8.0
 40
8.0
 40
9.0
 40
9.0
 40
9.0
 40
10.0
 40
10.0
 40
10.0
 40
11.0
 40
11.0
 40
11.0
 40
12.0
 40
12.0
 40
12.0
 40
13.0
 40
13.0
 40
13.0
 40
14.0
 40
14.0
 40
14.0
 40
15.0
 40
15.0
 40
15.0
 40
16.0
 40
16.0
 40
16.0
 40
17.0
 40
17.0
 40
17.0
 40
18.0
 40
18.0
 40
18.0
 40
19.0
 40
19.0
 40
19.0
 40
20.0
 40
20.0
 40
20.0
 40
20.0
 10
215.4959945561131
 20
617.1839844086207
 30
0.0
 10
215.4959945561131
 20
617.1839844086207
 30
0.0
 10
215.5679945542943
 20
617.1839844086207
 30
0.0
 10
215.5679945542943
 20
617.1839844086207
 30
0.0
 10
216.1439945397433
 20
617.1839844086207
 30
0.0
 10
216.5039945306489
 20
617.1839844086207
 30
0.0
 10
216.7199945251923
 20
617.0399844122584
 30
0.0
 10
217.0079945179168
 20
616.9679844140773
 30
0.0
 10
217.2239945124602
 20
616.8239844177151
 30
0.0
 10
217.3679945088224
 20
616.6079844231717
 30
0.0
 10
217.5119945051847
 20
616.3919844286283
 30
0.0
 10
217.5839945033658
 20
616.1039844359038
 30
0.0
 10
217.5839945033658
 20
615.8159844431793
 30
0.0
 10
217.5839945033658
 20
615.4559844522736
 30
0.0
 10
217.4399945070036
 20
615.095984461368
 30
0.0
 10
217.2239945124602
 20
614.8799844668246
 30
0.0
 10
217.0079945179168
 20
614.5919844741001
 30
0.0
 10
216.6479945270112
 20
614.4479844777379
 30
0.0
 10
216.2159945379244
 20
614.3759844795567
 30
0.0
 10
216.4319945324678
 20
614.3039844813756
 30
0.0
 10
216.6479945270112
 20
614.1599844850134
 30
0.0
 10
216.7919945233734
 20
614.0159844886511
 30
0.0
 10
216.9359945197357
 20
613.7999844941077
 30
0.0
 10
217.0799945160979
 20
613.5839844995643
 30
0.0
 10
217.3679945088224
 20
613.1519845104776
 30
0.0
 10
217.3679945088224
 20
613.1519845104776
 30
0.0
 10
217.9439944942715
 20
612.2159845341229
 30
0.0
 10
217.9439944942715
 20
612.2159845341229
 30
0.0
 10
217.9439944942715
 20
612.2159845341229
 30
0.0
 10
216.7199945251923
 20
612.2159845341229
 30
0.0
 10
216.7199945251923
 20
612.2159845341229
 30
0.0
 10
216.7199945251923
 20
612.2159845341229
 30
0.0
 10
215.999994543381
 20
613.2959845068398
 30
0.0
 10
215.999994543381
 20
613.2959845068398
 30
0.0
 10
215.7839945488376
 20
613.6559844977455
 30
0.0
 10
215.5679945542943
 20
613.94398449047
 30
0.0
 10
215.4959945561131
 20
614.0159844886511
 30
0.0
 10
215.4959945561131
 20
614.0159844886511
 30
0.0
 10
215.4959945561131
 20
615.095984461368
 30
0.0
 10
215.4959945561131
 20
615.095984461368
 30
0.0
 10
215.7839945488376
 20
615.095984461368
 30
0.0
 10
215.999994543381
 20
615.095984461368
 30
0.0
 10
216.1439945397433
 20
615.1679844595491
 30
0.0
 10
216.2159945379244
 20
615.1679844595491
 30
0.0
 10
216.3599945342867
 20
615.2399844577303
 30
0.0
 10
216.4319945324678
 20
615.3839844540925
 30
0.0
 10
216.5039945306489
 20
615.4559844522736
 30
0.0
 10
216.5039945306489
 20
615.5999844486359
 30
0.0
 10
216.5039945306489
 20
615.7439844449982
 30
0.0
 10
216.5039945306489
 20
615.8879844413604
 30
0.0
 10
216.4319945324678
 20
616.0319844377227
 30
0.0
 10
216.3599945342867
 20
616.1759844340849
 30
0.0
 10
216.2879945361055
 20
616.247984432266
 30
0.0
 10
216.1439945397433
 20
616.3199844304472
 30
0.0
 10
215.999994543381
 20
616.3199844304472
 30
0.0
 10
215.9279945451999
 20
616.3199844304472
 30
0.0
 10
215.7839945488376
 20
616.3199844304472
 30
0.0
 10
215.4959945561131
 20
616.3199844304472
 30
0.0
 10
215.4959945561131
 20
616.3199844304472
 30
0.0
 10
215.4959945561131
 20
617.1839844086207
 30
0.0
 10
215.4959945561131
 20
617.1839844086207
 30
0.0
  0
HATCH
  5
7F
330
70
100
AcDbEntity
  8
capa1
 62
   250
420
  1907995
440
 33554687
100
AcDbHatch
 10
0.0
 20
0.0
 30
0.0
210
0.0
220
0.0
230
1.0
  2
SOLID
 70
     1
 71
     1
 91
        2
 92
        1
 93
        1
 72
     4
 94
        3
 73
     0
 74
     0
 95
       50
 96
       46
 40
0.0
 40
0.0
 40
0.0
 40
0.0
 40
1.0
 40
1.0
 40
1.0
 40
2.0
 40
2.0
 40
2.0
 40
3.0
 40
3.0
 40
3.0
 40
4.0
 40
4.0
 40
4.0
 40
5.0
 40
5.0
 40
5.0
 40
6.0
 40
6.0
 40
6.0
 40
7.0
 40
7.0
 40
7.0
 40
8.0
 40
8.0
 40
8.0
 40
9.0
 40
9.0
 40
9.0
 40
10.0
 40
10.0
 40
10.0
 40
11.0
 40
11.0
 40
11.0
 40
12.0
 40
12.0
 40
12.0
 40
13.0
 40
13.0
 40
13.0
 40
14.0
 40
14.0
 40
14.0
 40
15.0
 40
15.0
 40
15.0
 40
15.0
 10
213.4799946070416
 20
612.2159845341229
 10
213.4799946070416
 20
612.2159845341229
 10
213.4799946070416
 20
617.1839844086207
 10
213.4799946070416
 20
617.1839844086207
 10
213.4799946070416
 20
617.1839844086207
 10
215.4959945561131
 20
617.1839844086207
 10
215.4959945561131
 20
617.1839844086207
 10
215.4959945561131
 20
617.1839844086207
 10
215.4959945561131
 20
616.3199844304472
 10
215.4959945561131
 20
616.3199844304472
 10
215.4959945561131
 20
616.3199844304472
 10
215.2799945615698
 20
616.3919844286283
 10
215.2799945615698
 20
616.3919844286283
 10
215.2799945615698
 20
616.3919844286283
 10
214.4879945815774
 20
616.3919844286283
 10
214.4879945815774
 20
616.3919844286283
 10
214.4879945815774
 20
616.3919844286283
 10
214.4879945815774
 20
615.095984461368
 10
214.4879945815774
 20
615.095984461368
 10
214.4879945815774
 20
615.095984461368
 10
215.2079945633886
 20
615.095984461368
 10
215.2079945633886
 20
615.095984461368
 10
215.2799945615698
 20
615.095984461368
 10
215.423994557932
 20
615.095984461368
 10
215.4959945561131
 20
615.095984461368
 10
215.4959945561131
 20
615.095984461368
 10
215.4959945561131
 20
614.0159844886511
 10
215.4959945561131
 20
614.0159844886511
 10
215.4959945561131
 20
614.0159844886511
 10
215.4959945561131
 20
614.0159844886511
 10
215.4959945561131
 20
614.0159844886511
 10
215.423994557932
 20
614.0879844868322
 10
215.2799945615698
 20
614.1599844850134
 10
215.2079945633886
 20
614.2319844831945
 10
215.0639945670264
 20
614.2319844831945
 10
214.9199945706641
 20
614.3039844813756
 10
214.7039945761207
 20
614.3039844813756
 10
214.7039945761207
 20
614.3039844813756
 10
214.4879945815774
 20
614.3039844813756
 10
214.4879945815774
 20
614.3039844813756
 10
214.4879945815774
 20
614.3039844813756
 10
214.4879945815774
 20
612.2159845341229
 10
214.4879945815774
 20
612.2159845341229
 10
214.4879945815774
 20
612.2159845341229
 10
213.4799946070416
 20
612.2159845341229
 10
213.4799946070416
 20
612.2159845341229
 97
        0
 97
        1
330
7D
 92
        1
 93
        1
 72
     4
 94
        3
 73
     0
 74
     0
 95
       65
 96
       61
 40
0.0
 40
0.0
 40
0.0
 40
0.0
 40
1.0
 40
1.0
 40
1.0
 40
2.0
 40
2.0
 40
2.0
 40
3.0
 40
3.0
 40
3.0
 40
4.0
 40
4.0
 40
4.0
 40
5.0
 40
5.0
 40
5.0
 40
6.0
 40
6.0
 40
6.0
 40
7.0
 40
7.0
 40
7.0
 40
8.0
 40
8.0
 40
8.0
 40
9.0
 40
9.0
 40
9.0
 40
10.0
 40
10.0
 40
10.0
 40
11.0
 40
11.0
 40
11.0
 40
12.0
 40
12.0
 40
12.0
 40
13.0
 40
13.0
 40
13.0
 40
14.0
 40
14.0
 40
14.0
 40
15.0
 40
15.0
 40
15.0
 40
16.0
 40
16.0
 40
16.0
 40
17.0
 40
17.0
 40
17.0
 40
18.0
 40
18.0
 40
18.0
 40
19.0
 40
19.0
 40
19.0
 40
20.0
 40
20.0
 40
20.0
 40
20.0
 10
215.4959945561131
 20
617.1839844086207
 10
215.4959945561131
 20
617.1839844086207
 10
215.5679945542943
 20
617.1839844086207
 10
215.5679945542943
 20
617.1839844086207
 10
216.1439945397433
 20
617.1839844086207
 10
216.5039945306489
 20
617.1839844086207
 10
216.7199945251923
 20
617.0399844122584
 10
217.0079945179168
 20
616.9679844140773
 10
217.2239945124602
 20
616.8239844177151
 10
217.3679945088224
 20
616.6079844231717
 10
217.5119945051847
 20
616.3919844286283
 10
217.5839945033658
 20
616.1039844359038
 10
217.5839945033658
 20
615.8159844431793
 10
217.5839945033658
 20
615.4559844522736
 10
217.4399945070036
 20
615.095984461368
 10
217.2239945124602
 20
614.8799844668246
 10
217.0079945179168
 20
614.5919844741001
 10
216.6479945270112
 20
614.4479844777379
 10
216.2159945379244
 20
614.3759844795567
 10
216.4319945324678
 20
614.3039844813756
 10
216.6479945270112
 20
614.1599844850134
 10
216.7919945233734
 20
614.0159844886511
 10
216.9359945197357
 20
613.7999844941077
 10
217.0799945160979
 20
613.5839844995643
 10
217.3679945088224
 20
613.1519845104776
 10
217.3679945088224
 20
613.1519845104776
 10
217.9439944942715
 20
612.2159845341229
 10
217.9439944942715
 20
612.2159845341229
 10
217.9439944942715
 20
612.2159845341229
 10
216.7199945251923
 20
612.2159845341229
 10
216.7199945251923
 20
612.2159845341229
 10
216.7199945251923
 20
612.2159845341229
 10
215.999994543381
 20
613.2959845068398
 10
215.999994543381
 20
613.2959845068398
 10
215.7839945488376
 20
613.6559844977455
 10
215.5679945542943
 20
613.94398449047
 10
215.4959945561131
 20
614.0159844886511
 10
215.4959945561131
 20
614.0159844886511
 10
215.4959945561131
 20
615.095984461368
 10
215.4959945561131
 20
615.095984461368
 10
215.7839945488376
 20
615.095984461368
 10
215.999994543381
 20
615.095984461368
 10
216.1439945397433
 20
615.1679844595491
 10
216.2159945379244
 20
615.1679844595491
 10
216.3599945342867
 20
615.2399844577303
 10
216.4319945324678
 20
615.3839844540925
 10
216.5039945306489
 20
615.4559844522736
 10
216.5039945306489
 20
615.5999844486359
 10
216.5039945306489
 20
615.7439844449982
 10
216.5039945306489
 20
615.8879844413604
 10
216.4319945324678
 20
616.0319844377227
 10
216.3599945342867
 20
616.1759844340849
 10
216.2879945361055
 20
616.247984432266
 10
216.1439945397433
 20
616.3199844304472
 10
215.999994543381
 20
616.3199844304472
 10
215.9279945451999
 20
616.3199844304472
 10
215.7839945488376
 20
616.3199844304472
 10
215.4959945561131
 20
616.3199844304472
 10
215.4959945561131
 20
616.3199844304472
 10
215.4959945561131
 20
617.1839844086207
 10
215.4959945561131
 20
617.1839844086207
 97
        0
 97
        1
330
7E
 75
     2
 76
     1
 98
        1
 10
0.0
 20
0.0
450
        0
451
        0
460
0.0
461
0.0
452
        0
462
0.0
453
        0
470

  0
LWPOLYLINE
  5
80
330
70
100
AcDbEntity
  8
capa1
 62
   250
420
  1907995
370
    13
100
AcDbPolyline
 90
        8
 70
     1
 43
0.0
 10
75.67199999999957
 20
787.2479801124427
 10
171.2879956729011
 20
787.2479801124427
 10
171.2879956729011
 20
711.5039820258971
 10
159.1919959784718
 20
711.5039820258971
 10
159.1919959784718
 20
715.7519819185836
 10
87.69599999999991
 20
715.7519819185836
 10
87.69599999999991
 20
711.5039820258971
 10
75.67199999999957
 20
711.5039820258971
  0
LINE
  5
81
330
70
100
AcDbEntity
  8
capa1
 62
   250
420
  1907995
370
    13
100
AcDbLine
 10
75.67199999999957
 20
779.7599803016055
 30
0.0
 11
171.2879956729011
 21
779.7599803016055
 31
0.0
  0
LINE
  5
82
330
70
100
AcDbEntity
  8
capa1
 62
   250
420
  1907995
370
    13
100
AcDbLine
 10
90.21600000000034
 20
787.2479801124427
 30
0.0
 11
90.21600000000034
 21
779.7599803016055
 31
0.0
  0
LWPOLYLINE
  5
83
330
70
100
AcDbEntity
  8
capa1
 62
   250
420
  1907995
370
    13
100
AcDbPolyline
 90
       16
 70
     0
 43
0.0
 10
75.67199999999957
 20
767.3039806162705
 10
79.19999999999982
 20
767.3039806162705
 10
79.19999999999982
 20
761.7599807563237
 10
80.27999999999975
 20
761.4719807635992
 10
80.35199999999987
 20
755.7119809091091
 10
81.43199999999978
 20
755.4959809145657
 10
81.5039999999999
 20
744.2639811983099
 10
82.29600000000028
 20
744.0479812037665
 10
82.4399999999996
 20
736.2719814002048
 10
83.23199999999998
 20
736.0559814056614
 10
83.23199999999998
 20
729.5039815711788
 10
83.95200000000022
 20
729.3599815748166
 10
83.8800000000001
 20
722.807981740334
 10
84.96000000000003
 20
722.5919817457906
 10
84.88799999999992
 20
717.9839818621985
 10
75.67199999999957
 20
717.9839818621985
  0
LWPOLYLINE
  5
84
330
70
100
AcDbEntity
  8
capa1
 62
   250
420
  1907995
370
    13
100
AcDbPolyline
 90
        4
 70
     1
 43
0.0
 10
104.9759973480832
 20
711.5759820240782
 10
119.6639969770331
 20
711.5759820240782
 10
119.6639969770331
 20
715.7519819185836
 10
104.9759973480832
 20
715.7519819185836
  0
LWPOLYLINE
  5
85
330
70
100
AcDbEntity
  8
capa1
 62
   250
420
  1907995
370
    13
100
AcDbPolyline
 90
        4
 70
     1
 43
0.0
 10
128.5199967533117
 20
711.5759820240782
 10
143.2079963822616
 20
711.5759820240782
 10
143.2079963822616
 20
715.7519819185836
 10
128.5199967533117
 20
715.7519819185836
  0
LINE
  5
86
330
70
100
AcDbEntity
  8
capa1
 62
   250
420
  1907995
370
    13
100
AcDbLine
 10
119.6639969770331
 20
713.6639819713309
 30
0.0
 11
128.5199967533117
 21
713.6639819713309
 31
0.0
  0
LWPOLYLINE
  5
87
330
70
100
AcDbEntity
  8
capa1
 62
   250
420
  1907995
370
    13
100
AcDbPolyline
 90
        4
 70
     1
 43
0.0
 10
75.16799999999967
 20
632.3039840266574
 10
171.791995660169
 20
632.3039840266574
 10
171.791995660169
 20
689.903982571559
 10
75.16799999999967
 20
689.903982571559
  0
INSERT
  5
89
330
70
100
AcDbEntity
  8
capa1
100
AcDbBlockReference
  2
Block_0
 10
0.0
 20
0.0
 30
0.0
  0
INSERT
  5
96
330
70
100
AcDbEntity
  8
capa1
100
AcDbBlockReference
  2
Block_1
 10
0.0
 20
0.0
 30
0.0
  0
SPLINE
  5
A3
330
70
100
AcDbEntity
  8
capa1
 62
   250
420
  1907995
370
    13
100
AcDbSpline
210
0.0
220
0.0
230
1.0
 70
    24
 71
     3
 72
     8
 73
     4
 74
     0
 42
0.0000000001
 43
0.0000000001
 40
0.0
 40
0.0
 40
0.0
 40
0.0
 40
1.0
 40
1.0
 40
1.0
 40
1.0
 10
90.5039999999999
 20
638.1359838793287
 30
0.0
 10
90.5039999999999
 20
638.1359838793287
 30
0.0
 10
96.19200000000001
 20
638.1359838793287
 30
0.0
 10
96.19200000000001
 20
638.1359838793287
 30
0.0
  0
SPLINE
  5
A4
330
70
100
AcDbEntity
  8
capa1
 62
   250
420
  1907995
370
    13
100
AcDbSpline
210
0.0
220
0.0
230
1.0
 70
    24
 71
     3
 72
     8
 73
     4
 74
     0
 42
0.0000000001
 43
0.0000000001
 40
0.0
 40
0.0
 40
0.0
 40
0.0
 40
1.0
 40
1.0
 40
1.0
 40
1.0
 10
93.3119999999999
 20
641.0159838065737
 30
0.0
 10
93.3119999999999
 20
641.0159838065737
 30
0.0
 10
93.3119999999999
 20
635.3279839502647
 30
0.0
 10
93.3119999999999
 20
635.3279839502647
 30
0.0
  0
SPLINE
  5
A5
330
70
100
AcDbEntity
  8
capa1
 62
   250
420
  1907995
370
    13
100
AcDbSpline
210
0.0
220
0.0
230
1.0
 70
     9
 71
     3
 72
    17
 73
    13
 74
     0
 42
0.0000000001
 43
0.0000000001
 40
0.0
 40
0.0
 40
0.0
 40
0.0
 40
1.0
 40
1.0
 40
1.0
 40
2.0
 40
2.0
 40
2.0
 40
3.0
 40
3.0
 40
3.0
 40
4.0
 40
4.0
 40
4.0
 40
4.0
 10
93.3119999999999
 20
641.0159838065737
 30
0.0
 10
94.89599999999972
 20
641.0159838065737
 30
0.0
 10
96.19200000000001
 20
639.7199838393134
 30
0.0
 10
96.19200000000001
 20
638.1359838793287
 30
0.0
 10
96.19200000000001
 20
636.623983917525
 30
0.0
 10
94.89599999999972
 20
635.3279839502647
 30
0.0
 10
93.3119999999999
 20
635.3279839502647
 30
0.0
 10
91.80000000000019
 20
635.3279839502647
 30
0.0
 10
90.5039999999999
 20
636.623983917525
 30
0.0
 10
90.5039999999999
 20
638.1359838793287
 30
0.0
 10
90.5039999999999
 20
639.7199838393134
 30
0.0
 10
91.80000000000019
 20
641.0159838065737
 30
0.0
 10
93.3119999999999
 20
641.0159838065737
 30
0.0
  0
SPLINE
  5
A6
330
70
100
AcDbEntity
  8
capa1
 62
   250
420
  1907995
370
    13
100
AcDbSpline
210
0.0
220
0.0
230
1.0
 70
    24
 71
     3
 72
     8
 73
     4
 74
     0
 42
0.0000000001
 43
0.0000000001
 40
0.0
 40
0.0
 40
0.0
 40
0.0
 40
1.0
 40
1.0
 40
1.0
 40
1.0
 10
80.56800000000022
 20
684.2159827152499
 30
0.0
 10
80.56800000000022
 20
684.2159827152499
 30
0.0
 10
86.25600000000032
 20
684.2159827152499
 30
0.0
 10
86.25600000000032
 20
684.2159827152499
 30
0.0
  0
SPLINE
  5
A7
330
70
100
AcDbEntity
  8
capa1
 62
   250
420
  1907995
370
    13
100
AcDbSpline
210
0.0
220
0.0
230
1.0
 70
    24
 71
     3
 72
     8
 73
     4
 74
     0
 42
0.0000000001
 43
0.0000000001
 40
0.0
 40
0.0
 40
0.0
 40
0.0
 40
1.0
 40
1.0
 40
1.0
 40
1.0
 10
83.44800000000033
 20
687.095982642495
 30
0.0
 10
83.44800000000033
 20
687.095982642495
 30
0.0
 10
83.44800000000033
 20
681.407982786186
 30
0.0
 10
83.44800000000033
 20
681.407982786186
 30
0.0
  0
SPLINE
  5
A8
330
70
100
AcDbEntity
  8
capa1
 62
   250
420
  1907995
370
    13
100
AcDbSpline
210
0.0
220
0.0
230
1.0
 70
     9
 71
     3
 72
    17
 73
    13
 74
     0
 42
0.0000000001
 43
0.0000000001
 40
0.0
 40
0.0
 40
0.0
 40
0.0
 40
1.0
 40
1.0
 40
1.0
 40
2.0
 40
2.0
 40
2.0
 40
3.0
 40
3.0
 40
3.0
 40
4.0
 40
4.0
 40
4.0
 40
4.0
 10
83.44800000000033
 20
687.095982642495
 30
0.0
 10
85.03200000000015
 20
687.095982642495
 30
0.0
 10
86.25600000000032
 20
685.7999826752347
 30
0.0
 10
86.25600000000032
 20
684.2159827152499
 30
0.0
 10
86.25600000000032
 20
682.7039827534463
 30
0.0
 10
85.03200000000015
 20
681.407982786186
 30
0.0
 10
83.44800000000033
 20
681.407982786186
 30
0.0
 10
81.86399999999958
 20
681.407982786186
 30
0.0
 10
80.56800000000022
 20
682.7039827534463
 30
0.0
 10
80.56800000000022
 20
684.2159827152499
 30
0.0
 10
80.56800000000022
 20
685.7999826752347
 30
0.0
 10
81.86399999999958
 20
687.095982642495
 30
0.0
 10
83.44800000000033
 20
687.095982642495
 30
0.0
  0
SPLINE
  5
A9
330
70
100
AcDbEntity
  8
capa1
 62
   250
420
  1907995
370
    13
100
AcDbSpline
210
0.0
220
0.0
230
1.0
 70
    24
 71
     3
 72
     8
 73
     4
 74
     0
 42
0.0000000001
 43
0.0000000001
 40
0.0
 40
0.0
 40
0.0
 40
0.0
 40
1.0
 40
1.0
 40
1.0
 40
1.0
 10
88.41600000000017
 20
684.2159827152499
 30
0.0
 10
88.41600000000017
 20
684.2159827152499
 30
0.0
 10
94.03200000000015
 20
684.2159827152499
 30
0.0
 10
94.03200000000015
 20
684.2159827152499
 30
0.0
  0
SPLINE
  5
AA
330
70
100
AcDbEntity
  8
capa1
 62
   250
420
  1907995
370
    13
100
AcDbSpline
210
0.0
220
0.0
230
1.0
 70
    24
 71
     3
 72
     8
 73
     4
 74
     0
 42
0.0000000001
 43
0.0000000001
 40
0.0
 40
0.0
 40
0.0
 40
0.0
 40
1.0
 40
1.0
 40
1.0
 40
1.0
 10
91.22400000000016
 20
687.095982642495
 30
0.0
 10
91.22400000000016
 20
687.095982642495
 30
0.0
 10
91.22400000000016
 20
681.407982786186
 30
0.0
 10
91.22400000000016
 20
681.407982786186
 30
0.0
  0
SPLINE
  5
AB
330
70
100
AcDbEntity
  8
capa1
 62
   250
420
  1907995
370
    13
100
AcDbSpline
210
0.0
220
0.0
230
1.0
 70
    11
 71
     3
 72
    17
 73
    13
 74
     0
 42
0.0000000001
 43
0.0000000001
 40
0.0
 40
0.0
 40
0.0
 40
0.0
 40
1.0
 40
1.0
 40
1.0
 40
2.0
 40
2.0
 40
2.0
 40
3.0
 40
3.0
 40
3.0
 40
4.0
 40
4.0
 40
4.0
 40
4.0
 10
91.22400000000016
 20
687.095982642495
 30
0.0
 10
92.80799999999999
 20
687.095982642495
 30
0.0
 10
94.03200000000015
 20
685.7999826752347
 30
0.0
 10
94.03200000000015
 20
684.2159827152499
 30
0.0
 10
94.03200000000015
 20
682.7039827534463
 30
0.0
 10
92.80799999999999
 20
681.407982786186
 30
0.0
 10
91.22400000000016
 20
681.407982786186
 30
0.0
 10
89.64000000000032
 20
681.407982786186
 30
0.0
 10
88.41600000000017
 20
682.7039827534463
 30
0.0
 10
88.41600000000017
 20
684.2159827152499
 30
0.0
 10
88.41600000000017
 20
685.7999826752347
 30
0.0
 10
89.64000000000032
 20
687.095982642495
 30
0.0
 10
91.22400000000016
 20
687.095982642495
 30
0.0
  0
SPLINE
  5
AC
330
70
100
AcDbEntity
  8
capa1
 62
   250
420
  1907995
370
    13
100
AcDbSpline
210
0.0
220
0.0
230
1.0
 70
    24
 71
     3
 72
     8
 73
     4
 74
     0
 42
0.0000000001
 43
0.0000000001
 40
0.0
 40
0.0
 40
0.0
 40
0.0
 40
1.0
 40
1.0
 40
1.0
 40
1.0
 10
96.19200000000001
 20
684.2159827152499
 30
0.0
 10
96.19200000000001
 20
684.2159827152499
 30
0.0
 10
101.8799974262947
 20
684.2159827152499
 30
0.0
 10
101.8799974262947
 20
684.2159827152499
 30
0.0
  0
SPLINE
  5
AD
330
70
100
AcDbEntity
  8
capa1
 62
   250
420
  1907995
370
    13
100
AcDbSpline
210
0.0
220
0.0
230
1.0
 70
    24
 71
     3
 72
     8
 73
     4
 74
     0
 42
0.0000000001
 43
0.0000000001
 40
0.0
 40
0.0
 40
0.0
 40
0.0
 40
1.0
 40
1.0
 40
1.0
 40
1.0
 10
99.0
 20
687.095982642495
 30
0.0
 10
99.0
 20
687.095982642495
 30
0.0
 10
99.0
 20
681.407982786186
 30
0.0
 10
99.0
 20
681.407982786186
 30
0.0
  0
SPLINE
  5
AE
330
70
100
AcDbEntity
  8
capa1
 62
   250
420
  1907995
370
    13
100
AcDbSpline
210
0.0
220
0.0
230
1.0
 70
     9
 71
     3
 72
    17
 73
    13
 74
     0
 42
0.0000000001
 43
0.0000000001
 40
0.0
 40
0.0
 40
0.0
 40
0.0
 40
1.0
 40
1.0
 40
1.0
 40
2.0
 40
2.0
 40
2.0
 40
3.0
 40
3.0
 40
3.0
 40
4.0
 40
4.0
 40
4.0
 40
4.0
 10
99.0
 20
687.095982642495
 30
0.0
 10
100.5839974590344
 20
687.095982642495
 30
0.0
 10
101.8799974262947
 20
685.7999826752347
 30
0.0
 10
101.8799974262947
 20
684.2159827152499
 30
0.0
 10
101.8799974262947
 20
682.7039827534463
 30
0.0
 10
100.5839974590344
 20
681.407982786186
 30
0.0
 10
99.0
 20
681.407982786186
 30
0.0
 10
97.41600000000017
 20
681.407982786186
 30
0.0
 10
96.19200000000001
 20
682.7039827534463
 30
0.0
 10
96.19200000000001
 20
684.2159827152499
 30
0.0
 10
96.19200000000001
 20
685.7999826752347
 30
0.0
 10
97.41600000000017
 20
687.095982642495
 30
0.0
 10
99.0
 20
687.095982642495
 30
0.0
  0
SPLINE
  5
AF
330
70
100
AcDbEntity
  8
capa1
 62
   250
420
  1907995
370
    13
100
AcDbSpline
210
0.0
220
0.0
230
1.0
 70
    24
 71
     3
 72
     8
 73
     4
 74
     0
 42
0.0000000001
 43
0.0000000001
 40
0.0
 40
0.0
 40
0.0
 40
0.0
 40
1.0
 40
1.0
 40
1.0
 40
1.0
 10
103.9679973735474
 20
684.2159827152499
 30
0.0
 10
103.9679973735474
 20
684.2159827152499
 30
0.0
 10
109.6559972298564
 20
684.2159827152499
 30
0.0
 10
109.6559972298564
 20
684.2159827152499
 30
0.0
  0
SPLINE
  5
B0
330
70
100
AcDbEntity
  8
capa1
 62
   250
420
  1907995
370
    13
100
AcDbSpline
210
0.0
220
0.0
230
1.0
 70
    24
 71
     3
 72
     8
 73
     4
 74
     0
 42
0.0000000001
 43
0.0000000001
 40
0.0
 40
0.0
 40
0.0
 40
0.0
 40
1.0
 40
1.0
 40
1.0
 40
1.0
 10
106.7759973026113
 20
687.095982642495
 30
0.0
 10
106.7759973026113
 20
687.095982642495
 30
0.0
 10
106.7759973026113
 20
681.407982786186
 30
0.0
 10
106.7759973026113
 20
681.407982786186
 30
0.0
  0
SPLINE
  5
B1
330
70
100
AcDbEntity
  8
capa1
 62
   250
420
  1907995
370
    13
100
AcDbSpline
210
0.0
220
0.0
230
1.0
 70
    11
 71
     3
 72
    17
 73
    13
 74
     0
 42
0.0000000001
 43
0.0000000001
 40
0.0
 40
0.0
 40
0.0
 40
0.0
 40
1.0
 40
1.0
 40
1.0
 40
2.0
 40
2.0
 40
2.0
 40
3.0
 40
3.0
 40
3.0
 40
4.0
 40
4.0
 40
4.0
 40
4.0
 10
106.7759973026113
 20
687.095982642495
 30
0.0
 10
108.3599972625961
 20
687.095982642495
 30
0.0
 10
109.6559972298564
 20
685.7999826752347
 30
0.0
 10
109.6559972298564
 20
684.2159827152499
 30
0.0
 10
109.6559972298564
 20
682.7039827534463
 30
0.0
 10
108.3599972625961
 20
681.407982786186
 30
0.0
 10
106.7759973026113
 20
681.407982786186
 30
0.0
 10
105.1919973426265
 20
681.407982786186
 30
0.0
 10
103.9679973735474
 20
682.7039827534463
 30
0.0
 10
103.9679973735474
 20
684.2159827152499
 30
0.0
 10
103.9679973735474
 20
685.7999826752347
 30
0.0
 10
105.1919973426265
 20
687.095982642495
 30
0.0
 10
106.7759973026113
 20
687.095982642495
 30
0.0
  0
SPLINE
  5
B2
330
70
100
AcDbEntity
  8
capa1
 62
   250
420
  1907995
370
    13
100
AcDbSpline
210
0.0
220
0.0
230
1.0
 70
    24
 71
     3
 72
     8
 73
     4
 74
     0
 42
0.0000000001
 43
0.0000000001
 40
0.0
 40
0.0
 40
0.0
 40
0.0
 40
1.0
 40
1.0
 40
1.0
 40
1.0
 10
111.7439971771091
 20
684.2159827152499
 30
0.0
 10
111.7439971771091
 20
684.2159827152499
 30
0.0
 10
117.4319970334181
 20
684.2159827152499
 30
0.0
 10
117.4319970334181
 20
684.2159827152499
 30
0.0
  0
SPLINE
  5
B3
330
70
100
AcDbEntity
  8
capa1
 62
   250
420
  1907995
370
    13
100
AcDbSpline
210
0.0
220
0.0
230
1.0
 70
    24
 71
     3
 72
     8
 73
     4
 74
     0
 42
0.0000000001
 43
0.0000000001
 40
0.0
 40
0.0
 40
0.0
 40
0.0
 40
1.0
 40
1.0
 40
1.0
 40
1.0
 10
114.551997106173
 20
687.095982642495
 30
0.0
 10
114.551997106173
 20
687.095982642495
 30
0.0
 10
114.551997106173
 20
681.407982786186
 30
0.0
 10
114.551997106173
 20
681.407982786186
 30
0.0
  0
SPLINE
  5
B4
330
70
100
AcDbEntity
  8
capa1
 62
   250
420
  1907995
370
    13
100
AcDbSpline
210
0.0
220
0.0
230
1.0
 70
     9
 71
     3
 72
    17
 73
    13
 74
     0
 42
0.0000000001
 43
0.0000000001
 40
0.0
 40
0.0
 40
0.0
 40
0.0
 40
1.0
 40
1.0
 40
1.0
 40
2.0
 40
2.0
 40
2.0
 40
3.0
 40
3.0
 40
3.0
 40
4.0
 40
4.0
 40
4.0
 40
4.0
 10
114.551997106173
 20
687.095982642495
 30
0.0
 10
116.1359970661578
 20
687.095982642495
 30
0.0
 10
117.4319970334181
 20
685.7999826752347
 30
0.0
 10
117.4319970334181
 20
684.2159827152499
 30
0.0
 10
117.4319970334181
 20
682.7039827534463
 30
0.0
 10
116.1359970661578
 20
681.407982786186
 30
0.0
 10
114.551997106173
 20
681.407982786186
 30
0.0
 10
113.0399971443694
 20
681.407982786186
 30
0.0
 10
111.7439971771091
 20
682.7039827534463
 30
0.0
 10
111.7439971771091
 20
684.2159827152499
 30
0.0
 10
111.7439971771091
 20
685.7999826752347
 30
0.0
 10
113.0399971443694
 20
687.095982642495
 30
0.0
 10
114.551997106173
 20
687.095982642495
 30
0.0
  0
SPLINE
  5
B5
330
70
100
AcDbEntity
  8
capa1
 62
   250
420
  1907995
370
    13
100
AcDbSpline
210
0.0
220
0.0
230
1.0
 70
    24
 71
     3
 72
     8
 73
     4
 74
     0
 42
0.0000000001
 43
0.0000000001
 40
0.0
 40
0.0
 40
0.0
 40
0.0
 40
1.0
 40
1.0
 40
1.0
 40
1.0
 10
119.5199969806708
 20
684.2159827152499
 30
0.0
 10
119.5199969806708
 20
684.2159827152499
 30
0.0
 10
125.2079968369798
 20
684.2159827152499
 30
0.0
 10
125.2079968369798
 20
684.2159827152499
 30
0.0
  0
SPLINE
  5
B6
330
70
100
AcDbEntity
  8
capa1
 62
   250
420
  1907995
370
    13
100
AcDbSpline
210
0.0
220
0.0
230
1.0
 70
    24
 71
     3
 72
     8
 73
     4
 74
     0
 42
0.0000000001
 43
0.0000000001
 40
0.0
 40
0.0
 40
0.0
 40
0.0
 40
1.0
 40
1.0
 40
1.0
 40
1.0
 10
122.3279969097348
 20
687.095982642495
 30
0.0
 10
122.3279969097348
 20
687.095982642495
 30
0.0
 10
122.3279969097348
 20
681.407982786186
 30
0.0
 10
122.3279969097348
 20
681.407982786186
 30
0.0
  0
SPLINE
  5
B7
330
70
100
AcDbEntity
  8
capa1
 62
   250
420
  1907995
370
    13
100
AcDbSpline
210
0.0
220
0.0
230
1.0
 70
     9
 71
     3
 72
    17
 73
    13
 74
     0
 42
0.0000000001
 43
0.0000000001
 40
0.0
 40
0.0
 40
0.0
 40
0.0
 40
1.0
 40
1.0
 40
1.0
 40
2.0
 40
2.0
 40
2.0
 40
3.0
 40
3.0
 40
3.0
 40
4.0
 40
4.0
 40
4.0
 40
4.0
 10
122.3279969097348
 20
687.095982642495
 30
0.0
 10
123.9119968697196
 20
687.095982642495
 30
0.0
 10
125.2079968369798
 20
685.7999826752347
 30
0.0
 10
125.2079968369798
 20
684.2159827152499
 30
0.0
 10
125.2079968369798
 20
682.7039827534463
 30
0.0
 10
123.9119968697196
 20
681.407982786186
 30
0.0
 10
122.3279969097348
 20
681.407982786186
 30
0.0
 10
120.8159969479311
 20
681.407982786186
 30
0.0
 10
119.5199969806708
 20
682.7039827534463
 30
0.0
 10
119.5199969806708
 20
684.2159827152499
 30
0.0
 10
119.5199969806708
 20
685.7999826752347
 30
0.0
 10
120.8159969479311
 20
687.095982642495
 30
0.0
 10
122.3279969097348
 20
687.095982642495
 30
0.0
  0
SPLINE
  5
B8
330
70
100
AcDbEntity
  8
capa1
 62
   250
420
  1907995
370
    13
100
AcDbSpline
210
0.0
220
0.0
230
1.0
 70
    24
 71
     3
 72
     8
 73
     4
 74
     0
 42
0.0000000001
 43
0.0000000001
 40
0.0
 40
0.0
 40
0.0
 40
0.0
 40
1.0
 40
1.0
 40
1.0
 40
1.0
 10
127.2959967842325
 20
684.2159827152499
 30
0.0
 10
127.2959967842325
 20
684.2159827152499
 30
0.0
 10
132.9839966405416
 20
684.2159827152499
 30
0.0
 10
132.9839966405416
 20
684.2159827152499
 30
0.0
  0
SPLINE
  5
B9
330
70
100
AcDbEntity
  8
capa1
 62
   250
420
  1907995
370
    13
100
AcDbSpline
210
0.0
220
0.0
230
1.0
 70
    24
 71
     3
 72
     8
 73
     4
 74
     0
 42
0.0000000001
 43
0.0000000001
 40
0.0
 40
0.0
 40
0.0
 40
0.0
 40
1.0
 40
1.0
 40
1.0
 40
1.0
 10
130.1759967114776
 20
687.095982642495
 30
0.0
 10
130.1759967114776
 20
687.095982642495
 30
0.0
 10
130.1759967114776
 20
681.407982786186
 30
0.0
 10
130.1759967114776
 20
681.407982786186
 30
0.0
  0
SPLINE
  5
BA
330
70
100
AcDbEntity
  8
capa1
 62
   250
420
  1907995
370
    13
100
AcDbSpline
210
0.0
220
0.0
230
1.0
 70
     9
 71
     3
 72
    17
 73
    13
 74
     0
 42
0.0000000001
 43
0.0000000001
 40
0.0
 40
0.0
 40
0.0
 40
0.0
 40
1.0
 40
1.0
 40
1.0
 40
2.0
 40
2.0
 40
2.0
 40
3.0
 40
3.0
 40
3.0
 40
4.0
 40
4.0
 40
4.0
 40
4.0
 10
130.1759967114776
 20
687.095982642495
 30
0.0
 10
131.6879966732813
 20
687.095982642495
 30
0.0
 10
132.9839966405416
 20
685.7999826752347
 30
0.0
 10
132.9839966405416
 20
684.2159827152499
 30
0.0
 10
132.9839966405416
 20
682.7039827534463
 30
0.0
 10
131.6879966732813
 20
681.407982786186
 30
0.0
 10
130.1759967114776
 20
681.407982786186
 30
0.0
 10
128.5919967514928
 20
681.407982786186
 30
0.0
 10
127.2959967842325
 20
682.7039827534463
 30
0.0
 10
127.2959967842325
 20
684.2159827152499
 30
0.0
 10
127.2959967842325
 20
685.7999826752347
 30
0.0
 10
128.5919967514928
 20
687.095982642495
 30
0.0
 10
130.1759967114776
 20
687.095982642495
 30
0.0
  0
SPLINE
  5
BB
330
70
100
AcDbEntity
  8
capa1
 62
   250
420
  1907995
370
    13
100
AcDbSpline
210
0.0
220
0.0
230
1.0
 70
    24
 71
     3
 72
     8
 73
     4
 74
     0
 42
0.0000000001
 43
0.0000000001
 40
0.0
 40
0.0
 40
0.0
 40
0.0
 40
1.0
 40
1.0
 40
1.0
 40
1.0
 10
135.0719965877942
 20
684.2159827152499
 30
0.0
 10
135.0719965877942
 20
684.2159827152499
 30
0.0
 10
140.7599964441033
 20
684.2159827152499
 30
0.0
 10
140.7599964441033
 20
684.2159827152499
 30
0.0
  0
SPLINE
  5
BC
330
70
100
AcDbEntity
  8
capa1
 62
   250
420
  1907995
370
    13
100
AcDbSpline
210
0.0
220
0.0
230
1.0
 70
    24
 71
     3
 72
     8
 73
     4
 74
     0
 42
0.0000000001
 43
0.0000000001
 40
0.0
 40
0.0
 40
0.0
 40
0.0
 40
1.0
 40
1.0
 40
1.0
 40
1.0
 10
137.9519965150393
 20
687.095982642495
 30
0.0
 10
137.9519965150393
 20
687.095982642495
 30
0.0
 10
137.9519965150393
 20
681.407982786186
 30
0.0
 10
137.9519965150393
 20
681.407982786186
 30
0.0
  0
SPLINE
  5
BD
330
70
100
AcDbEntity
  8
capa1
 62
   250
420
  1907995
370
    13
100
AcDbSpline
210
0.0
220
0.0
230
1.0
 70
     9
 71
     3
 72
    17
 73
    13
 74
     0
 42
0.0000000001
 43
0.0000000001
 40
0.0
 40
0.0
 40
0.0
 40
0.0
 40
1.0
 40
1.0
 40
1.0
 40
2.0
 40
2.0
 40
2.0
 40
3.0
 40
3.0
 40
3.0
 40
4.0
 40
4.0
 40
4.0
 40
4.0
 10
137.9519965150393
 20
687.095982642495
 30
0.0
 10
139.463996476843
 20
687.095982642495
 30
0.0
 10
140.7599964441033
 20
685.7999826752347
 30
0.0
 10
140.7599964441033
 20
684.2159827152499
 30
0.0
 10
140.7599964441033
 20
682.7039827534463
 30
0.0
 10
139.463996476843
 20
681.407982786186
 30
0.0
 10
137.9519965150393
 20
681.407982786186
 30
0.0
 10
136.3679965550545
 20
681.407982786186
 30
0.0
 10
135.0719965877942
 20
682.7039827534463
 30
0.0
 10
135.0719965877942
 20
684.2159827152499
 30
0.0
 10
135.0719965877942
 20
685.7999826752347
 30
0.0
 10
136.3679965550545
 20
687.095982642495
 30
0.0
 10
137.9519965150393
 20
687.095982642495
 30
0.0
  0
SPLINE
  5
BE
330
70
100
AcDbEntity
  8
capa1
 62
   250
420
  1907995
370
    13
100
AcDbSpline
210
0.0
220
0.0
230
1.0
 70
    24
 71
     3
 72
     8
 73
     4
 74
     0
 42
0.0000000001
 43
0.0000000001
 40
0.0
 40
0.0
 40
0.0
 40
0.0
 40
1.0
 40
1.0
 40
1.0
 40
1.0
 10
142.847996391356
 20
684.2159827152499
 30
0.0
 10
142.847996391356
 20
684.2159827152499
 30
0.0
 10
148.535996247665
 20
684.2159827152499
 30
0.0
 10
148.535996247665
 20
684.2159827152499
 30
0.0
  0
SPLINE
  5
BF
330
70
100
AcDbEntity
  8
capa1
 62
   250
420
  1907995
370
    13
100
AcDbSpline
210
0.0
220
0.0
230
1.0
 70
    24
 71
     3
 72
     8
 73
     4
 74
     0
 42
0.0000000001
 43
0.0000000001
 40
0.0
 40
0.0
 40
0.0
 40
0.0
 40
1.0
 40
1.0
 40
1.0
 40
1.0
 10
145.727996318601
 20
687.095982642495
 30
0.0
 10
145.727996318601
 20
687.095982642495
 30
0.0
 10
145.727996318601
 20
681.407982786186
 30
0.0
 10
145.727996318601
 20
681.407982786186
 30
0.0
  0
SPLINE
  5
C0
330
70
100
AcDbEntity
  8
capa1
 62
   250
420
  1907995
370
    13
100
AcDbSpline
210
0.0
220
0.0
230
1.0
 70
    11
 71
     3
 72
    17
 73
    13
 74
     0
 42
0.0000000001
 43
0.0000000001
 40
0.0
 40
0.0
 40
0.0
 40
0.0
 40
1.0
 40
1.0
 40
1.0
 40
2.0
 40
2.0
 40
2.0
 40
3.0
 40
3.0
 40
3.0
 40
4.0
 40
4.0
 40
4.0
 40
4.0
 10
145.727996318601
 20
687.095982642495
 30
0.0
 10
147.3119962785858
 20
687.095982642495
 30
0.0
 10
148.535996247665
 20
685.7999826752347
 30
0.0
 10
148.535996247665
 20
684.2159827152499
 30
0.0
 10
148.535996247665
 20
682.7039827534463
 30
0.0
 10
147.3119962785858
 20
681.407982786186
 30
0.0
 10
145.727996318601
 20
681.407982786186
 30
0.0
 10
144.1439963586162
 20
681.407982786186
 30
0.0
 10
142.847996391356
 20
682.7039827534463
 30
0.0
 10
142.847996391356
 20
684.2159827152499
 30
0.0
 10
142.847996391356
 20
685.7999826752347
 30
0.0
 10
144.1439963586162
 20
687.095982642495
 30
0.0
 10
145.727996318601
 20
687.095982642495
 30
0.0
  0
SPLINE
  5
C1
330
70
100
AcDbEntity
  8
capa1
 62
   250
420
  1907995
370
    13
100
AcDbSpline
210
0.0
220
0.0
230
1.0
 70
    24
 71
     3
 72
     8
 73
     4
 74
     0
 42
0.0000000001
 43
0.0000000001
 40
0.0
 40
0.0
 40
0.0
 40
0.0
 40
1.0
 40
1.0
 40
1.0
 40
1.0
 10
163.2239958766149
 20
686.7359826515894
 30
0.0
 10
163.2239958766149
 20
686.7359826515894
 30
0.0
 10
168.407995745656
 20
686.7359826515894
 30
0.0
 10
168.407995745656
 20
686.7359826515894
 30
0.0
  0
SPLINE
  5
C2
330
70
100
AcDbEntity
  8
capa1
 62
   250
420
  1907995
370
    13
100
AcDbSpline
210
0.0
220
0.0
230
1.0
 70
    24
 71
     3
 72
     8
 73
     4
 74
     0
 42
0.0000000001
 43
0.0000000001
 40
0.0
 40
0.0
 40
0.0
 40
0.0
 40
1.0
 40
1.0
 40
1.0
 40
1.0
 10
165.8159958111355
 20
689.2559825879288
 30
0.0
 10
165.8159958111355
 20
689.2559825879288
 30
0.0
 10
165.8159958111355
 20
684.1439827170688
 30
0.0
 10
165.8159958111355
 20
684.1439827170688
 30
0.0
  0
SPLINE
  5
C3
330
70
100
AcDbEntity
  8
capa1
 62
   250
420
  1907995
370
    13
100
AcDbSpline
210
0.0
220
0.0
230
1.0
 70
    11
 71
     3
 72
    17
 73
    13
 74
     0
 42
0.0000000001
 43
0.0000000001
 40
0.0
 40
0.0
 40
0.0
 40
0.0
 40
1.0
 40
1.0
 40
1.0
 40
2.0
 40
2.0
 40
2.0
 40
3.0
 40
3.0
 40
3.0
 40
4.0
 40
4.0
 40
4.0
 40
4.0
 10
165.8159958111355
 20
689.2559825879288
 30
0.0
 10
167.255995774758
 20
689.2559825879288
 30
0.0
 10
168.407995745656
 20
688.1039826170308
 30
0.0
 10
168.407995745656
 20
686.7359826515894
 30
0.0
 10
168.407995745656
 20
685.2959826879668
 30
0.0
 10
167.255995774758
 20
684.1439827170688
 30
0.0
 10
165.8159958111355
 20
684.1439827170688
 30
0.0
 10
164.3759958475129
 20
684.1439827170688
 30
0.0
 10
163.2239958766149
 20
685.2959826879668
 30
0.0
 10
163.2239958766149
 20
686.7359826515894
 30
0.0
 10
163.2239958766149
 20
688.1039826170308
 30
0.0
 10
164.3759958475129
 20
689.2559825879288
 30
0.0
 10
165.8159958111355
 20
689.2559825879288
 30
0.0
  0
SPLINE
  5
C4
330
70
100
AcDbEntity
  8
capa1
 62
   250
420
  1907995
370
    13
100
AcDbSpline
210
0.0
220
0.0
230
1.0
 70
    24
 71
     3
 72
     8
 73
     4
 74
     0
 42
0.0000000001
 43
0.0000000001
 40
0.0
 40
0.0
 40
0.0
 40
0.0
 40
1.0
 40
1.0
 40
1.0
 40
1.0
 10
98.35199999999986
 20
638.1359838793287
 30
0.0
 10
98.35199999999986
 20
638.1359838793287
 30
0.0
 10
104.0399973717285
 20
638.1359838793287
 30
0.0
 10
104.0399973717285
 20
638.1359838793287
 30
0.0
  0
SPLINE
  5
C5
330
70
100
AcDbEntity
  8
capa1
 62
   250
420
  1907995
370
    13
100
AcDbSpline
210
0.0
220
0.0
230
1.0
 70
    24
 71
     3
 72
     8
 73
     4
 74
     0
 42
0.0000000001
 43
0.0000000001
 40
0.0
 40
0.0
 40
0.0
 40
0.0
 40
1.0
 40
1.0
 40
1.0
 40
1.0
 10
101.1599974444834
 20
641.0159838065737
 30
0.0
 10
101.1599974444834
 20
641.0159838065737
 30
0.0
 10
101.1599974444834
 20
635.3279839502647
 30
0.0
 10
101.1599974444834
 20
635.3279839502647
 30
0.0
  0
SPLINE
  5
C6
330
70
100
AcDbEntity
  8
capa1
 62
   250
420
  1907995
370
    13
100
AcDbSpline
210
0.0
220
0.0
230
1.0
 70
     9
 71
     3
 72
    17
 73
    13
 74
     0
 42
0.0000000001
 43
0.0000000001
 40
0.0
 40
0.0
 40
0.0
 40
0.0
 40
1.0
 40
1.0
 40
1.0
 40
2.0
 40
2.0
 40
2.0
 40
3.0
 40
3.0
 40
3.0
 40
4.0
 40
4.0
 40
4.0
 40
4.0
 10
101.1599974444834
 20
641.0159838065737
 30
0.0
 10
102.7439974044682
 20
641.0159838065737
 30
0.0
 10
104.0399973717285
 20
639.7199838393134
 30
0.0
 10
104.0399973717285
 20
638.1359838793287
 30
0.0
 10
104.0399973717285
 20
636.623983917525
 30
0.0
 10
102.7439974044682
 20
635.3279839502647
 30
0.0
 10
101.1599974444834
 20
635.3279839502647
 30
0.0
 10
99.57600000000002
 20
635.3279839502647
 30
0.0
 10
98.35199999999986
 20
636.623983917525
 30
0.0
 10
98.35199999999986
 20
638.1359838793287
 30
0.0
 10
98.35199999999986
 20
639.7199838393134
 30
0.0
 10
99.57600000000002
 20
641.0159838065737
 30
0.0
 10
101.1599974444834
 20
641.0159838065737
 30
0.0
  0
SPLINE
  5
C7
330
70
100
AcDbEntity
  8
capa1
 62
   250
420
  1907995
370
    13
100
AcDbSpline
210
0.0
220
0.0
230
1.0
 70
    24
 71
     3
 72
     8
 73
     4
 74
     0
 42
0.0000000001
 43
0.0000000001
 40
0.0
 40
0.0
 40
0.0
 40
0.0
 40
1.0
 40
1.0
 40
1.0
 40
1.0
 10
106.1279973189812
 20
638.1359838793287
 30
0.0
 10
106.1279973189812
 20
638.1359838793287
 30
0.0
 10
111.8159971752902
 20
638.1359838793287
 30
0.0
 10
111.8159971752902
 20
638.1359838793287
 30
0.0
  0
SPLINE
  5
C8
330
70
100
AcDbEntity
  8
capa1
 62
   250
420
  1907995
370
    13
100
AcDbSpline
210
0.0
220
0.0
230
1.0
 70
    24
 71
     3
 72
     8
 73
     4
 74
     0
 42
0.0000000001
 43
0.0000000001
 40
0.0
 40
0.0
 40
0.0
 40
0.0
 40
1.0
 40
1.0
 40
1.0
 40
1.0
 10
109.0079972462263
 20
641.0159838065737
 30
0.0
 10
109.0079972462263
 20
641.0159838065737
 30
0.0
 10
109.0079972462263
 20
635.3279839502647
 30
0.0
 10
109.0079972462263
 20
635.3279839502647
 30
0.0
  0
SPLINE
  5
C9
330
70
100
AcDbEntity
  8
capa1
 62
   250
420
  1907995
370
    13
100
AcDbSpline
210
0.0
220
0.0
230
1.0
 70
     9
 71
     3
 72
    17
 73
    13
 74
     0
 42
0.0000000001
 43
0.0000000001
 40
0.0
 40
0.0
 40
0.0
 40
0.0
 40
1.0
 40
1.0
 40
1.0
 40
2.0
 40
2.0
 40
2.0
 40
3.0
 40
3.0
 40
3.0
 40
4.0
 40
4.0
 40
4.0
 40
4.0
 10
109.0079972462263
 20
641.0159838065737
 30
0.0
 10
110.5199972080299
 20
641.0159838065737
 30
0.0
 10
111.8159971752902
 20
639.7199838393134
 30
0.0
 10
111.8159971752902
 20
638.1359838793287
 30
0.0
 10
111.8159971752902
 20
636.623983917525
 30
0.0
 10
110.5199972080299
 20
635.3279839502647
 30
0.0
 10
109.0079972462263
 20
635.3279839502647
 30
0.0
 10
107.4239972862415
 20
635.3279839502647
 30
0.0
 10
106.1279973189812
 20
636.623983917525
 30
0.0
 10
106.1279973189812
 20
638.1359838793287
 30
0.0
 10
106.1279973189812
 20
639.7199838393134
 30
0.0
 10
107.4239972862415
 20
641.0159838065737
 30
0.0
 10
109.0079972462263
 20
641.0159838065737
 30
0.0
  0
SPLINE
  5
CA
330
70
100
AcDbEntity
  8
capa1
 62
   250
420
  1907995
370
    13
100
AcDbSpline
210
0.0
220
0.0
230
1.0
 70
    24
 71
     3
 72
     8
 73
     4
 74
     0
 42
0.0000000001
 43
0.0000000001
 40
0.0
 40
0.0
 40
0.0
 40
0.0
 40
1.0
 40
1.0
 40
1.0
 40
1.0
 10
113.975997120724
 20
638.1359838793287
 30
0.0
 10
113.975997120724
 20
638.1359838793287
 30
0.0
 10
119.6639969770331
 20
638.1359838793287
 30
0.0
 10
119.6639969770331
 20
638.1359838793287
 30
0.0
  0
SPLINE
  5
CB
330
70
100
AcDbEntity
  8
capa1
 62
   250
420
  1907995
370
    13
100
AcDbSpline
210
0.0
220
0.0
230
1.0
 70
    24
 71
     3
 72
     8
 73
     4
 74
     0
 42
0.0000000001
 43
0.0000000001
 40
0.0
 40
0.0
 40
0.0
 40
0.0
 40
1.0
 40
1.0
 40
1.0
 40
1.0
 10
116.783997049788
 20
641.0159838065737
 30
0.0
 10
116.783997049788
 20
641.0159838065737
 30
0.0
 10
116.783997049788
 20
635.3279839502647
 30
0.0
 10
116.783997049788
 20
635.3279839502647
 30
0.0
  0
SPLINE
  5
CC
330
70
100
AcDbEntity
  8
capa1
 62
   250
420
  1907995
370
    13
100
AcDbSpline
210
0.0
220
0.0
230
1.0
 70
    11
 71
     3
 72
    17
 73
    13
 74
     0
 42
0.0000000001
 43
0.0000000001
 40
0.0
 40
0.0
 40
0.0
 40
0.0
 40
1.0
 40
1.0
 40
1.0
 40
2.0
 40
2.0
 40
2.0
 40
3.0
 40
3.0
 40
3.0
 40
4.0
 40
4.0
 40
4.0
 40
4.0
 10
116.783997049788
 20
641.0159838065737
 30
0.0
 10
118.3679970097728
 20
641.0159838065737
 30
0.0
 10
119.6639969770331
 20
639.7199838393134
 30
0.0
 10
119.6639969770331
 20
638.1359838793287
 30
0.0
 10
119.6639969770331
 20
636.623983917525
 30
0.0
 10
118.3679970097728
 20
635.3279839502647
 30
0.0
 10
116.783997049788
 20
635.3279839502647
 30
0.0
 10
115.1999970898032
 20
635.3279839502647
 30
0.0
 10
113.975997120724
 20
636.623983917525
 30
0.0
 10
113.975997120724
 20
638.1359838793287
 30
0.0
 10
113.975997120724
 20
639.7199838393134
 30
0.0
 10
115.1999970898032
 20
641.0159838065737
 30
0.0
 10
116.783997049788
 20
641.0159838065737
 30
0.0
  0
SPLINE
  5
CD
330
70
100
AcDbEntity
  8
capa1
 62
   250
420
  1907995
370
    13
100
AcDbSpline
210
0.0
220
0.0
230
1.0
 70
    24
 71
     3
 72
     8
 73
     4
 74
     0
 42
0.0000000001
 43
0.0000000001
 40
0.0
 40
0.0
 40
0.0
 40
0.0
 40
1.0
 40
1.0
 40
1.0
 40
1.0
 10
121.7519969242857
 20
638.1359838793287
 30
0.0
 10
121.7519969242857
 20
638.1359838793287
 30
0.0
 10
127.4399967805948
 20
638.1359838793287
 30
0.0
 10
127.4399967805948
 20
638.1359838793287
 30
0.0
  0
SPLINE
  5
CE
330
70
100
AcDbEntity
  8
capa1
 62
   250
420
  1907995
370
    13
100
AcDbSpline
210
0.0
220
0.0
230
1.0
 70
    24
 71
     3
 72
     8
 73
     4
 74
     0
 42
0.0000000001
 43
0.0000000001
 40
0.0
 40
0.0
 40
0.0
 40
0.0
 40
1.0
 40
1.0
 40
1.0
 40
1.0
 10
124.6319968515308
 20
641.0159838065737
 30
0.0
 10
124.6319968515308
 20
641.0159838065737
 30
0.0
 10
124.6319968515308
 20
635.3279839502647
 30
0.0
 10
124.6319968515308
 20
635.3279839502647
 30
0.0
  0
SPLINE
  5
CF
330
70
100
AcDbEntity
  8
capa1
 62
   250
420
  1907995
370
    13
100
AcDbSpline
210
0.0
220
0.0
230
1.0
 70
    11
 71
     3
 72
    17
 73
    13
 74
     0
 42
0.0000000001
 43
0.0000000001
 40
0.0
 40
0.0
 40
0.0
 40
0.0
 40
1.0
 40
1.0
 40
1.0
 40
2.0
 40
2.0
 40
2.0
 40
3.0
 40
3.0
 40
3.0
 40
4.0
 40
4.0
 40
4.0
 40
4.0
 10
124.6319968515308
 20
641.0159838065737
 30
0.0
 10
126.2159968115156
 20
641.0159838065737
 30
0.0
 10
127.4399967805948
 20
639.7199838393134
 30
0.0
 10
127.4399967805948
 20
638.1359838793287
 30
0.0
 10
127.4399967805948
 20
636.623983917525
 30
0.0
 10
126.2159968115156
 20
635.3279839502647
 30
0.0
 10
124.6319968515308
 20
635.3279839502647
 30
0.0
 10
123.047996891546
 20
635.3279839502647
 30
0.0
 10
121.7519969242857
 20
636.623983917525
 30
0.0
 10
121.7519969242857
 20
638.1359838793287
 30
0.0
 10
121.7519969242857
 20
639.7199838393134
 30
0.0
 10
123.047996891546
 20
641.0159838065737
 30
0.0
 10
124.6319968515308
 20
641.0159838065737
 30
0.0
  0
SPLINE
  5
D0
330
70
100
AcDbEntity
  8
capa1
 62
   250
420
  1907995
370
    13
100
AcDbSpline
210
0.0
220
0.0
230
1.0
 70
    24
 71
     3
 72
     8
 73
     4
 74
     0
 42
0.0000000001
 43
0.0000000001
 40
0.0
 40
0.0
 40
0.0
 40
0.0
 40
1.0
 40
1.0
 40
1.0
 40
1.0
 10
129.5999967260286
 20
638.1359838793287
 30
0.0
 10
129.5999967260286
 20
638.1359838793287
 30
0.0
 10
135.2879965823376
 20
638.1359838793287
 30
0.0
 10
135.2879965823376
 20
638.1359838793287
 30
0.0
  0
SPLINE
  5
D1
330
70
100
AcDbEntity
  8
capa1
 62
   250
420
  1907995
370
    13
100
AcDbSpline
210
0.0
220
0.0
230
1.0
 70
    24
 71
     3
 72
     8
 73
     4
 74
     0
 42
0.0000000001
 43
0.0000000001
 40
0.0
 40
0.0
 40
0.0
 40
0.0
 40
1.0
 40
1.0
 40
1.0
 40
1.0
 10
132.4079966550925
 20
641.0159838065737
 30
0.0
 10
132.4079966550925
 20
641.0159838065737
 30
0.0
 10
132.4079966550925
 20
635.3279839502647
 30
0.0
 10
132.4079966550925
 20
635.3279839502647
 30
0.0
  0
SPLINE
  5
D2
330
70
100
AcDbEntity
  8
capa1
 62
   250
420
  1907995
370
    13
100
AcDbSpline
210
0.0
220
0.0
230
1.0
 70
     9
 71
     3
 72
    17
 73
    13
 74
     0
 42
0.0000000001
 43
0.0000000001
 40
0.0
 40
0.0
 40
0.0
 40
0.0
 40
1.0
 40
1.0
 40
1.0
 40
2.0
 40
2.0
 40
2.0
 40
3.0
 40
3.0
 40
3.0
 40
4.0
 40
4.0
 40
4.0
 40
4.0
 10
132.4079966550925
 20
641.0159838065737
 30
0.0
 10
133.9919966150773
 20
641.0159838065737
 30
0.0
 10
135.2879965823376
 20
639.7199838393134
 30
0.0
 10
135.2879965823376
 20
638.1359838793287
 30
0.0
 10
135.2879965823376
 20
636.623983917525
 30
0.0
 10
133.9919966150773
 20
635.3279839502647
 30
0.0
 10
132.4079966550925
 20
635.3279839502647
 30
0.0
 10
130.8959966932889
 20
635.3279839502647
 30
0.0
 10
129.5999967260286
 20
636.623983917525
 30
0.0
 10
129.5999967260286
 20
638.1359838793287
 30
0.0
 10
129.5999967260286
 20
639.7199838393134
 30
0.0
 10
130.8959966932889
 20
641.0159838065737
 30
0.0
 10
132.4079966550925
 20
641.0159838065737
 30
0.0
  0
SPLINE
  5
D3
330
70
100
AcDbEntity
  8
capa1
 62
   250
420
  1907995
370
    13
100
AcDbSpline
210
0.0
220
0.0
230
1.0
 70
    24
 71
     3
 72
     8
 73
     4
 74
     0
 42
0.0000000001
 43
0.0000000001
 40
0.0
 40
0.0
 40
0.0
 40
0.0
 40
1.0
 40
1.0
 40
1.0
 40
1.0
 10
137.4479965277714
 20
638.1359838793287
 30
0.0
 10
137.4479965277714
 20
638.1359838793287
 30
0.0
 10
143.1359963840805
 20
638.1359838793287
 30
0.0
 10
143.1359963840805
 20
638.1359838793287
 30
0.0
  0
SPLINE
  5
D4
330
70
100
AcDbEntity
  8
capa1
 62
   250
420
  1907995
370
    13
100
AcDbSpline
210
0.0
220
0.0
230
1.0
 70
    24
 71
     3
 72
     8
 73
     4
 74
     0
 42
0.0000000001
 43
0.0000000001
 40
0.0
 40
0.0
 40
0.0
 40
0.0
 40
1.0
 40
1.0
 40
1.0
 40
1.0
 10
140.2559964568354
 20
641.0159838065737
 30
0.0
 10
140.2559964568354
 20
641.0159838065737
 30
0.0
 10
140.2559964568354
 20
635.3279839502647
 30
0.0
 10
140.2559964568354
 20
635.3279839502647
 30
0.0
  0
SPLINE
  5
D5
330
70
100
AcDbEntity
  8
capa1
 62
   250
420
  1907995
370
    13
100
AcDbSpline
210
0.0
220
0.0
230
1.0
 70
    11
 71
     3
 72
    17
 73
    13
 74
     0
 42
0.0000000001
 43
0.0000000001
 40
0.0
 40
0.0
 40
0.0
 40
0.0
 40
1.0
 40
1.0
 40
1.0
 40
2.0
 40
2.0
 40
2.0
 40
3.0
 40
3.0
 40
3.0
 40
4.0
 40
4.0
 40
4.0
 40
4.0
 10
140.2559964568354
 20
641.0159838065737
 30
0.0
 10
141.8399964168202
 20
641.0159838065737
 30
0.0
 10
143.1359963840805
 20
639.7199838393134
 30
0.0
 10
143.1359963840805
 20
638.1359838793287
 30
0.0
 10
143.1359963840805
 20
636.623983917525
 30
0.0
 10
141.8399964168202
 20
635.3279839502647
 30
0.0
 10
140.2559964568354
 20
635.3279839502647
 30
0.0
 10
138.6719964968506
 20
635.3279839502647
 30
0.0
 10
137.4479965277714
 20
636.623983917525
 30
0.0
 10
137.4479965277714
 20
638.1359838793287
 30
0.0
 10
137.4479965277714
 20
639.7199838393134
 30
0.0
 10
138.6719964968506
 20
641.0159838065737
 30
0.0
 10
140.2559964568354
 20
641.0159838065737
 30
0.0
  0
SPLINE
  5
D6
330
70
100
AcDbEntity
  8
capa1
 62
   250
420
  1907995
370
    13
100
AcDbSpline
210
0.0
220
0.0
230
1.0
 70
    24
 71
     3
 72
     8
 73
     4
 74
     0
 42
0.0000000001
 43
0.0000000001
 40
0.0
 40
0.0
 40
0.0
 40
0.0
 40
1.0
 40
1.0
 40
1.0
 40
1.0
 10
145.2239963313332
 20
638.1359838793287
 30
0.0
 10
145.2239963313332
 20
638.1359838793287
 30
0.0
 10
150.9119961876422
 20
638.1359838793287
 30
0.0
 10
150.9119961876422
 20
638.1359838793287
 30
0.0
  0
SPLINE
  5
D7
330
70
100
AcDbEntity
  8
capa1
 62
   250
420
  1907995
370
    13
100
AcDbSpline
210
0.0
220
0.0
230
1.0
 70
    24
 71
     3
 72
     8
 73
     4
 74
     0
 42
0.0000000001
 43
0.0000000001
 40
0.0
 40
0.0
 40
0.0
 40
0.0
 40
1.0
 40
1.0
 40
1.0
 40
1.0
 10
148.1039962585782
 20
641.0159838065737
 30
0.0
 10
148.1039962585782
 20
641.0159838065737
 30
0.0
 10
148.1039962585782
 20
635.3279839502647
 30
0.0
 10
148.1039962585782
 20
635.3279839502647
 30
0.0
  0
SPLINE
  5
D8
330
70
100
AcDbEntity
  8
capa1
 62
   250
420
  1907995
370
    13
100
AcDbSpline
210
0.0
220
0.0
230
1.0
 70
     9
 71
     3
 72
    17
 73
    13
 74
     0
 42
0.0000000001
 43
0.0000000001
 40
0.0
 40
0.0
 40
0.0
 40
0.0
 40
1.0
 40
1.0
 40
1.0
 40
2.0
 40
2.0
 40
2.0
 40
3.0
 40
3.0
 40
3.0
 40
4.0
 40
4.0
 40
4.0
 40
4.0
 10
148.1039962585782
 20
641.0159838065737
 30
0.0
 10
149.6159962203819
 20
641.0159838065737
 30
0.0
 10
150.9119961876422
 20
639.7199838393134
 30
0.0
 10
150.9119961876422
 20
638.1359838793287
 30
0.0
 10
150.9119961876422
 20
636.623983917525
 30
0.0
 10
149.6159962203819
 20
635.3279839502647
 30
0.0
 10
148.1039962585782
 20
635.3279839502647
 30
0.0
 10
146.5199962985934
 20
635.3279839502647
 30
0.0
 10
145.2239963313332
 20
636.623983917525
 30
0.0
 10
145.2239963313332
 20
638.1359838793287
 30
0.0
 10
145.2239963313332
 20
639.7199838393134
 30
0.0
 10
146.5199962985934
 20
641.0159838065737
 30
0.0
 10
148.1039962585782
 20
641.0159838065737
 30
0.0
  0
SPLINE
  5
D9
330
70
100
AcDbEntity
  8
capa1
 62
   250
420
  1907995
370
    13
100
AcDbSpline
210
0.0
220
0.0
230
1.0
 70
    24
 71
     3
 72
     8
 73
     4
 74
     0
 42
0.0000000001
 43
0.0000000001
 40
0.0
 40
0.0
 40
0.0
 40
0.0
 40
1.0
 40
1.0
 40
1.0
 40
1.0
 10
153.071996133076
 20
638.1359838793287
 30
0.0
 10
153.071996133076
 20
638.1359838793287
 30
0.0
 10
158.759995989385
 20
638.1359838793287
 30
0.0
 10
158.759995989385
 20
638.1359838793287
 30
0.0
  0
SPLINE
  5
DA
330
70
100
AcDbEntity
  8
capa1
 62
   250
420
  1907995
370
    13
100
AcDbSpline
210
0.0
220
0.0
230
1.0
 70
    24
 71
     3
 72
     8
 73
     4
 74
     0
 42
0.0000000001
 43
0.0000000001
 40
0.0
 40
0.0
 40
0.0
 40
0.0
 40
1.0
 40
1.0
 40
1.0
 40
1.0
 10
155.8799960621399
 20
641.0159838065737
 30
0.0
 10
155.8799960621399
 20
641.0159838065737
 30
0.0
 10
155.8799960621399
 20
635.3279839502647
 30
0.0
 10
155.8799960621399
 20
635.3279839502647
 30
0.0
  0
SPLINE
  5
DB
330
70
100
AcDbEntity
  8
capa1
 62
   250
420
  1907995
370
    13
100
AcDbSpline
210
0.0
220
0.0
230
1.0
 70
    11
 71
     3
 72
    17
 73
    13
 74
     0
 42
0.0000000001
 43
0.0000000001
 40
0.0
 40
0.0
 40
0.0
 40
0.0
 40
1.0
 40
1.0
 40
1.0
 40
2.0
 40
2.0
 40
2.0
 40
3.0
 40
3.0
 40
3.0
 40
4.0
 40
4.0
 40
4.0
 40
4.0
 10
155.8799960621399
 20
641.0159838065737
 30
0.0
 10
157.4639960221247
 20
641.0159838065737
 30
0.0
 10
158.759995989385
 20
639.7199838393134
 30
0.0
 10
158.759995989385
 20
638.1359838793287
 30
0.0
 10
158.759995989385
 20
636.623983917525
 30
0.0
 10
157.4639960221247
 20
635.3279839502647
 30
0.0
 10
155.8799960621399
 20
635.3279839502647
 30
0.0
 10
154.2959961021552
 20
635.3279839502647
 30
0.0
 10
153.071996133076
 20
636.623983917525
 30
0.0
 10
153.071996133076
 20
638.1359838793287
 30
0.0
 10
153.071996133076
 20
639.7199838393134
 30
0.0
 10
154.2959961021552
 20
641.0159838065737
 30
0.0
 10
155.8799960621399
 20
641.0159838065737
 30
0.0
  0
SPLINE
  5
DC
330
70
100
AcDbEntity
  8
capa1
 62
   250
420
  1907995
370
    13
100
AcDbSpline
210
0.0
220
0.0
230
1.0
 70
    24
 71
     3
 72
     8
 73
     4
 74
     0
 42
0.0000000001
 43
0.0000000001
 40
0.0
 40
0.0
 40
0.0
 40
0.0
 40
1.0
 40
1.0
 40
1.0
 40
1.0
 10
160.8479959366377
 20
638.1359838793287
 30
0.0
 10
160.8479959366377
 20
638.1359838793287
 30
0.0
 10
166.5359957929467
 20
638.1359838793287
 30
0.0
 10
166.5359957929467
 20
638.1359838793287
 30
0.0
  0
SPLINE
  5
DD
330
70
100
AcDbEntity
  8
capa1
 62
   250
420
  1907995
370
    13
100
AcDbSpline
210
0.0
220
0.0
230
1.0
 70
    24
 71
     3
 72
     8
 73
     4
 74
     0
 42
0.0000000001
 43
0.0000000001
 40
0.0
 40
0.0
 40
0.0
 40
0.0
 40
1.0
 40
1.0
 40
1.0
 40
1.0
 10
163.7279958638828
 20
641.0159838065737
 30
0.0
 10
163.7279958638828
 20
641.0159838065737
 30
0.0
 10
163.7279958638828
 20
635.3279839502647
 30
0.0
 10
163.7279958638828
 20
635.3279839502647
 30
0.0
  0
SPLINE
  5
DE
330
70
100
AcDbEntity
  8
capa1
 62
   250
420
  1907995
370
    13
100
AcDbSpline
210
0.0
220
0.0
230
1.0
 70
    11
 71
     3
 72
    17
 73
    13
 74
     0
 42
0.0000000001
 43
0.0000000001
 40
0.0
 40
0.0
 40
0.0
 40
0.0
 40
1.0
 40
1.0
 40
1.0
 40
2.0
 40
2.0
 40
2.0
 40
3.0
 40
3.0
 40
3.0
 40
4.0
 40
4.0
 40
4.0
 40
4.0
 10
163.7279958638828
 20
641.0159838065737
 30
0.0
 10
165.3119958238676
 20
641.0159838065737
 30
0.0
 10
166.5359957929467
 20
639.7199838393134
 30
0.0
 10
166.5359957929467
 20
638.1359838793287
 30
0.0
 10
166.5359957929467
 20
636.623983917525
 30
0.0
 10
165.3119958238676
 20
635.3279839502647
 30
0.0
 10
163.7279958638828
 20
635.3279839502647
 30
0.0
 10
162.143995903898
 20
635.3279839502647
 30
0.0
 10
160.8479959366377
 20
636.623983917525
 30
0.0
 10
160.8479959366377
 20
638.1359838793287
 30
0.0
 10
160.8479959366377
 20
639.7199838393134
 30
0.0
 10
162.143995903898
 20
641.0159838065737
 30
0.0
 10
163.7279958638828
 20
641.0159838065737
 30
0.0
  0
LWPOLYLINE
  5
DF
330
70
100
AcDbEntity
  8
capa1
 62
   250
420
  1907995
370
    13
100
AcDbPolyline
 90
        4
 70
     1
 43
0.0
 10
160.5599959439132
 20
683.4959827334387
 10
171.791995660169
 20
683.4959827334387
 10
171.791995660169
 20
689.903982571559
 10
160.5599959439132
 20
689.903982571559
  0
LINE
  5
E0
330
70
100
AcDbEntity
  8
capa1
 62
   250
420
  1907995
370
     9
100
AcDbLine
 10
174.3119955965085
 20
787.3199801106238
 30
0.0
 11
187.9919952509226
 21
787.3199801106238
 31
0.0
  0
LINE
  5
E1
330
70
100
AcDbEntity
  8
capa1
 62
   250
420
  1907995
370
     9
100
AcDbLine
 10
171.791995660169
 20
629.4239840994123
 30
0.0
 11
171.791995660169
 21
615.8159844431793
 31
0.0
  0
LINE
  5
E2
330
70
100
AcDbEntity
  8
capa1
 62
   250
420
  1907995
370
     9
100
AcDbLine
 10
174.3119955965085
 20
711.2159820331726
 30
0.0
 11
187.9919952509226
 21
711.2159820331726
 31
0.0
  0
LINE
  5
E3
330
70
100
AcDbEntity
  8
capa1
 62
   250
420
  1907995
370
     9
100
AcDbLine
 10
75.52800000000025
 20
629.4239840994123
 30
0.0
 11
75.52800000000025
 21
615.8159844431793
 31
0.0
  0
LINE
  5
E4
330
70
100
AcDbEntity
  8
capa1
 62
   250
420
  1907995
370
     9
100
AcDbLine
 10
186.4079952909378
 20
711.2159820331726
 30
0.0
 11
186.4079952909378
 21
742.6799812383251
 31
0.0
  0
LINE
  5
E5
330
70
100
AcDbEntity
  8
capa1
 62
   250
420
  1907995
370
     9
100
AcDbLine
 10
75.52800000000025
 20
617.3999844031641
 30
0.0
 11
117.359997035237
 21
617.3999844031641
 31
0.0
  0
LINE
  5
E6
330
70
100
AcDbEntity
  8
capa1
 62
   250
420
  1907995
370
     9
100
AcDbLine
 10
186.4079952909378
 20
787.3199801106238
 30
0.0
 11
186.4079952909378
 21
755.8559809054713
 31
0.0
  0
LINE
  5
E7
330
70
100
AcDbEntity
  8
capa1
 62
   250
420
  1907995
370
     9
100
AcDbLine
 10
171.791995660169
 20
617.3999844031641
 30
0.0
 11
130.391996706021
 21
617.3999844031641
 31
0.0
  0
LINE
  5
E8
330
70
100
AcDbEntity
  8
capa1
 62
   250
420
  1907995
370
     9
100
AcDbLine
 10
175.3199955710442
 20
690.0479825679212
 30
0.0
 11
189.2159952200018
 21
690.0479825679212
 31
0.0
  0
LINE
  5
E9
330
70
100
AcDbEntity
  8
capa1
 62
   250
420
  1907995
370
     9
100
AcDbLine
 10
175.3199955710442
 20
632.4479840230196
 30
0.0
 11
189.2159952200018
 21
632.4479840230196
 31
0.0
  0
LINE
  5
EA
330
70
100
AcDbEntity
  8
capa1
 62
   250
420
  1907995
370
     9
100
AcDbLine
 10
187.4159952654736
 20
632.4479840230196
 30
0.0
 11
187.4159952654736
 21
653.615983488271
 31
0.0
  0
LINE
  5
EB
330
70
100
AcDbEntity
  8
capa1
 62
   250
420
  1907995
370
     9
100
AcDbLine
 10
187.4159952654736
 20
690.0479825679212
 30
0.0
 11
187.4159952654736
 21
669.3119830917567
 31
0.0
  0
SPLINE
  5
EC
330
70
100
AcDbEntity
  8
capa1
100
AcDbSpline
210
0.0
220
0.0
230
1.0
 70
    11
 71
     3
 72
    32
 73
    28
 74
     0
 42
0.0000000001
 43
0.0000000001
 40
0.0
 40
0.0
 40
0.0
 40
0.0
 40
1.0
 40
1.0
 40
1.0
 40
2.0
 40
2.0
 40
2.0
 40
3.0
 40
3.0
 40
3.0
 40
4.0
 40
4.0
 40
4.0
 40
5.0
 40
5.0
 40
5.0
 40
6.0
 40
6.0
 40
6.0
 40
7.0
 40
7.0
 40
7.0
 40
8.0
 40
8.0
 40
8.0
 40
9.0
 40
9.0
 40
9.0
 40
9.0
 10
188.9279952272772
 20
745.9199811564758
 30
0.0
 10
188.9279952272772
 20
745.9199811564758
 30
0.0
 10
188.9279952272772
 20
745.2719811728456
 30
0.0
 10
188.9279952272772
 20
745.2719811728456
 30
0.0
 10
188.9279952272772
 20
745.2719811728456
 30
0.0
 10
185.0399953254964
 20
745.2719811728456
 30
0.0
 10
185.0399953254964
 20
745.2719811728456
 30
0.0
 10
185.1119953236775
 20
745.1279811764834
 30
0.0
 10
185.2559953200398
 20
744.9839811801211
 30
0.0
 10
185.399995316402
 20
744.6959811873966
 30
0.0
 10
185.5439953127643
 20
744.4799811928533
 30
0.0
 10
185.6879953091265
 20
744.2639811983099
 30
0.0
 10
185.7599953073077
 20
744.0479812037665
 30
0.0
 10
185.7599953073077
 20
744.0479812037665
 30
0.0
 10
185.1839953218586
 20
744.0479812037665
 30
0.0
 10
185.1839953218586
 20
744.0479812037665
 30
0.0
 10
184.9679953273153
 20
744.4079811946721
 30
0.0
 10
184.823995330953
 20
744.6959811873966
 30
0.0
 10
184.5359953382285
 20
744.9839811801211
 30
0.0
 10
184.3199953436851
 20
745.1999811746645
 30
0.0
 10
184.1039953491417
 20
745.4159811692079
 30
0.0
 10
183.8879953545984
 20
745.487981167389
 30
0.0
 10
183.8879953545984
 20
745.487981167389
 30
0.0
 10
183.8879953545984
 20
745.9199811564758
 30
0.0
 10
183.8879953545984
 20
745.9199811564758
 30
0.0
 10
183.8879953545984
 20
745.9199811564758
 30
0.0
 10
188.9279952272772
 20
745.9199811564758
 30
0.0
 10
188.9279952272772
 20
745.9199811564758
 30
0.0
  0
HATCH
  5
ED
330
70
100
AcDbEntity
  8
capa1
 62
   250
420
  1907995
440
 33554687
100
AcDbHatch
 10
0.0
 20
0.0
 30
0.0
210
0.0
220
0.0
230
1.0
  2
SOLID
 70
     1
 71
     1
 91
        1
 92
        1
 93
        1
 72
     4
 94
        3
 73
     0
 74
     0
 95
       32
 96
       28
 40
0.0
 40
0.0
 40
0.0
 40
0.0
 40
1.0
 40
1.0
 40
1.0
 40
2.0
 40
2.0
 40
2.0
 40
3.0
 40
3.0
 40
3.0
 40
4.0
 40
4.0
 40
4.0
 40
5.0
 40
5.0
 40
5.0
 40
6.0
 40
6.0
 40
6.0
 40
7.0
 40
7.0
 40
7.0
 40
8.0
 40
8.0
 40
8.0
 40
9.0
 40
9.0
 40
9.0
 40
9.0
 10
188.9279952272772
 20
745.9199811564758
 10
188.9279952272772
 20
745.9199811564758
 10
188.9279952272772
 20
745.2719811728456
 10
188.9279952272772
 20
745.2719811728456
 10
188.9279952272772
 20
745.2719811728456
 10
185.0399953254964
 20
745.2719811728456
 10
185.0399953254964
 20
745.2719811728456
 10
185.1119953236775
 20
745.1279811764834
 10
185.2559953200398
 20
744.9839811801211
 10
185.399995316402
 20
744.6959811873966
 10
185.5439953127643
 20
744.4799811928533
 10
185.6879953091265
 20
744.2639811983099
 10
185.7599953073077
 20
744.0479812037665
 10
185.7599953073077
 20
744.0479812037665
 10
185.1839953218586
 20
744.0479812037665
 10
185.1839953218586
 20
744.0479812037665
 10
184.9679953273153
 20
744.4079811946721
 10
184.823995330953
 20
744.6959811873966
 10
184.5359953382285
 20
744.9839811801211
 10
184.3199953436851
 20
745.1999811746645
 10
184.1039953491417
 20
745.4159811692079
 10
183.8879953545984
 20
745.487981167389
 10
183.8879953545984
 20
745.487981167389
 10
183.8879953545984
 20
745.9199811564758
 10
183.8879953545984
 20
745.9199811564758
 10
183.8879953545984
 20
745.9199811564758
 10
188.9279952272772
 20
745.9199811564758
 10
188.9279952272772
 20
745.9199811564758
 97
        0
 97
        1
330
EC
 75
     2
 76
     1
 98
        1
 10
0.0
 20
0.0
450
        0
451
        0
460
0.0
461
0.0
452
        0
462
0.0
453
        0
470

  0
SPLINE
  5
EE
330
70
100
AcDbEntity
  8
capa1
100
AcDbSpline
210
0.0
220
0.0
230
1.0
 70
    11
 71
     3
 72
    32
 73
    28
 74
     0
 42
0.0000000001
 43
0.0000000001
 40
0.0
 40
0.0
 40
0.0
 40
0.0
 40
1.0
 40
1.0
 40
1.0
 40
2.0
 40
2.0
 40
2.0
 40
3.0
 40
3.0
 40
3.0
 40
4.0
 40
4.0
 40
4.0
 40
5.0
 40
5.0
 40
5.0
 40
6.0
 40
6.0
 40
6.0
 40
7.0
 40
7.0
 40
7.0
 40
8.0
 40
8.0
 40
8.0
 40
9.0
 40
9.0
 40
9.0
 40
9.0
 10
188.9279952272772
 20
749.3039810709888
 30
0.0
 10
188.9279952272772
 20
749.3039810709888
 30
0.0
 10
188.9279952272772
 20
748.6559810873586
 30
0.0
 10
188.9279952272772
 20
748.6559810873586
 30
0.0
 10
188.9279952272772
 20
748.6559810873586
 30
0.0
 10
185.0399953254964
 20
748.6559810873586
 30
0.0
 10
185.0399953254964
 20
748.6559810873586
 30
0.0
 10
185.1119953236775
 20
748.5119810909964
 30
0.0
 10
185.2559953200398
 20
748.3679810946341
 30
0.0
 10
185.399995316402
 20
748.0799811019096
 30
0.0
 10
185.5439953127643
 20
747.8639811073662
 30
0.0
 10
185.6879953091265
 20
747.6479811128228
 30
0.0
 10
185.7599953073077
 20
747.4319811182795
 30
0.0
 10
185.7599953073077
 20
747.4319811182795
 30
0.0
 10
185.1839953218586
 20
747.4319811182795
 30
0.0
 10
185.1839953218586
 20
747.4319811182795
 30
0.0
 10
184.9679953273153
 20
747.7919811091851
 30
0.0
 10
184.823995330953
 20
748.0799811019096
 30
0.0
 10
184.5359953382285
 20
748.3679810946341
 30
0.0
 10
184.3199953436851
 20
748.5839810891775
 30
0.0
 10
184.1039953491417
 20
748.7999810837209
 30
0.0
 10
183.8879953545984
 20
748.871981081902
 30
0.0
 10
183.8879953545984
 20
748.871981081902
 30
0.0
 10
183.8879953545984
 20
749.3039810709888
 30
0.0
 10
183.8879953545984
 20
749.3039810709888
 30
0.0
 10
183.8879953545984
 20
749.3039810709888
 30
0.0
 10
188.9279952272772
 20
749.3039810709888
 30
0.0
 10
188.9279952272772
 20
749.3039810709888
 30
0.0
  0
HATCH
  5
EF
330
70
100
AcDbEntity
  8
capa1
 62
   250
420
  1907995
440
 33554687
100
AcDbHatch
 10
0.0
 20
0.0
 30
0.0
210
0.0
220
0.0
230
1.0
  2
SOLID
 70
     1
 71
     1
 91
        1
 92
        1
 93
        1
 72
     4
 94
        3
 73
     0
 74
     0
 95
       32
 96
       28
 40
0.0
 40
0.0
 40
0.0
 40
0.0
 40
1.0
 40
1.0
 40
1.0
 40
2.0
 40
2.0
 40
2.0
 40
3.0
 40
3.0
 40
3.0
 40
4.0
 40
4.0
 40
4.0
 40
5.0
 40
5.0
 40
5.0
 40
6.0
 40
6.0
 40
6.0
 40
7.0
 40
7.0
 40
7.0
 40
8.0
 40
8.0
 40
8.0
 40
9.0
 40
9.0
 40
9.0
 40
9.0
 10
188.9279952272772
 20
749.3039810709888
 10
188.9279952272772
 20
749.3039810709888
 10
188.9279952272772
 20
748.6559810873586
 10
188.9279952272772
 20
748.6559810873586
 10
188.9279952272772
 20
748.6559810873586
 10
185.0399953254964
 20
748.6559810873586
 10
185.0399953254964
 20
748.6559810873586
 10
185.1119953236775
 20
748.5119810909964
 10
185.2559953200398
 20
748.3679810946341
 10
185.399995316402
 20
748.0799811019096
 10
185.5439953127643
 20
747.8639811073662
 10
185.6879953091265
 20
747.6479811128228
 10
185.7599953073077
 20
747.4319811182795
 10
185.7599953073077
 20
747.4319811182795
 10
185.1839953218586
 20
747.4319811182795
 10
185.1839953218586
 20
747.4319811182795
 10
184.9679953273153
 20
747.7919811091851
 10
184.823995330953
 20
748.0799811019096
 10
184.5359953382285
 20
748.3679810946341
 10
184.3199953436851
 20
748.5839810891775
 10
184.1039953491417
 20
748.7999810837209
 10
183.8879953545984
 20
748.871981081902
 10
183.8879953545984
 20
748.871981081902
 10
183.8879953545984
 20
749.3039810709888
 10
183.8879953545984
 20
749.3039810709888
 10
183.8879953545984
 20
749.3039810709888
 10
188.9279952272772
 20
749.3039810709888
 10
188.9279952272772
 20
749.3039810709888
 97
        0
 97
        1
330
EE
 75
     2
 76
     1
 98
        1
 10
0.0
 20
0.0
450
        0
451
        0
460
0.0
461
0.0
452
        0
462
0.0
453
        0
470

  0
SPLINE
  5
F0
330
70
100
AcDbEntity
  8
capa1
100
AcDbSpline
210
0.0
220
0.0
230
1.0
 70
     9
 71
     3
 72
    44
 73
    40
 74
     0
 42
0.0000000001
 43
0.0000000001
 40
0.0
 40
0.0
 40
0.0
 40
0.0
 40
1.0
 40
1.0
 40
1.0
 40
2.0
 40
2.0
 40
2.0
 40
3.0
 40
3.0
 40
3.0
 40
4.0
 40
4.0
 40
4.0
 40
5.0
 40
5.0
 40
5.0
 40
6.0
 40
6.0
 40
6.0
 40
7.0
 40
7.0
 40
7.0
 40
8.0
 40
8.0
 40
8.0
 40
9.0
 40
9.0
 40
9.0
 40
10.0
 40
10.0
 40
10.0
 40
11.0
 40
11.0
 40
11.0
 40
12.0
 40
12.0
 40
12.0
 40
13.0
 40
13.0
 40
13.0
 40
13.0
 10
186.4799952891189
 20
750.8879810309736
 30
0.0
 10
185.8319953054888
 20
750.8879810309736
 30
0.0
 10
185.399995316402
 20
750.9599810291547
 30
0.0
 10
185.0399953254964
 20
751.0319810273358
 30
0.0
 10
184.6799953345908
 20
751.1759810236981
 30
0.0
 10
184.3919953418662
 20
751.3199810200603
 30
0.0
 10
184.1759953473229
 20
751.6079810127848
 30
0.0
 10
183.9599953527795
 20
751.8239810073282
 30
0.0
 10
183.8879953545984
 20
752.1119810000527
 30
0.0
 10
183.8879953545984
 20
752.4719809909584
 30
0.0
 10
183.8879953545984
 20
752.7599809836829
 30
0.0
 10
183.9599953527795
 20
752.9759809782262
 30
0.0
 10
184.0319953509606
 20
753.1919809727696
 30
0.0
 10
184.1759953473229
 20
753.407980967313
 30
0.0
 10
184.3199953436851
 20
753.5519809636753
 30
0.0
 10
184.5359953382285
 20
753.6959809600375
 30
0.0
 10
184.7519953327719
 20
753.8399809563998
 30
0.0
 10
184.9679953273153
 20
753.9119809545809
 30
0.0
 10
185.2559953200398
 20
754.0559809509431
 30
0.0
 10
185.5439953127643
 20
754.1279809491243
 30
0.0
 10
185.975995301851
 20
754.1279809491243
 30
0.0
 10
186.4799952891189
 20
754.1279809491243
 30
0.0
 10
186.4799952891189
 20
754.1279809491243
 30
0.0
 10
186.4799952891189
 20
753.4799809654941
 30
0.0
 10
186.4799952891189
 20
753.4799809654941
 30
0.0
 10
185.6159953109454
 20
753.4799809654941
 30
0.0
 10
185.1119953236775
 20
753.407980967313
 30
0.0
 10
184.823995330953
 20
753.1919809727696
 30
0.0
 10
184.5359953382285
 20
753.0479809764074
 30
0.0
 10
184.3919953418662
 20
752.7599809836829
 30
0.0
 10
184.3919953418662
 20
752.4719809909584
 30
0.0
 10
184.3919953418662
 20
752.1839809982338
 30
0.0
 10
184.5359953382285
 20
751.9679810036905
 30
0.0
 10
184.7519953327719
 20
751.8239810073282
 30
0.0
 10
185.0399953254964
 20
751.6079810127848
 30
0.0
 10
185.6159953109454
 20
751.4639810164226
 30
0.0
 10
186.4799952891189
 20
751.4639810164226
 30
0.0
 10
186.4799952891189
 20
751.4639810164226
 30
0.0
 10
186.4799952891189
 20
750.8879810309736
 30
0.0
 10
186.4799952891189
 20
750.8879810309736
 30
0.0
  0
SPLINE
  5
F1
330
70
100
AcDbEntity
  8
capa1
100
AcDbSpline
210
0.0
220
0.0
230
1.0
 70
     9
 71
     3
 72
    38
 73
    34
 74
     0
 42
0.0000000001
 43
0.0000000001
 40
0.0
 40
0.0
 40
0.0
 40
0.0
 40
1.0
 40
1.0
 40
1.0
 40
2.0
 40
2.0
 40
2.0
 40
3.0
 40
3.0
 40
3.0
 40
4.0
 40
4.0
 40
4.0
 40
5.0
 40
5.0
 40
5.0
 40
6.0
 40
6.0
 40
6.0
 40
7.0
 40
7.0
 40
7.0
 40
8.0
 40
8.0
 40
8.0
 40
9.0
 40
9.0
 40
9.0
 40
10.0
 40
10.0
 40
10.0
 40
11.0
 40
11.0
 40
11.0
 40
11.0
 10
186.4799952891189
 20
754.1279809491243
 30
0.0
 10
187.0559952745679
 20
754.1279809491243
 30
0.0
 10
187.4879952636547
 20
754.0559809509431
 30
0.0
 10
187.8479952545603
 20
753.983980952762
 30
0.0
 10
188.207995245466
 20
753.8399809563998
 30
0.0
 10
188.4959952381905
 20
753.6239809618564
 30
0.0
 10
188.7119952327339
 20
753.407980967313
 30
0.0
 10
188.9279952272772
 20
753.1919809727696
 30
0.0
 10
188.9999952254584
 20
752.9039809800451
 30
0.0
 10
188.9999952254584
 20
752.4719809909584
 30
0.0
 10
188.9999952254584
 20
752.0399810018716
 30
0.0
 10
188.8559952290961
 20
751.6079810127848
 30
0.0
 10
188.4959952381905
 20
751.3919810182414
 30
0.0
 10
188.0639952491037
 20
751.0319810273358
 30
0.0
 10
187.4159952654736
 20
750.8879810309736
 30
0.0
 10
186.4799952891189
 20
750.8879810309736
 30
0.0
 10
186.4799952891189
 20
750.8879810309736
 30
0.0
 10
186.4799952891189
 20
751.4639810164226
 30
0.0
 10
186.4799952891189
 20
751.4639810164226
 30
0.0
 10
187.2719952691113
 20
751.4639810164226
 30
0.0
 10
187.8479952545603
 20
751.6079810127848
 30
0.0
 10
188.0639952491037
 20
751.8239810073282
 30
0.0
 10
188.3519952418282
 20
751.9679810036905
 30
0.0
 10
188.4959952381905
 20
752.1839809982338
 30
0.0
 10
188.4959952381905
 20
752.4719809909584
 30
0.0
 10
188.4959952381905
 20
752.7599809836829
 30
0.0
 10
188.3519952418282
 20
753.0479809764074
 30
0.0
 10
188.0639952491037
 20
753.1919809727696
 30
0.0
 10
187.8479952545603
 20
753.407980967313
 30
0.0
 10
187.2719952691113
 20
753.4799809654941
 30
0.0
 10
186.4799952891189
 20
753.4799809654941
 30
0.0
 10
186.4799952891189
 20
753.4799809654941
 30
0.0
 10
186.4799952891189
 20
754.1279809491243
 30
0.0
 10
186.4799952891189
 20
754.1279809491243
 30
0.0
  0
HATCH
  5
F2
330
70
100
AcDbEntity
  8
capa1
 62
   250
420
  1907995
440
 33554687
100
AcDbHatch
 10
0.0
 20
0.0
 30
0.0
210
0.0
220
0.0
230
1.0
  2
SOLID
 70
     1
 71
     1
 91
        2
 92
        1
 93
        1
 72
     4
 94
        3
 73
     0
 74
     0
 95
       44
 96
       40
 40
0.0
 40
0.0
 40
0.0
 40
0.0
 40
1.0
 40
1.0
 40
1.0
 40
2.0
 40
2.0
 40
2.0
 40
3.0
 40
3.0
 40
3.0
 40
4.0
 40
4.0
 40
4.0
 40
5.0
 40
5.0
 40
5.0
 40
6.0
 40
6.0
 40
6.0
 40
7.0
 40
7.0
 40
7.0
 40
8.0
 40
8.0
 40
8.0
 40
9.0
 40
9.0
 40
9.0
 40
10.0
 40
10.0
 40
10.0
 40
11.0
 40
11.0
 40
11.0
 40
12.0
 40
12.0
 40
12.0
 40
13.0
 40
13.0
 40
13.0
 40
13.0
 10
186.4799952891189
 20
750.8879810309736
 10
185.8319953054888
 20
750.8879810309736
 10
185.399995316402
 20
750.9599810291547
 10
185.0399953254964
 20
751.0319810273358
 10
184.6799953345908
 20
751.1759810236981
 10
184.3919953418662
 20
751.3199810200603
 10
184.1759953473229
 20
751.6079810127848
 10
183.9599953527795
 20
751.8239810073282
 10
183.8879953545984
 20
752.1119810000527
 10
183.8879953545984
 20
752.4719809909584
 10
183.8879953545984
 20
752.7599809836829
 10
183.9599953527795
 20
752.9759809782262
 10
184.0319953509606
 20
753.1919809727696
 10
184.1759953473229
 20
753.407980967313
 10
184.3199953436851
 20
753.5519809636753
 10
184.5359953382285
 20
753.6959809600375
 10
184.7519953327719
 20
753.8399809563998
 10
184.9679953273153
 20
753.9119809545809
 10
185.2559953200398
 20
754.0559809509431
 10
185.5439953127643
 20
754.1279809491243
 10
185.975995301851
 20
754.1279809491243
 10
186.4799952891189
 20
754.1279809491243
 10
186.4799952891189
 20
754.1279809491243
 10
186.4799952891189
 20
753.4799809654941
 10
186.4799952891189
 20
753.4799809654941
 10
185.6159953109454
 20
753.4799809654941
 10
185.1119953236775
 20
753.407980967313
 10
184.823995330953
 20
753.1919809727696
 10
184.5359953382285
 20
753.0479809764074
 10
184.3919953418662
 20
752.7599809836829
 10
184.3919953418662
 20
752.4719809909584
 10
184.3919953418662
 20
752.1839809982338
 10
184.5359953382285
 20
751.9679810036905
 10
184.7519953327719
 20
751.8239810073282
 10
185.0399953254964
 20
751.6079810127848
 10
185.6159953109454
 20
751.4639810164226
 10
186.4799952891189
 20
751.4639810164226
 10
186.4799952891189
 20
751.4639810164226
 10
186.4799952891189
 20
750.8879810309736
 10
186.4799952891189
 20
750.8879810309736
 97
        0
 97
        1
330
F0
 92
        1
 93
        1
 72
     4
 94
        3
 73
     0
 74
     0
 95
       38
 96
       34
 40
0.0
 40
0.0
 40
0.0
 40
0.0
 40
1.0
 40
1.0
 40
1.0
 40
2.0
 40
2.0
 40
2.0
 40
3.0
 40
3.0
 40
3.0
 40
4.0
 40
4.0
 40
4.0
 40
5.0
 40
5.0
 40
5.0
 40
6.0
 40
6.0
 40
6.0
 40
7.0
 40
7.0
 40
7.0
 40
8.0
 40
8.0
 40
8.0
 40
9.0
 40
9.0
 40
9.0
 40
10.0
 40
10.0
 40
10.0
 40
11.0
 40
11.0
 40
11.0
 40
11.0
 10
186.4799952891189
 20
754.1279809491243
 10
187.0559952745679
 20
754.1279809491243
 10
187.4879952636547
 20
754.0559809509431
 10
187.8479952545603
 20
753.983980952762
 10
188.207995245466
 20
753.8399809563998
 10
188.4959952381905
 20
753.6239809618564
 10
188.7119952327339
 20
753.407980967313
 10
188.9279952272772
 20
753.1919809727696
 10
188.9999952254584
 20
752.9039809800451
 10
188.9999952254584
 20
752.4719809909584
 10
188.9999952254584
 20
752.0399810018716
 10
188.8559952290961
 20
751.6079810127848
 10
188.4959952381905
 20
751.3919810182414
 10
188.0639952491037
 20
751.0319810273358
 10
187.4159952654736
 20
750.8879810309736
 10
186.4799952891189
 20
750.8879810309736
 10
186.4799952891189
 20
750.8879810309736
 10
186.4799952891189
 20
751.4639810164226
 10
186.4799952891189
 20
751.4639810164226
 10
187.2719952691113
 20
751.4639810164226
 10
187.8479952545603
 20
751.6079810127848
 10
188.0639952491037
 20
751.8239810073282
 10
188.3519952418282
 20
751.9679810036905
 10
188.4959952381905
 20
752.1839809982338
 10
188.4959952381905
 20
752.4719809909584
 10
188.4959952381905
 20
752.7599809836829
 10
188.3519952418282
 20
753.0479809764074
 10
188.0639952491037
 20
753.1919809727696
 10
187.8479952545603
 20
753.407980967313
 10
187.2719952691113
 20
753.4799809654941
 10
186.4799952891189
 20
753.4799809654941
 10
186.4799952891189
 20
753.4799809654941
 10
186.4799952891189
 20
754.1279809491243
 10
186.4799952891189
 20
754.1279809491243
 97
        0
 97
        1
330
F1
 75
     2
 76
     1
 98
        1
 10
0.0
 20
0.0
450
        0
451
        0
460
0.0
461
0.0
452
        0
462
0.0
453
        0
470

  0
SPLINE
  5
F3
330
70
100
AcDbEntity
  8
capa1
100
AcDbSpline
210
0.0
220
0.0
230
1.0
 70
    11
 71
     3
 72
    38
 73
    34
 74
     0
 42
0.0000000001
 43
0.0000000001
 40
0.0
 40
0.0
 40
0.0
 40
0.0
 40
1.0
 40
1.0
 40
1.0
 40
2.0
 40
2.0
 40
2.0
 40
3.0
 40
3.0
 40
3.0
 40
4.0
 40
4.0
 40
4.0
 40
5.0
 40
5.0
 40
5.0
 40
6.0
 40
6.0
 40
6.0
 40
7.0
 40
7.0
 40
7.0
 40
8.0
 40
8.0
 40
8.0
 40
9.0
 40
9.0
 40
9.0
 40
10.0
 40
10.0
 40
10.0
 40
11.0
 40
11.0
 40
11.0
 40
11.0
 10
185.0399953254964
 20
655.1279834500746
 30
0.0
 10
185.0399953254964
 20
655.1279834500746
 30
0.0
 10
184.3919953418662
 20
655.1279834500746
 30
0.0
 10
184.3919953418662
 20
655.1279834500746
 30
0.0
 10
184.3919953418662
 20
655.1279834500746
 30
0.0
 10
184.3919953418662
 20
658.3679833682253
 30
0.0
 10
184.3919953418662
 20
658.3679833682253
 30
0.0
 10
184.3919953418662
 20
658.3679833682253
 30
0.0
 10
184.8959953291341
 20
658.3679833682253
 30
0.0
 10
184.8959953291341
 20
658.3679833682253
 30
0.0
 10
185.2559953200398
 20
658.0799833755008
 30
0.0
 10
185.6879953091265
 20
657.7199833845952
 30
0.0
 10
186.2639952945755
 20
657.4319833918707
 30
0.0
 10
186.8399952800246
 20
657.1439833991462
 30
0.0
 10
187.4159952654736
 20
656.8559834064217
 30
0.0
 10
187.9919952509226
 20
656.7119834100594
 30
0.0
 10
188.4239952400094
 20
656.5679834136972
 30
0.0
 10
188.8559952290961
 20
656.495983415516
 30
0.0
 10
189.359995216364
 20
656.4239834173349
 30
0.0
 10
189.359995216364
 20
656.4239834173349
 30
0.0
 10
189.359995216364
 20
655.8479834318859
 30
0.0
 10
189.359995216364
 20
655.8479834318859
 30
0.0
 10
188.9999952254584
 20
655.8479834318859
 30
0.0
 10
188.4959952381905
 20
655.919983430067
 30
0.0
 10
187.9199952527415
 20
656.0639834264293
 30
0.0
 10
187.4159952654736
 20
656.2079834227915
 30
0.0
 10
186.8399952800246
 20
656.4239834173349
 30
0.0
 10
186.3359952927567
 20
656.7119834100594
 30
0.0
 10
185.8319953054888
 20
656.9999834027839
 30
0.0
 10
185.399995316402
 20
657.2879833955084
 30
0.0
 10
185.0399953254964
 20
657.5759833882329
 30
0.0
 10
185.0399953254964
 20
657.5759833882329
 30
0.0
 10
185.0399953254964
 20
655.1279834500746
 30
0.0
 10
185.0399953254964
 20
655.1279834500746
 30
0.0
  0
HATCH
  5
F4
330
70
100
AcDbEntity
  8
capa1
 62
   250
420
  1907995
440
 33554687
100
AcDbHatch
 10
0.0
 20
0.0
 30
0.0
210
0.0
220
0.0
230
1.0
  2
SOLID
 70
     1
 71
     1
 91
        1
 92
        1
 93
        1
 72
     4
 94
        3
 73
     0
 74
     0
 95
       38
 96
       34
 40
0.0
 40
0.0
 40
0.0
 40
0.0
 40
1.0
 40
1.0
 40
1.0
 40
2.0
 40
2.0
 40
2.0
 40
3.0
 40
3.0
 40
3.0
 40
4.0
 40
4.0
 40
4.0
 40
5.0
 40
5.0
 40
5.0
 40
6.0
 40
6.0
 40
6.0
 40
7.0
 40
7.0
 40
7.0
 40
8.0
 40
8.0
 40
8.0
 40
9.0
 40
9.0
 40
9.0
 40
10.0
 40
10.0
 40
10.0
 40
11.0
 40
11.0
 40
11.0
 40
11.0
 10
185.0399953254964
 20
655.1279834500746
 10
185.0399953254964
 20
655.1279834500746
 10
184.3919953418662
 20
655.1279834500746
 10
184.3919953418662
 20
655.1279834500746
 10
184.3919953418662
 20
655.1279834500746
 10
184.3919953418662
 20
658.3679833682253
 10
184.3919953418662
 20
658.3679833682253
 10
184.3919953418662
 20
658.3679833682253
 10
184.8959953291341
 20
658.3679833682253
 10
184.8959953291341
 20
658.3679833682253
 10
185.2559953200398
 20
658.0799833755008
 10
185.6879953091265
 20
657.7199833845952
 10
186.2639952945755
 20
657.4319833918707
 10
186.8399952800246
 20
657.1439833991462
 10
187.4159952654736
 20
656.8559834064217
 10
187.9919952509226
 20
656.7119834100594
 10
188.4239952400094
 20
656.5679834136972
 10
188.8559952290961
 20
656.495983415516
 10
189.359995216364
 20
656.4239834173349
 10
189.359995216364
 20
656.4239834173349
 10
189.359995216364
 20
655.8479834318859
 10
189.359995216364
 20
655.8479834318859
 10
188.9999952254584
 20
655.8479834318859
 10
188.4959952381905
 20
655.919983430067
 10
187.9199952527415
 20
656.0639834264293
 10
187.4159952654736
 20
656.2079834227915
 10
186.8399952800246
 20
656.4239834173349
 10
186.3359952927567
 20
656.7119834100594
 10
185.8319953054888
 20
656.9999834027839
 10
185.399995316402
 20
657.2879833955084
 10
185.0399953254964
 20
657.5759833882329
 10
185.0399953254964
 20
657.5759833882329
 10
185.0399953254964
 20
655.1279834500746
 10
185.0399953254964
 20
655.1279834500746
 97
        0
 97
        1
330
F3
 75
     2
 76
     1
 98
        1
 10
0.0
 20
0.0
450
        0
451
        0
460
0.0
461
0.0
452
        0
462
0.0
453
        0
470

  0
SPLINE
  5
F5
330
70
100
AcDbEntity
  8
capa1
100
AcDbSpline
210
0.0
220
0.0
230
1.0
 70
    11
 71
     3
 72
    71
 73
    67
 74
     0
 42
0.0000000001
 43
0.0000000001
 40
0.0
 40
0.0
 40
0.0
 40
0.0
 40
1.0
 40
1.0
 40
1.0
 40
2.0
 40
2.0
 40
2.0
 40
3.0
 40
3.0
 40
3.0
 40
4.0
 40
4.0
 40
4.0
 40
5.0
 40
5.0
 40
5.0
 40
6.0
 40
6.0
 40
6.0
 40
7.0
 40
7.0
 40
7.0
 40
8.0
 40
8.0
 40
8.0
 40
9.0
 40
9.0
 40
9.0
 40
10.0
 40
10.0
 40
10.0
 40
11.0
 40
11.0
 40
11.0
 40
12.0
 40
12.0
 40
12.0
 40
13.0
 40
13.0
 40
13.0
 40
14.0
 40
14.0
 40
14.0
 40
15.0
 40
15.0
 40
15.0
 40
16.0
 40
16.0
 40
16.0
 40
17.0
 40
17.0
 40
17.0
 40
18.0
 40
18.0
 40
18.0
 40
19.0
 40
19.0
 40
19.0
 40
20.0
 40
20.0
 40
20.0
 40
21.0
 40
21.0
 40
21.0
 40
22.0
 40
22.0
 40
22.0
 40
22.0
 10
188.783995230915
 20
662.1839832718251
 30
0.0
 10
188.783995230915
 20
662.1839832718251
 30
0.0
 10
189.359995216364
 20
662.1839832718251
 30
0.0
 10
189.359995216364
 20
662.1839832718251
 30
0.0
 10
189.359995216364
 20
662.1839832718251
 30
0.0
 10
189.359995216364
 20
658.8719833554932
 30
0.0
 10
189.359995216364
 20
658.8719833554932
 30
0.0
 10
189.2159952200018
 20
658.8719833554932
 30
0.0
 10
189.0719952236395
 20
658.9439833536744
 30
0.0
 10
188.9279952272772
 20
658.9439833536744
 30
0.0
 10
188.7119952327339
 20
659.0879833500366
 30
0.0
 10
188.4959952381905
 20
659.1599833482177
 30
0.0
 10
188.2799952436471
 20
659.3759833427611
 30
0.0
 10
188.0639952491037
 20
659.5919833373045
 30
0.0
 10
187.7759952563792
 20
659.8079833318479
 30
0.0
 10
187.4879952636547
 20
660.1679833227535
 30
0.0
 10
187.0559952745679
 20
660.7439833082025
 30
0.0
 10
186.6959952836623
 20
661.1039832991082
 30
0.0
 10
186.4799952891189
 20
661.3199832936516
 30
0.0
 10
186.1919952963944
 20
661.4639832900138
 30
0.0
 10
185.975995301851
 20
661.6079832863761
 30
0.0
 10
185.6879953091265
 20
661.6079832863761
 30
0.0
 10
185.4719953145832
 20
661.6079832863761
 30
0.0
 10
185.2559953200398
 20
661.4639832900138
 30
0.0
 10
185.1119953236775
 20
661.3199832936516
 30
0.0
 10
184.9679953273153
 20
661.1039832991082
 30
0.0
 10
184.823995330953
 20
660.8879833045648
 30
0.0
 10
184.823995330953
 20
660.5999833118403
 30
0.0
 10
184.823995330953
 20
660.3119833191158
 30
0.0
 10
184.9679953273153
 20
660.0959833245724
 30
0.0
 10
185.1119953236775
 20
659.9519833282101
 30
0.0
 10
185.3279953182209
 20
659.7359833336668
 30
0.0
 10
185.5439953127643
 20
659.6639833354856
 30
0.0
 10
185.8319953054888
 20
659.6639833354856
 30
0.0
 10
185.8319953054888
 20
659.6639833354856
 30
0.0
 10
185.7599953073077
 20
659.0159833518555
 30
0.0
 10
185.7599953073077
 20
659.0159833518555
 30
0.0
 10
185.3279953182209
 20
659.0879833500366
 30
0.0
 10
184.9679953273153
 20
659.2319833463989
 30
0.0
 10
184.6799953345908
 20
659.5199833391234
 30
0.0
 10
184.4639953400474
 20
659.8079833318479
 30
0.0
 10
184.3199953436851
 20
660.1679833227535
 30
0.0
 10
184.3199953436851
 20
660.6719833100214
 30
0.0
 10
184.3199953436851
 20
661.1039832991082
 30
0.0
 10
184.4639953400474
 20
661.5359832881949
 30
0.0
 10
184.7519953327719
 20
661.7519832827383
 30
0.0
 10
185.0399953254964
 20
662.0399832754628
 30
0.0
 10
185.3279953182209
 20
662.1839832718251
 30
0.0
 10
185.7599953073077
 20
662.1839832718251
 30
0.0
 10
185.9039953036699
 20
662.1839832718251
 30
0.0
 10
186.1199952982133
 20
662.1839832718251
 30
0.0
 10
186.3359952927567
 20
662.111983273644
 30
0.0
 10
186.5519952873001
 20
661.9679832772817
 30
0.0
 10
186.6959952836623
 20
661.8959832791006
 30
0.0
 10
186.9119952782057
 20
661.6799832845572
 30
0.0
 10
187.1279952727491
 20
661.4639832900138
 30
0.0
 10
187.4159952654736
 20
661.1759832972893
 30
0.0
 10
187.8479952545603
 20
660.7439833082025
 30
0.0
 10
188.1359952472848
 20
660.3839833172969
 30
0.0
 10
188.3519952418282
 20
660.0959833245724
 30
0.0
 10
188.4239952400094
 20
660.0239833263913
 30
0.0
 10
188.5679952363716
 20
659.879983330029
 30
0.0
 10
188.6399952345527
 20
659.8079833318479
 30
0.0
 10
188.783995230915
 20
659.7359833336668
 30
0.0
 10
188.783995230915
 20
659.7359833336668
 30
0.0
 10
188.783995230915
 20
662.1839832718251
 30
0.0
 10
188.783995230915
 20
662.1839832718251
 30
0.0
  0
HATCH
  5
F6
330
70
100
AcDbEntity
  8
capa1
 62
   250
420
  1907995
440
 33554687
100
AcDbHatch
 10
0.0
 20
0.0
 30
0.0
210
0.0
220
0.0
230
1.0
  2
SOLID
 70
     1
 71
     1
 91
        1
 92
        1
 93
        1
 72
     4
 94
        3
 73
     0
 74
     0
 95
       71
 96
       67
 40
0.0
 40
0.0
 40
0.0
 40
0.0
 40
1.0
 40
1.0
 40
1.0
 40
2.0
 40
2.0
 40
2.0
 40
3.0
 40
3.0
 40
3.0
 40
4.0
 40
4.0
 40
4.0
 40
5.0
 40
5.0
 40
5.0
 40
6.0
 40
6.0
 40
6.0
 40
7.0
 40
7.0
 40
7.0
 40
8.0
 40
8.0
 40
8.0
 40
9.0
 40
9.0
 40
9.0
 40
10.0
 40
10.0
 40
10.0
 40
11.0
 40
11.0
 40
11.0
 40
12.0
 40
12.0
 40
12.0
 40
13.0
 40
13.0
 40
13.0
 40
14.0
 40
14.0
 40
14.0
 40
15.0
 40
15.0
 40
15.0
 40
16.0
 40
16.0
 40
16.0
 40
17.0
 40
17.0
 40
17.0
 40
18.0
 40
18.0
 40
18.0
 40
19.0
 40
19.0
 40
19.0
 40
20.0
 40
20.0
 40
20.0
 40
21.0
 40
21.0
 40
21.0
 40
22.0
 40
22.0
 40
22.0
 40
22.0
 10
188.783995230915
 20
662.1839832718251
 10
188.783995230915
 20
662.1839832718251
 10
189.359995216364
 20
662.1839832718251
 10
189.359995216364
 20
662.1839832718251
 10
189.359995216364
 20
662.1839832718251
 10
189.359995216364
 20
658.8719833554932
 10
189.359995216364
 20
658.8719833554932
 10
189.2159952200018
 20
658.8719833554932
 10
189.0719952236395
 20
658.9439833536744
 10
188.9279952272772
 20
658.9439833536744
 10
188.7119952327339
 20
659.0879833500366
 10
188.4959952381905
 20
659.1599833482177
 10
188.2799952436471
 20
659.3759833427611
 10
188.0639952491037
 20
659.5919833373045
 10
187.7759952563792
 20
659.8079833318479
 10
187.4879952636547
 20
660.1679833227535
 10
187.0559952745679
 20
660.7439833082025
 10
186.6959952836623
 20
661.1039832991082
 10
186.4799952891189
 20
661.3199832936516
 10
186.1919952963944
 20
661.4639832900138
 10
185.975995301851
 20
661.6079832863761
 10
185.6879953091265
 20
661.6079832863761
 10
185.4719953145832
 20
661.6079832863761
 10
185.2559953200398
 20
661.4639832900138
 10
185.1119953236775
 20
661.3199832936516
 10
184.9679953273153
 20
661.1039832991082
 10
184.823995330953
 20
660.8879833045648
 10
184.823995330953
 20
660.5999833118403
 10
184.823995330953
 20
660.3119833191158
 10
184.9679953273153
 20
660.0959833245724
 10
185.1119953236775
 20
659.9519833282101
 10
185.3279953182209
 20
659.7359833336668
 10
185.5439953127643
 20
659.6639833354856
 10
185.8319953054888
 20
659.6639833354856
 10
185.8319953054888
 20
659.6639833354856
 10
185.7599953073077
 20
659.0159833518555
 10
185.7599953073077
 20
659.0159833518555
 10
185.3279953182209
 20
659.0879833500366
 10
184.9679953273153
 20
659.2319833463989
 10
184.6799953345908
 20
659.5199833391234
 10
184.4639953400474
 20
659.8079833318479
 10
184.3199953436851
 20
660.1679833227535
 10
184.3199953436851
 20
660.6719833100214
 10
184.3199953436851
 20
661.1039832991082
 10
184.4639953400474
 20
661.5359832881949
 10
184.7519953327719
 20
661.7519832827383
 10
185.0399953254964
 20
662.0399832754628
 10
185.3279953182209
 20
662.1839832718251
 10
185.7599953073077
 20
662.1839832718251
 10
185.9039953036699
 20
662.1839832718251
 10
186.1199952982133
 20
662.1839832718251
 10
186.3359952927567
 20
662.111983273644
 10
186.5519952873001
 20
661.9679832772817
 10
186.6959952836623
 20
661.8959832791006
 10
186.9119952782057
 20
661.6799832845572
 10
187.1279952727491
 20
661.4639832900138
 10
187.4159952654736
 20
661.1759832972893
 10
187.8479952545603
 20
660.7439833082025
 10
188.1359952472848
 20
660.3839833172969
 10
188.3519952418282
 20
660.0959833245724
 10
188.4239952400094
 20
660.0239833263913
 10
188.5679952363716
 20
659.879983330029
 10
188.6399952345527
 20
659.8079833318479
 10
188.783995230915
 20
659.7359833336668
 10
188.783995230915
 20
659.7359833336668
 10
188.783995230915
 20
662.1839832718251
 10
188.783995230915
 20
662.1839832718251
 97
        0
 97
        1
330
F5
 75
     2
 76
     1
 98
        1
 10
0.0
 20
0.0
450
        0
451
        0
460
0.0
461
0.0
452
        0
462
0.0
453
        0
470

  0
SPLINE
  5
F7
330
70
100
AcDbEntity
  8
capa1
100
AcDbSpline
210
0.0
220
0.0
230
1.0
 70
    11
 71
     3
 72
    32
 73
    28
 74
     0
 42
0.0000000001
 43
0.0000000001
 40
0.0
 40
0.0
 40
0.0
 40
0.0
 40
1.0
 40
1.0
 40
1.0
 40
2.0
 40
2.0
 40
2.0
 40
3.0
 40
3.0
 40
3.0
 40
4.0
 40
4.0
 40
4.0
 40
5.0
 40
5.0
 40
5.0
 40
6.0
 40
6.0
 40
6.0
 40
7.0
 40
7.0
 40
7.0
 40
8.0
 40
8.0
 40
8.0
 40
9.0
 40
9.0
 40
9.0
 40
9.0
 10
189.359995216364
 20
663.1919832463609
 30
0.0
 10
189.359995216364
 20
663.1919832463609
 30
0.0
 10
188.6399952345527
 20
663.1919832463609
 30
0.0
 10
188.6399952345527
 20
663.1919832463609
 30
0.0
 10
188.6399952345527
 20
663.1919832463609
 30
0.0
 10
188.6399952345527
 20
663.9119832281721
 30
0.0
 10
188.6399952345527
 20
663.9119832281721
 30
0.0
 10
188.6399952345527
 20
663.9119832281721
 30
0.0
 10
189.359995216364
 20
663.9119832281721
 30
0.0
 10
189.359995216364
 20
663.9119832281721
 30
0.0
 10
189.6479952090885
 20
663.9119832281721
 30
0.0
 10
189.8639952036319
 20
663.839983229991
 30
0.0
 10
190.0079951999942
 20
663.7679832318099
 30
0.0
 10
190.1519951963564
 20
663.6959832336287
 30
0.0
 10
190.2959951927187
 20
663.5519832372665
 30
0.0
 10
190.3679951908998
 20
663.3359832427231
 30
0.0
 10
190.3679951908998
 20
663.3359832427231
 30
0.0
 10
190.0799951981753
 20
663.1919832463609
 30
0.0
 10
190.0799951981753
 20
663.1919832463609
 30
0.0
 10
190.0079951999942
 20
663.263983244542
 30
0.0
 10
189.935995201813
 20
663.4079832409042
 30
0.0
 10
189.8639952036319
 20
663.4799832390854
 30
0.0
 10
189.7199952072696
 20
663.4799832390854
 30
0.0
 10
189.5759952109074
 20
663.5519832372665
 30
0.0
 10
189.359995216364
 20
663.5519832372665
 30
0.0
 10
189.359995216364
 20
663.5519832372665
 30
0.0
 10
189.359995216364
 20
663.1919832463609
 30
0.0
 10
189.359995216364
 20
663.1919832463609
 30
0.0
  0
HATCH
  5
F8
330
70
100
AcDbEntity
  8
capa1
 62
   250
420
  1907995
440
 33554687
100
AcDbHatch
 10
0.0
 20
0.0
 30
0.0
210
0.0
220
0.0
230
1.0
  2
SOLID
 70
     1
 71
     1
 91
        1
 92
        1
 93
        1
 72
     4
 94
        3
 73
     0
 74
     0
 95
       32
 96
       28
 40
0.0
 40
0.0
 40
0.0
 40
0.0
 40
1.0
 40
1.0
 40
1.0
 40
2.0
 40
2.0
 40
2.0
 40
3.0
 40
3.0
 40
3.0
 40
4.0
 40
4.0
 40
4.0
 40
5.0
 40
5.0
 40
5.0
 40
6.0
 40
6.0
 40
6.0
 40
7.0
 40
7.0
 40
7.0
 40
8.0
 40
8.0
 40
8.0
 40
9.0
 40
9.0
 40
9.0
 40
9.0
 10
189.359995216364
 20
663.1919832463609
 10
189.359995216364
 20
663.1919832463609
 10
188.6399952345527
 20
663.1919832463609
 10
188.6399952345527
 20
663.1919832463609
 10
188.6399952345527
 20
663.1919832463609
 10
188.6399952345527
 20
663.9119832281721
 10
188.6399952345527
 20
663.9119832281721
 10
188.6399952345527
 20
663.9119832281721
 10
189.359995216364
 20
663.9119832281721
 10
189.359995216364
 20
663.9119832281721
 10
189.6479952090885
 20
663.9119832281721
 10
189.8639952036319
 20
663.839983229991
 10
190.0079951999942
 20
663.7679832318099
 10
190.1519951963564
 20
663.6959832336287
 10
190.2959951927187
 20
663.5519832372665
 10
190.3679951908998
 20
663.3359832427231
 10
190.3679951908998
 20
663.3359832427231
 10
190.0799951981753
 20
663.1919832463609
 10
190.0799951981753
 20
663.1919832463609
 10
190.0079951999942
 20
663.263983244542
 10
189.935995201813
 20
663.4079832409042
 10
189.8639952036319
 20
663.4799832390854
 10
189.7199952072696
 20
663.4799832390854
 10
189.5759952109074
 20
663.5519832372665
 10
189.359995216364
 20
663.5519832372665
 10
189.359995216364
 20
663.5519832372665
 10
189.359995216364
 20
663.1919832463609
 10
189.359995216364
 20
663.1919832463609
 97
        0
 97
        1
330
F7
 75
     2
 76
     1
 98
        1
 10
0.0
 20
0.0
450
        0
451
        0
460
0.0
461
0.0
452
        0
462
0.0
453
        0
470

  0
SPLINE
  5
F9
330
70
100
AcDbEntity
  8
capa1
100
AcDbSpline
210
0.0
220
0.0
230
1.0
 70
     9
 71
     3
 72
    71
 73
    67
 74
     0
 42
0.0000000001
 43
0.0000000001
 40
0.0
 40
0.0
 40
0.0
 40
0.0
 40
1.0
 40
1.0
 40
1.0
 40
2.0
 40
2.0
 40
2.0
 40
3.0
 40
3.0
 40
3.0
 40
4.0
 40
4.0
 40
4.0
 40
5.0
 40
5.0
 40
5.0
 40
6.0
 40
6.0
 40
6.0
 40
7.0
 40
7.0
 40
7.0
 40
8.0
 40
8.0
 40
8.0
 40
9.0
 40
9.0
 40
9.0
 40
10.0
 40
10.0
 40
10.0
 40
11.0
 40
11.0
 40
11.0
 40
12.0
 40
12.0
 40
12.0
 40
13.0
 40
13.0
 40
13.0
 40
14.0
 40
14.0
 40
14.0
 40
15.0
 40
15.0
 40
15.0
 40
16.0
 40
16.0
 40
16.0
 40
17.0
 40
17.0
 40
17.0
 40
18.0
 40
18.0
 40
18.0
 40
19.0
 40
19.0
 40
19.0
 40
20.0
 40
20.0
 40
20.0
 40
21.0
 40
21.0
 40
21.0
 40
22.0
 40
22.0
 40
22.0
 40
22.0
 10
188.0639952491037
 20
664.8479832045268
 30
0.0
 10
188.0639952491037
 20
664.8479832045268
 30
0.0
 10
187.9919952509226
 20
665.4959831881569
 30
0.0
 10
187.9919952509226
 20
665.4959831881569
 30
0.0
 10
188.3519952418282
 20
665.4959831881569
 30
0.0
 10
188.5679952363716
 20
665.6399831845192
 30
0.0
 10
188.7119952327339
 20
665.7839831808814
 30
0.0
 10
188.8559952290961
 20
665.9999831754248
 30
0.0
 10
188.9279952272772
 20
666.2159831699682
 30
0.0
 10
188.9279952272772
 20
666.4319831645116
 30
0.0
 10
188.9279952272772
 20
666.7199831572361
 30
0.0
 10
188.8559952290961
 20
667.0079831499606
 30
0.0
 10
188.6399952345527
 20
667.1519831463228
 30
0.0
 10
188.4239952400094
 20
667.3679831408662
 30
0.0
 10
188.0639952491037
 20
667.5119831372285
 30
0.0
 10
187.7039952581981
 20
667.5119831372285
 30
0.0
 10
187.3439952672925
 20
667.5119831372285
 30
0.0
 10
187.1279952727491
 20
667.3679831408662
 30
0.0
 10
186.9119952782057
 20
667.223983144504
 30
0.0
 10
186.6959952836623
 20
667.0079831499606
 30
0.0
 10
186.6239952854812
 20
666.7199831572361
 30
0.0
 10
186.6239952854812
 20
666.4319831645116
 30
0.0
 10
186.6239952854812
 20
666.2159831699682
 30
0.0
 10
186.6239952854812
 20
666.0719831736059
 30
0.0
 10
186.6959952836623
 20
665.8559831790626
 30
0.0
 10
186.8399952800246
 20
665.7119831827003
 30
0.0
 10
186.9119952782057
 20
665.567983186338
 30
0.0
 10
187.0559952745679
 20
665.4959831881569
 30
0.0
 10
187.0559952745679
 20
665.4959831881569
 30
0.0
 10
186.9839952763868
 20
664.9199832027079
 30
0.0
 10
186.9839952763868
 20
664.9199832027079
 30
0.0
 10
186.9839952763868
 20
664.9199832027079
 30
0.0
 10
184.4639953400474
 20
665.4239831899758
 30
0.0
 10
184.4639953400474
 20
665.4239831899758
 30
0.0
 10
184.4639953400474
 20
665.4239831899758
 30
0.0
 10
184.4639953400474
 20
667.8719831281341
 30
0.0
 10
184.4639953400474
 20
667.8719831281341
 30
0.0
 10
184.4639953400474
 20
667.8719831281341
 30
0.0
 10
185.0399953254964
 20
667.8719831281341
 30
0.0
 10
185.0399953254964
 20
667.8719831281341
 30
0.0
 10
185.0399953254964
 20
667.8719831281341
 30
0.0
 10
185.0399953254964
 20
665.9279831772437
 30
0.0
 10
185.0399953254964
 20
665.9279831772437
 30
0.0
 10
185.0399953254964
 20
665.9279831772437
 30
0.0
 10
186.3359952927567
 20
665.6399831845192
 30
0.0
 10
186.3359952927567
 20
665.6399831845192
 30
0.0
 10
186.1199952982133
 20
665.9279831772437
 30
0.0
 10
186.0479953000322
 20
666.2159831699682
 30
0.0
 10
186.0479953000322
 20
666.5759831608738
 30
0.0
 10
186.0479953000322
 20
667.0079831499606
 30
0.0
 10
186.1919952963944
 20
667.3679831408662
 30
0.0
 10
186.4799952891189
 20
667.6559831335907
 30
0.0
 10
186.8399952800246
 20
668.0159831244964
 30
0.0
 10
187.1999952709302
 20
668.1599831208586
 30
0.0
 10
187.7039952581981
 20
668.1599831208586
 30
0.0
 10
188.1359952472848
 20
668.1599831208586
 30
0.0
 10
188.4959952381905
 20
668.0159831244964
 30
0.0
 10
188.8559952290961
 20
667.7279831317719
 30
0.0
 10
189.2879952181829
 20
667.4399831390473
 30
0.0
 10
189.4319952145451
 20
667.0079831499606
 30
0.0
 10
189.4319952145451
 20
666.4319831645116
 30
0.0
 10
189.4319952145451
 20
665.9999831754248
 30
0.0
 10
189.359995216364
 20
665.567983186338
 30
0.0
 10
189.0719952236395
 20
665.2799831936135
 30
0.0
 10
188.783995230915
 20
664.991983200889
 30
0.0
 10
188.4959952381905
 20
664.8479832045268
 30
0.0
 10
188.0639952491037
 20
664.8479832045268
 30
0.0
  0
HATCH
  5
FA
330
70
100
AcDbEntity
  8
capa1
 62
   250
420
  1907995
440
 33554687
100
AcDbHatch
 10
0.0
 20
0.0
 30
0.0
210
0.0
220
0.0
230
1.0
  2
SOLID
 70
     1
 71
     1
 91
        1
 92
        1
 93
        1
 72
     4
 94
        3
 73
     0
 74
     0
 95
       71
 96
       67
 40
0.0
 40
0.0
 40
0.0
 40
0.0
 40
1.0
 40
1.0
 40
1.0
 40
2.0
 40
2.0
 40
2.0
 40
3.0
 40
3.0
 40
3.0
 40
4.0
 40
4.0
 40
4.0
 40
5.0
 40
5.0
 40
5.0
 40
6.0
 40
6.0
 40
6.0
 40
7.0
 40
7.0
 40
7.0
 40
8.0
 40
8.0
 40
8.0
 40
9.0
 40
9.0
 40
9.0
 40
10.0
 40
10.0
 40
10.0
 40
11.0
 40
11.0
 40
11.0
 40
12.0
 40
12.0
 40
12.0
 40
13.0
 40
13.0
 40
13.0
 40
14.0
 40
14.0
 40
14.0
 40
15.0
 40
15.0
 40
15.0
 40
16.0
 40
16.0
 40
16.0
 40
17.0
 40
17.0
 40
17.0
 40
18.0
 40
18.0
 40
18.0
 40
19.0
 40
19.0
 40
19.0
 40
20.0
 40
20.0
 40
20.0
 40
21.0
 40
21.0
 40
21.0
 40
22.0
 40
22.0
 40
22.0
 40
22.0
 10
188.0639952491037
 20
664.8479832045268
 10
188.0639952491037
 20
664.8479832045268
 10
187.9919952509226
 20
665.4959831881569
 10
187.9919952509226
 20
665.4959831881569
 10
188.3519952418282
 20
665.4959831881569
 10
188.5679952363716
 20
665.6399831845192
 10
188.7119952327339
 20
665.7839831808814
 10
188.8559952290961
 20
665.9999831754248
 10
188.9279952272772
 20
666.2159831699682
 10
188.9279952272772
 20
666.4319831645116
 10
188.9279952272772
 20
666.7199831572361
 10
188.8559952290961
 20
667.0079831499606
 10
188.6399952345527
 20
667.1519831463228
 10
188.4239952400094
 20
667.3679831408662
 10
188.0639952491037
 20
667.5119831372285
 10
187.7039952581981
 20
667.5119831372285
 10
187.3439952672925
 20
667.5119831372285
 10
187.1279952727491
 20
667.3679831408662
 10
186.9119952782057
 20
667.223983144504
 10
186.6959952836623
 20
667.0079831499606
 10
186.6239952854812
 20
666.7199831572361
 10
186.6239952854812
 20
666.4319831645116
 10
186.6239952854812
 20
666.2159831699682
 10
186.6239952854812
 20
666.0719831736059
 10
186.6959952836623
 20
665.8559831790626
 10
186.8399952800246
 20
665.7119831827003
 10
186.9119952782057
 20
665.567983186338
 10
187.0559952745679
 20
665.4959831881569
 10
187.0559952745679
 20
665.4959831881569
 10
186.9839952763868
 20
664.9199832027079
 10
186.9839952763868
 20
664.9199832027079
 10
186.9839952763868
 20
664.9199832027079
 10
184.4639953400474
 20
665.4239831899758
 10
184.4639953400474
 20
665.4239831899758
 10
184.4639953400474
 20
665.4239831899758
 10
184.4639953400474
 20
667.8719831281341
 10
184.4639953400474
 20
667.8719831281341
 10
184.4639953400474
 20
667.8719831281341
 10
185.0399953254964
 20
667.8719831281341
 10
185.0399953254964
 20
667.8719831281341
 10
185.0399953254964
 20
667.8719831281341
 10
185.0399953254964
 20
665.9279831772437
 10
185.0399953254964
 20
665.9279831772437
 10
185.0399953254964
 20
665.9279831772437
 10
186.3359952927567
 20
665.6399831845192
 10
186.3359952927567
 20
665.6399831845192
 10
186.1199952982133
 20
665.9279831772437
 10
186.0479953000322
 20
666.2159831699682
 10
186.0479953000322
 20
666.5759831608738
 10
186.0479953000322
 20
667.0079831499606
 10
186.1919952963944
 20
667.3679831408662
 10
186.4799952891189
 20
667.6559831335907
 10
186.8399952800246
 20
668.0159831244964
 10
187.1999952709302
 20
668.1599831208586
 10
187.7039952581981
 20
668.1599831208586
 10
188.1359952472848
 20
668.1599831208586
 10
188.4959952381905
 20
668.0159831244964
 10
188.8559952290961
 20
667.7279831317719
 10
189.2879952181829
 20
667.4399831390473
 10
189.4319952145451
 20
667.0079831499606
 10
189.4319952145451
 20
666.4319831645116
 10
189.4319952145451
 20
665.9999831754248
 10
189.359995216364
 20
665.567983186338
 10
189.0719952236395
 20
665.2799831936135
 10
188.783995230915
 20
664.991983200889
 10
188.4959952381905
 20
664.8479832045268
 10
188.0639952491037
 20
664.8479832045268
 97
        0
 97
        1
330
F9
 75
     2
 76
     1
 98
        1
 10
0.0
 20
0.0
450
        0
451
        0
460
0.0
461
0.0
452
        0
462
0.0
453
        0
470

  0
SPLINE
  5
FB
330
70
100
AcDbEntity
  8
capa1
100
AcDbSpline
210
0.0
220
0.0
230
1.0
 70
    11
 71
     3
 72
    32
 73
    28
 74
     0
 42
0.0000000001
 43
0.0000000001
 40
0.0
 40
0.0
 40
0.0
 40
0.0
 40
1.0
 40
1.0
 40
1.0
 40
2.0
 40
2.0
 40
2.0
 40
3.0
 40
3.0
 40
3.0
 40
4.0
 40
4.0
 40
4.0
 40
5.0
 40
5.0
 40
5.0
 40
6.0
 40
6.0
 40
6.0
 40
7.0
 40
7.0
 40
7.0
 40
8.0
 40
8.0
 40
8.0
 40
9.0
 40
9.0
 40
9.0
 40
9.0
 10
120.6719969515688
 20
615.1679844595491
 30
0.0
 10
120.6719969515688
 20
615.1679844595491
 30
0.0
 10
120.0239969679387
 20
615.1679844595491
 30
0.0
 10
120.0239969679387
 20
615.1679844595491
 30
0.0
 10
120.0239969679387
 20
615.1679844595491
 30
0.0
 10
120.0239969679387
 20
619.05598436133
 30
0.0
 10
120.0239969679387
 20
619.05598436133
 30
0.0
 10
119.8799969715764
 20
618.9119843649677
 30
0.0
 10
119.6639969770331
 20
618.7679843686055
 30
0.0
 10
119.4479969824897
 20
618.6239843722432
 30
0.0
 10
119.2319969879463
 20
618.479984375881
 30
0.0
 10
119.0159969934029
 20
618.4079843776999
 30
0.0
 10
118.7999969988595
 20
618.3359843795187
 30
0.0
 10
118.7999969988595
 20
618.3359843795187
 30
0.0
 10
118.7999969988595
 20
618.9119843649677
 30
0.0
 10
118.7999969988595
 20
618.9119843649677
 30
0.0
 10
119.1599969897652
 20
619.05598436133
 30
0.0
 10
119.4479969824897
 20
619.2719843558734
 30
0.0
 10
119.7359969752142
 20
619.4879843504168
 30
0.0
 10
119.9519969697576
 20
619.7039843449601
 30
0.0
 10
120.167996964301
 20
619.9919843376846
 30
0.0
 10
120.2399969624821
 20
620.207984332228
 30
0.0
 10
120.2399969624821
 20
620.207984332228
 30
0.0
 10
120.6719969515688
 20
620.207984332228
 30
0.0
 10
120.6719969515688
 20
620.207984332228
 30
0.0
 10
120.6719969515688
 20
620.207984332228
 30
0.0
 10
120.6719969515688
 20
615.1679844595491
 30
0.0
 10
120.6719969515688
 20
615.1679844595491
 30
0.0
  0
HATCH
  5
FC
330
70
100
AcDbEntity
  8
capa1
 62
   250
420
  1907995
440
 33554687
100
AcDbHatch
 10
0.0
 20
0.0
 30
0.0
210
0.0
220
0.0
230
1.0
  2
SOLID
 70
     1
 71
     1
 91
        1
 92
        1
 93
        1
 72
     4
 94
        3
 73
     0
 74
     0
 95
       32
 96
       28
 40
0.0
 40
0.0
 40
0.0
 40
0.0
 40
1.0
 40
1.0
 40
1.0
 40
2.0
 40
2.0
 40
2.0
 40
3.0
 40
3.0
 40
3.0
 40
4.0
 40
4.0
 40
4.0
 40
5.0
 40
5.0
 40
5.0
 40
6.0
 40
6.0
 40
6.0
 40
7.0
 40
7.0
 40
7.0
 40
8.0
 40
8.0
 40
8.0
 40
9.0
 40
9.0
 40
9.0
 40
9.0
 10
120.6719969515688
 20
615.1679844595491
 10
120.6719969515688
 20
615.1679844595491
 10
120.0239969679387
 20
615.1679844595491
 10
120.0239969679387
 20
615.1679844595491
 10
120.0239969679387
 20
615.1679844595491
 10
120.0239969679387
 20
619.05598436133
 10
120.0239969679387
 20
619.05598436133
 10
119.8799969715764
 20
618.9119843649677
 10
119.6639969770331
 20
618.7679843686055
 10
119.4479969824897
 20
618.6239843722432
 10
119.2319969879463
 20
618.479984375881
 10
119.0159969934029
 20
618.4079843776999
 10
118.7999969988595
 20
618.3359843795187
 10
118.7999969988595
 20
618.3359843795187
 10
118.7999969988595
 20
618.9119843649677
 10
118.7999969988595
 20
618.9119843649677
 10
119.1599969897652
 20
619.05598436133
 10
119.4479969824897
 20
619.2719843558734
 10
119.7359969752142
 20
619.4879843504168
 10
119.9519969697576
 20
619.7039843449601
 10
120.167996964301
 20
619.9919843376846
 10
120.2399969624821
 20
620.207984332228
 10
120.2399969624821
 20
620.207984332228
 10
120.6719969515688
 20
620.207984332228
 10
120.6719969515688
 20
620.207984332228
 10
120.6719969515688
 20
620.207984332228
 10
120.6719969515688
 20
615.1679844595491
 10
120.6719969515688
 20
615.1679844595491
 97
        0
 97
        1
330
FB
 75
     2
 76
     1
 98
        1
 10
0.0
 20
0.0
450
        0
451
        0
460
0.0
461
0.0
452
        0
462
0.0
453
        0
470

  0
SPLINE
  5
FD
330
70
100
AcDbEntity
  8
capa1
100
AcDbSpline
210
0.0
220
0.0
230
1.0
 70
    11
 71
     3
 72
    32
 73
    28
 74
     0
 42
0.0000000001
 43
0.0000000001
 40
0.0
 40
0.0
 40
0.0
 40
0.0
 40
1.0
 40
1.0
 40
1.0
 40
2.0
 40
2.0
 40
2.0
 40
3.0
 40
3.0
 40
3.0
 40
4.0
 40
4.0
 40
4.0
 40
5.0
 40
5.0
 40
5.0
 40
6.0
 40
6.0
 40
6.0
 40
7.0
 40
7.0
 40
7.0
 40
8.0
 40
8.0
 40
8.0
 40
9.0
 40
9.0
 40
9.0
 40
9.0
 10
124.0559968660818
 20
615.1679844595491
 30
0.0
 10
124.0559968660818
 20
615.1679844595491
 30
0.0
 10
123.4079968824517
 20
615.1679844595491
 30
0.0
 10
123.4079968824517
 20
615.1679844595491
 30
0.0
 10
123.4079968824517
 20
615.1679844595491
 30
0.0
 10
123.4079968824517
 20
619.05598436133
 30
0.0
 10
123.4079968824517
 20
619.05598436133
 30
0.0
 10
123.2639968860894
 20
618.9119843649677
 30
0.0
 10
123.047996891546
 20
618.7679843686055
 30
0.0
 10
122.8319968970027
 20
618.6239843722432
 30
0.0
 10
122.6159969024593
 20
618.479984375881
 30
0.0
 10
122.3999969079159
 20
618.4079843776999
 30
0.0
 10
122.1839969133725
 20
618.3359843795187
 30
0.0
 10
122.1839969133725
 20
618.3359843795187
 30
0.0
 10
122.1839969133725
 20
618.9119843649677
 30
0.0
 10
122.1839969133725
 20
618.9119843649677
 30
0.0
 10
122.5439969042781
 20
619.05598436133
 30
0.0
 10
122.8319968970027
 20
619.2719843558734
 30
0.0
 10
123.047996891546
 20
619.4879843504168
 30
0.0
 10
123.3359968842705
 20
619.7039843449601
 30
0.0
 10
123.5519968788139
 20
619.9919843376846
 30
0.0
 10
123.6239968769951
 20
620.207984332228
 30
0.0
 10
123.6239968769951
 20
620.207984332228
 30
0.0
 10
124.0559968660818
 20
620.207984332228
 30
0.0
 10
124.0559968660818
 20
620.207984332228
 30
0.0
 10
124.0559968660818
 20
620.207984332228
 30
0.0
 10
124.0559968660818
 20
615.1679844595491
 30
0.0
 10
124.0559968660818
 20
615.1679844595491
 30
0.0
  0
HATCH
  5
FE
330
70
100
AcDbEntity
  8
capa1
 62
   250
420
  1907995
440
 33554687
100
AcDbHatch
 10
0.0
 20
0.0
 30
0.0
210
0.0
220
0.0
230
1.0
  2
SOLID
 70
     1
 71
     1
 91
        1
 92
        1
 93
        1
 72
     4
 94
        3
 73
     0
 74
     0
 95
       32
 96
       28
 40
0.0
 40
0.0
 40
0.0
 40
0.0
 40
1.0
 40
1.0
 40
1.0
 40
2.0
 40
2.0
 40
2.0
 40
3.0
 40
3.0
 40
3.0
 40
4.0
 40
4.0
 40
4.0
 40
5.0
 40
5.0
 40
5.0
 40
6.0
 40
6.0
 40
6.0
 40
7.0
 40
7.0
 40
7.0
 40
8.0
 40
8.0
 40
8.0
 40
9.0
 40
9.0
 40
9.0
 40
9.0
 10
124.0559968660818
 20
615.1679844595491
 10
124.0559968660818
 20
615.1679844595491
 10
123.4079968824517
 20
615.1679844595491
 10
123.4079968824517
 20
615.1679844595491
 10
123.4079968824517
 20
615.1679844595491
 10
123.4079968824517
 20
619.05598436133
 10
123.4079968824517
 20
619.05598436133
 10
123.2639968860894
 20
618.9119843649677
 10
123.047996891546
 20
618.7679843686055
 10
122.8319968970027
 20
618.6239843722432
 10
122.6159969024593
 20
618.479984375881
 10
122.3999969079159
 20
618.4079843776999
 10
122.1839969133725
 20
618.3359843795187
 10
122.1839969133725
 20
618.3359843795187
 10
122.1839969133725
 20
618.9119843649677
 10
122.1839969133725
 20
618.9119843649677
 10
122.5439969042781
 20
619.05598436133
 10
122.8319968970027
 20
619.2719843558734
 10
123.047996891546
 20
619.4879843504168
 10
123.3359968842705
 20
619.7039843449601
 10
123.5519968788139
 20
619.9919843376846
 10
123.6239968769951
 20
620.207984332228
 10
123.6239968769951
 20
620.207984332228
 10
124.0559968660818
 20
620.207984332228
 10
124.0559968660818
 20
620.207984332228
 10
124.0559968660818
 20
620.207984332228
 10
124.0559968660818
 20
615.1679844595491
 10
124.0559968660818
 20
615.1679844595491
 97
        0
 97
        1
330
FD
 75
     2
 76
     1
 98
        1
 10
0.0
 20
0.0
450
        0
451
        0
460
0.0
461
0.0
452
        0
462
0.0
453
        0
470

  0
SPLINE
  5
FF
330
70
100
AcDbEntity
  8
capa1
100
AcDbSpline
210
0.0
220
0.0
230
1.0
 70
     9
 71
     3
 72
    50
 73
    46
 74
     0
 42
0.0000000001
 43
0.0000000001
 40
0.0
 40
0.0
 40
0.0
 40
0.0
 40
1.0
 40
1.0
 40
1.0
 40
2.0
 40
2.0
 40
2.0
 40
3.0
 40
3.0
 40
3.0
 40
4.0
 40
4.0
 40
4.0
 40
5.0
 40
5.0
 40
5.0
 40
6.0
 40
6.0
 40
6.0
 40
7.0
 40
7.0
 40
7.0
 40
8.0
 40
8.0
 40
8.0
 40
9.0
 40
9.0
 40
9.0
 40
10.0
 40
10.0
 40
10.0
 40
11.0
 40
11.0
 40
11.0
 40
12.0
 40
12.0
 40
12.0
 40
13.0
 40
13.0
 40
13.0
 40
14.0
 40
14.0
 40
14.0
 40
15.0
 40
15.0
 40
15.0
 40
15.0
 10
125.5679968278855
 20
617.6159843977075
 30
0.0
 10
125.5679968278855
 20
618.1919843831565
 30
0.0
 10
125.6399968260666
 20
618.6959843704244
 30
0.0
 10
125.7839968224289
 20
619.05598436133
 30
0.0
 10
125.9279968187911
 20
619.4159843522356
 30
0.0
 10
126.0719968151534
 20
619.7039843449601
 30
0.0
 10
126.3599968078779
 20
619.8479843413224
 30
0.0
 10
126.5759968024213
 20
620.0639843358658
 30
0.0
 10
126.8639967951458
 20
620.207984332228
 30
0.0
 10
127.2239967860514
 20
620.207984332228
 30
0.0
 10
127.2239967860514
 20
620.207984332228
 30
0.0
 10
127.2239967860514
 20
620.207984332228
 30
0.0
 10
127.2239967860514
 20
620.207984332228
 30
0.0
 10
127.2239967860514
 20
620.207984332228
 30
0.0
 10
127.2239967860514
 20
619.631984346779
 30
0.0
 10
127.2239967860514
 20
619.631984346779
 30
0.0
 10
127.2239967860514
 20
619.631984346779
 30
0.0
 10
127.2239967860514
 20
619.631984346779
 30
0.0
 10
127.2239967860514
 20
619.631984346779
 30
0.0
 10
126.9359967933269
 20
619.631984346779
 30
0.0
 10
126.7199967987835
 20
619.5599843485979
 30
0.0
 10
126.5759968024213
 20
619.2719843558734
 30
0.0
 10
126.3599968078779
 20
618.9839843631489
 30
0.0
 10
126.2159968115156
 20
618.4079843776999
 30
0.0
 10
126.2159968115156
 20
617.6159843977075
 30
0.0
 10
126.2159968115156
 20
616.8239844177151
 30
0.0
 10
126.3599968078779
 20
616.247984432266
 30
0.0
 10
126.5039968042401
 20
615.9599844395415
 30
0.0
 10
126.7199967987835
 20
615.671984446817
 30
0.0
 10
126.9359967933269
 20
615.5999844486359
 30
0.0
 10
127.2239967860514
 20
615.5999844486359
 30
0.0
 10
127.2239967860514
 20
615.5999844486359
 30
0.0
 10
127.2239967860514
 20
615.5999844486359
 30
0.0
 10
127.2239967860514
 20
615.5999844486359
 30
0.0
 10
127.2239967860514
 20
615.5999844486359
 30
0.0
 10
127.2239967860514
 20
615.0239844631869
 30
0.0
 10
127.2239967860514
 20
615.0239844631869
 30
0.0
 10
127.2239967860514
 20
615.0239844631869
 30
0.0
 10
127.2239967860514
 20
615.0239844631869
 30
0.0
 10
127.2239967860514
 20
615.0239844631869
 30
0.0
 10
126.7199967987835
 20
615.0239844631869
 30
0.0
 10
126.3599968078779
 20
615.2399844577303
 30
0.0
 10
126.0719968151534
 20
615.5999844486359
 30
0.0
 10
125.7839968224289
 20
615.9599844395415
 30
0.0
 10
125.5679968278855
 20
616.6799844213528
 30
0.0
 10
125.5679968278855
 20
617.6159843977075
 30
0.0
  0
SPLINE
  5
100
330
70
100
AcDbEntity
  8
capa1
100
AcDbSpline
210
0.0
220
0.0
230
1.0
 70
     9
 71
     3
 72
    44
 73
    40
 74
     0
 42
0.0000000001
 43
0.0000000001
 40
0.0
 40
0.0
 40
0.0
 40
0.0
 40
1.0
 40
1.0
 40
1.0
 40
2.0
 40
2.0
 40
2.0
 40
3.0
 40
3.0
 40
3.0
 40
4.0
 40
4.0
 40
4.0
 40
5.0
 40
5.0
 40
5.0
 40
6.0
 40
6.0
 40
6.0
 40
7.0
 40
7.0
 40
7.0
 40
8.0
 40
8.0
 40
8.0
 40
9.0
 40
9.0
 40
9.0
 40
10.0
 40
10.0
 40
10.0
 40
11.0
 40
11.0
 40
11.0
 40
12.0
 40
12.0
 40
12.0
 40
13.0
 40
13.0
 40
13.0
 40
13.0
 10
127.2239967860514
 20
620.207984332228
 30
0.0
 10
127.5119967787759
 20
620.207984332228
 30
0.0
 10
127.7279967733193
 20
620.1359843340469
 30
0.0
 10
127.9439967678627
 20
619.9919843376846
 30
0.0
 10
128.1599967624061
 20
619.9199843395035
 30
0.0
 10
128.3039967587683
 20
619.7759843431413
 30
0.0
 10
128.4479967551306
 20
619.5599843485979
 30
0.0
 10
128.5919967514928
 20
619.3439843540545
 30
0.0
 10
128.6639967496739
 20
619.1279843595111
 30
0.0
 10
128.7359967478551
 20
618.7679843686055
 30
0.0
 10
128.8079967460362
 20
618.479984375881
 30
0.0
 10
128.8799967442173
 20
618.1199843849753
 30
0.0
 10
128.8799967442173
 20
617.6159843977075
 30
0.0
 10
128.8799967442173
 20
617.0399844122584
 30
0.0
 10
128.8079967460362
 20
616.5359844249906
 30
0.0
 10
128.6639967496739
 20
616.1759844340849
 30
0.0
 10
128.5919967514928
 20
615.8159844431793
 30
0.0
 10
128.3759967569494
 20
615.5279844504548
 30
0.0
 10
128.1599967624061
 20
615.3839844540925
 30
0.0
 10
127.8719967696815
 20
615.1679844595491
 30
0.0
 10
127.583996776957
 20
615.0239844631869
 30
0.0
 10
127.2239967860514
 20
615.0239844631869
 30
0.0
 10
127.2239967860514
 20
615.0239844631869
 30
0.0
 10
127.2239967860514
 20
615.5999844486359
 30
0.0
 10
127.2239967860514
 20
615.5999844486359
 30
0.0
 10
127.5119967787759
 20
615.5999844486359
 30
0.0
 10
127.7279967733193
 20
615.671984446817
 30
0.0
 10
127.9439967678627
 20
615.9599844395415
 30
0.0
 10
128.1599967624061
 20
616.247984432266
 30
0.0
 10
128.2319967605872
 20
616.8239844177151
 30
0.0
 10
128.2319967605872
 20
617.6159843977075
 30
0.0
 10
128.2319967605872
 20
618.4079843776999
 30
0.0
 10
128.1599967624061
 20
618.9839843631489
 30
0.0
 10
127.9439967678627
 20
619.2719843558734
 30
0.0
 10
127.7279967733193
 20
619.5599843485979
 30
0.0
 10
127.5119967787759
 20
619.631984346779
 30
0.0
 10
127.2239967860514
 20
619.631984346779
 30
0.0
 10
127.2239967860514
 20
619.631984346779
 30
0.0
 10
127.2239967860514
 20
620.207984332228
 30
0.0
 10
127.2239967860514
 20
620.207984332228
 30
0.0
  0
HATCH
  5
101
330
70
100
AcDbEntity
  8
capa1
 62
   250
420
  1907995
440
 33554687
100
AcDbHatch
 10
0.0
 20
0.0
 30
0.0
210
0.0
220
0.0
230
1.0
  2
SOLID
 70
     1
 71
     1
 91
        2
 92
        1
 93
        1
 72
     4
 94
        3
 73
     0
 74
     0
 95
       50
 96
       46
 40
0.0
 40
0.0
 40
0.0
 40
0.0
 40
1.0
 40
1.0
 40
1.0
 40
2.0
 40
2.0
 40
2.0
 40
3.0
 40
3.0
 40
3.0
 40
4.0
 40
4.0
 40
4.0
 40
5.0
 40
5.0
 40
5.0
 40
6.0
 40
6.0
 40
6.0
 40
7.0
 40
7.0
 40
7.0
 40
8.0
 40
8.0
 40
8.0
 40
9.0
 40
9.0
 40
9.0
 40
10.0
 40
10.0
 40
10.0
 40
11.0
 40
11.0
 40
11.0
 40
12.0
 40
12.0
 40
12.0
 40
13.0
 40
13.0
 40
13.0
 40
14.0
 40
14.0
 40
14.0
 40
15.0
 40
15.0
 40
15.0
 40
15.0
 10
125.5679968278855
 20
617.6159843977075
 10
125.5679968278855
 20
618.1919843831565
 10
125.6399968260666
 20
618.6959843704244
 10
125.7839968224289
 20
619.05598436133
 10
125.9279968187911
 20
619.4159843522356
 10
126.0719968151534
 20
619.7039843449601
 10
126.3599968078779
 20
619.8479843413224
 10
126.5759968024213
 20
620.0639843358658
 10
126.8639967951458
 20
620.207984332228
 10
127.2239967860514
 20
620.207984332228
 10
127.2239967860514
 20
620.207984332228
 10
127.2239967860514
 20
620.207984332228
 10
127.2239967860514
 20
620.207984332228
 10
127.2239967860514
 20
620.207984332228
 10
127.2239967860514
 20
619.631984346779
 10
127.2239967860514
 20
619.631984346779
 10
127.2239967860514
 20
619.631984346779
 10
127.2239967860514
 20
619.631984346779
 10
127.2239967860514
 20
619.631984346779
 10
126.9359967933269
 20
619.631984346779
 10
126.7199967987835
 20
619.5599843485979
 10
126.5759968024213
 20
619.2719843558734
 10
126.3599968078779
 20
618.9839843631489
 10
126.2159968115156
 20
618.4079843776999
 10
126.2159968115156
 20
617.6159843977075
 10
126.2159968115156
 20
616.8239844177151
 10
126.3599968078779
 20
616.247984432266
 10
126.5039968042401
 20
615.9599844395415
 10
126.7199967987835
 20
615.671984446817
 10
126.9359967933269
 20
615.5999844486359
 10
127.2239967860514
 20
615.5999844486359
 10
127.2239967860514
 20
615.5999844486359
 10
127.2239967860514
 20
615.5999844486359
 10
127.2239967860514
 20
615.5999844486359
 10
127.2239967860514
 20
615.5999844486359
 10
127.2239967860514
 20
615.0239844631869
 10
127.2239967860514
 20
615.0239844631869
 10
127.2239967860514
 20
615.0239844631869
 10
127.2239967860514
 20
615.0239844631869
 10
127.2239967860514
 20
615.0239844631869
 10
126.7199967987835
 20
615.0239844631869
 10
126.3599968078779
 20
615.2399844577303
 10
126.0719968151534
 20
615.5999844486359
 10
125.7839968224289
 20
615.9599844395415
 10
125.5679968278855
 20
616.6799844213528
 10
125.5679968278855
 20
617.6159843977075
 97
        0
 97
        1
330
FF
 92
        1
 93
        1
 72
     4
 94
        3
 73
     0
 74
     0
 95
       44
 96
       40
 40
0.0
 40
0.0
 40
0.0
 40
0.0
 40
1.0
 40
1.0
 40
1.0
 40
2.0
 40
2.0
 40
2.0
 40
3.0
 40
3.0
 40
3.0
 40
4.0
 40
4.0
 40
4.0
 40
5.0
 40
5.0
 40
5.0
 40
6.0
 40
6.0
 40
6.0
 40
7.0
 40
7.0
 40
7.0
 40
8.0
 40
8.0
 40
8.0
 40
9.0
 40
9.0
 40
9.0
 40
10.0
 40
10.0
 40
10.0
 40
11.0
 40
11.0
 40
11.0
 40
12.0
 40
12.0
 40
12.0
 40
13.0
 40
13.0
 40
13.0
 40
13.0
 10
127.2239967860514
 20
620.207984332228
 10
127.5119967787759
 20
620.207984332228
 10
127.7279967733193
 20
620.1359843340469
 10
127.9439967678627
 20
619.9919843376846
 10
128.1599967624061
 20
619.9199843395035
 10
128.3039967587683
 20
619.7759843431413
 10
128.4479967551306
 20
619.5599843485979
 10
128.5919967514928
 20
619.3439843540545
 10
128.6639967496739
 20
619.1279843595111
 10
128.7359967478551
 20
618.7679843686055
 10
128.8079967460362
 20
618.479984375881
 10
128.8799967442173
 20
618.1199843849753
 10
128.8799967442173
 20
617.6159843977075
 10
128.8799967442173
 20
617.0399844122584
 10
128.8079967460362
 20
616.5359844249906
 10
128.6639967496739
 20
616.1759844340849
 10
128.5919967514928
 20
615.8159844431793
 10
128.3759967569494
 20
615.5279844504548
 10
128.1599967624061
 20
615.3839844540925
 10
127.8719967696815
 20
615.1679844595491
 10
127.583996776957
 20
615.0239844631869
 10
127.2239967860514
 20
615.0239844631869
 10
127.2239967860514
 20
615.0239844631869
 10
127.2239967860514
 20
615.5999844486359
 10
127.2239967860514
 20
615.5999844486359
 10
127.5119967787759
 20
615.5999844486359
 10
127.7279967733193
 20
615.671984446817
 10
127.9439967678627
 20
615.9599844395415
 10
128.1599967624061
 20
616.247984432266
 10
128.2319967605872
 20
616.8239844177151
 10
128.2319967605872
 20
617.6159843977075
 10
128.2319967605872
 20
618.4079843776999
 10
128.1599967624061
 20
618.9839843631489
 10
127.9439967678627
 20
619.2719843558734
 10
127.7279967733193
 20
619.5599843485979
 10
127.5119967787759
 20
619.631984346779
 10
127.2239967860514
 20
619.631984346779
 10
127.2239967860514
 20
619.631984346779
 10
127.2239967860514
 20
620.207984332228
 10
127.2239967860514
 20
620.207984332228
 97
        0
 97
        1
330
100
 75
     2
 76
     1
 98
        1
 10
0.0
 20
0.0
450
        0
451
        0
460
0.0
461
0.0
452
        0
462
0.0
453
        0
470

  0
ENDSEC
  0
SECTION
  2
OBJECTS
  0
DICTIONARY
  5
C
330
0
100
AcDbDictionary
281
     1
  3
ACAD_COLOR
350
63
  3
ACAD_DETAILVIEWSTYLE
350
6A
  3
ACAD_GROUP
350
D
  3
ACAD_LAYOUT
350
62
  3
ACAD_MATERIAL
350
10
  3
ACAD_MLEADERSTYLE
350
66
  3
ACAD_MLINESTYLE
350
5F
  3
ACAD_PLOTSETTINGS
350
61
  3
ACAD_PLOTSTYLENAME
350
E
  3
ACAD_SCALELIST
350
42
  3
ACAD_SECTIONVIEWSTYLE
350
68
  3
ACAD_TABLESTYLE
350
64
  3
ACAD_VISUALSTYLE
350
29
  3
ACDB_RECOMPOSE_DATA
350
10A
  3
AcDbVariableDictionary
350
102
  0
DICTIONARY
  5
63
102
{ACAD_REACTORS
330
C
102
}
330
C
100
AcDbDictionary
281
     1
  0
DICTIONARY
  5
6A
102
{ACAD_REACTORS
330
C
102
}
330
C
100
AcDbDictionary
281
     1
  3
Imperial24
350
6B
  0
DICTIONARY
  5
D
102
{ACAD_REACTORS
330
C
102
}
330
C
100
AcDbDictionary
281
     1
  0
DICTIONARY
  5
62
102
{ACAD_REACTORS
330
C
102
}
330
C
100
AcDbDictionary
281
     1
  3
Layout1
350
6F
  3
Layout2
350
77
  3
Model
350
73
  0
DICTIONARY
  5
10
102
{ACAD_REACTORS
330
C
102
}
330
C
100
AcDbDictionary
281
     1
  3
ByBlock
350
19
  3
ByLayer
350
11
  3
Global
350
21
  0
DICTIONARY
  5
66
102
{ACAD_REACTORS
330
C
102
}
330
C
100
AcDbDictionary
281
     1
  3
Standard
350
67
  0
DICTIONARY
  5
5F
102
{ACAD_REACTORS
330
C
102
}
330
C
100
AcDbDictionary
281
     1
  3
Standard
350
60
  0
DICTIONARY
  5
61
102
{ACAD_REACTORS
330
C
102
}
330
C
100
AcDbDictionary
281
     1
  0
ACDBDICTIONARYWDFLT
  5
E
102
{ACAD_REACTORS
330
C
102
}
330
C
100
AcDbDictionary
281
     1
  3
Normal
350
F
100
AcDbDictionaryWithDefault
340
F
  0
DICTIONARY
  5
42
102
{ACAD_REACTORS
330
C
102
}
330
C
100
AcDbDictionary
281
     1
  3
A0
350
43
  3
A1
350
44
  3
A2
350
45
  3
A3
350
46
  3
A4
350
47
  3
A5
350
48
  3
A6
350
49
  3
A7
350
4A
  3
A8
350
4B
  3
A9
350
4C
  3
B0
350
4D
  3
B1
350
4E
  3
B2
350
4F
  3
B3
350
50
  3
B4
350
51
  3
B5
350
52
  3
B6
350
53
  0
DICTIONARY
  5
68
102
{ACAD_REACTORS
330
C
102
}
330
C
100
AcDbDictionary
281
     1
  3
Imperial24
350
69
  0
DICTIONARY
  5
64
102
{ACAD_REACTORS
330
C
102
}
330
C
100
AcDbDictionary
281
     1
  3
Standard
350
65
  0
DICTIONARY
  5
29
102
{ACAD_REACTORS
330
C
102
}
330
C
100
AcDbDictionary
281
     1
  3
2dWireframe
350
2F
  3
Basic
350
2E
  3
Brighten
350
35
  3
ColorChange
350
39
  3
Conceptual
350
32
  3
Dim
350
34
  3
EdgeColorOff
350
41
  3
Facepattern
350
38
  3
Flat
350
2A
  3
FlatWithEdges
350
2B
  3
Gouraud
350
2C
  3
GouraudWithEdges
350
2D
  3
Hidden
350
31
  3
JitterOff
350
3F
  3
Linepattern
350
37
  3
OverhangOff
350
40
  3
Realistic
350
33
  3
Shaded
350
3E
  3
Shaded with edges
350
3D
  3
Shades of Gray
350
3A
  3
Sketchy
350
3B
  3
Thicken
350
36
  3
Wireframe
350
30
  3
X-Ray
350
3C
  0
XRECORD
  5
10A
102
{ACAD_REACTORS
330
C
102
}
330
C
100
AcDbXrecord
280
     1
 90
        1
330
65
  0
DICTIONARY
  5
102
102
{ACAD_REACTORS
330
C
102
}
330
C
100
AcDbDictionary
281
     1
  3
CANNOSCALE
350
107
  3
CMLEADERSTYLE
350
104
  3
CTABLESTYLE
350
103
  3
CVIEWDETAILSTYLE
350
105
  3
CVIEWSECTIONSTYLE
350
106
  0
ACDBDETAILVIEWSTYLE
  5
6B
102
{ACAD_XDICTIONARY
360
10D
102
}
102
{ACAD_REACTORS
330
6A
102
}
330
6A
100
AcDbModelDocViewStyle
 70
     0
  3
Imperial24
290
     0
100
AcDbDetailViewStyle
 70
     0
 71
     0
 90
        3
 71
     1
340
55
 62
   256
 40
0.24
340
0
 62
   256
 40
0.24
300

 40
0.36
280
     3
 71
     2
340
5D
 90
       25
 62
   256
 71
     3
340
55
 62
   256
 40
0.24
 90
        1
 40
0.75
 90
        1
300
%<\AcVar ViewType \f "%tc1">% %<\AcVar ViewDetailId>%\PSCALE %<\AcVar ViewScale \f "%sn">%
 71
     4
340
5D
 90
       25
 62
   256
340
5D
 90
       25
 62
   256
280
     0
  0
LAYOUT
  5
6F
102
{ACAD_REACTORS
330
62
102
}
330
62
100
AcDbPlotSettings
  1

  2

  4

  6

 40
0.0
 41
0.0
 42
0.0
 43
0.0
 44
0.0
 45
0.0
 46
0.0
 47
0.0
 48
0.0
 49
0.0
140
0.0
141
0.0
142
1.0
143
1.0
 70
   688
 72
     0
 73
     0
 74
     5
  7

 75
    16
147
1.0
 76
     0
 77
     2
 78
   300
148
0.0
149
0.0
100
AcDbLayout
  1
Layout1
 70
     1
 71
     1
 10
0.0
 20
0.0
 11
12.0
 21
9.0
 12
0.0
 22
0.0
 32
0.0
 14
0.0
 24
0.0
 34
0.0
 15
0.0
 25
0.0
 35
0.0
146
0.0
 13
0.0
 23
0.0
 33
0.0
 16
1.0
 26
0.0
 36
0.0
 17
0.0
 27
1.0
 37
0.0
 76
     0
330
6C
  0
LAYOUT
  5
77
102
{ACAD_REACTORS
330
62
102
}
330
62
100
AcDbPlotSettings
  1

  2

  4

  6

 40
0.0
 41
0.0
 42
0.0
 43
0.0
 44
0.0
 45
0.0
 46
0.0
 47
0.0
 48
0.0
 49
0.0
140
0.0
141
0.0
142
1.0
143
1.0
 70
   688
 72
     0
 73
     0
 74
     5
  7

 75
    16
147
1.0
 76
     0
 77
     2
 78
   300
148
0.0
149
0.0
100
AcDbLayout
  1
Layout2
 70
     1
 71
     2
 10
0.0
 20
0.0
 11
12.0
 21
9.0
 12
0.0
 22
0.0
 32
0.0
 14
0.0
 24
0.0
 34
0.0
 15
0.0
 25
0.0
 35
0.0
146
0.0
 13
0.0
 23
0.0
 33
0.0
 16
1.0
 26
0.0
 36
0.0
 17
0.0
 27
1.0
 37
0.0
 76
     0
330
74
  0
LAYOUT
  5
73
102
{ACAD_REACTORS
330
62
102
}
330
62
100
AcDbPlotSettings
  1

  2

  4

  6

 40
0.0
 41
0.0
 42
0.0
 43
0.0
 44
0.0
 45
0.0
 46
0.0
 47
0.0
 48
0.0
 49
0.0
140
0.0
141
0.0
142
1.0
143
1.0
 70
  1712
 72
     0
 73
     0
 74
     0
  7

 75
     0
147
1.0
 76
     0
 77
     2
 78
   300
148
0.0
149
0.0
100
AcDbLayout
  1
Model
 70
     1
 71
     0
 10
0.0
 20
0.0
 11
12.0
 21
9.0
 12
0.0
 22
0.0
 32
0.0
 14
0.0
 24
0.0
 34
0.0
 15
0.0
 25
0.0
 35
0.0
146
0.0
 13
0.0
 23
0.0
 33
0.0
 16
1.0
 26
0.0
 36
0.0
 17
0.0
 27
1.0
 37
0.0
 76
     0
330
70
  0
MATERIAL
  5
19
102
{ACAD_XDICTIONARY
360
1A
102
}
102
{ACAD_REACTORS
330
10
102
}
330
10
100
AcDbMaterial
  1
ByBlock
 72
     0
 43
0.0208333333333333
 43
0.0
 43
0.0
 43
0.0
 43
0.0
 43
0.0208333333333333
 43
0.0
 43
0.0
 43
0.0
 43
0.0
 43
1.0
 43
0.0
 43
0.0
 43
0.0
 43
0.0
 43
1.0
 77
     0
 47
0.0208333333333333
 47
0.0
 47
0.0
 47
0.0
 47
0.0
 47
0.0208333333333333
 47
0.0
 47
0.0
 47
0.0
 47
0.0
 47
1.0
 47
0.0
 47
0.0
 47
0.0
 47
0.0
 47
1.0
171
     0
 49
0.0208333333333333
 49
0.0
 49
0.0
 49
0.0
 49
0.0
 49
0.0208333333333333
 49
0.0
 49
0.0
 49
0.0
 49
0.0
 49
1.0
 49
0.0
 49
0.0
 49
0.0
 49
0.0
 49
1.0
175
     0
142
0.0208333333333333
142
0.0
142
0.0
142
0.0
142
0.0
142
0.0208333333333333
142
0.0
142
0.0
142
0.0
142
0.0
142
1.0
142
0.0
142
0.0
142
0.0
142
0.0
142
1.0
179
     0
144
0.0208333333333333
144
0.0
144
0.0
144
0.0
144
0.0
144
0.0208333333333333
144
0.0
144
0.0
144
0.0
144
0.0
144
1.0
144
0.0
144
0.0
144
0.0
144
0.0
144
1.0
147
0.0208333333333333
147
0.0
147
0.0
147
0.0
147
0.0
147
0.0208333333333333
147
0.0
147
0.0
147
0.0
147
0.0
147
1.0
147
0.0
147
0.0
147
0.0
147
0.0
147
1.0
  0
MATERIAL
  5
11
102
{ACAD_XDICTIONARY
360
12
102
}
102
{ACAD_REACTORS
330
10
102
}
330
10
100
AcDbMaterial
  1
ByLayer
 72
     0
 43
0.0208333333333333
 43
0.0
 43
0.0
 43
0.0
 43
0.0
 43
0.0208333333333333
 43
0.0
 43
0.0
 43
0.0
 43
0.0
 43
1.0
 43
0.0
 43
0.0
 43
0.0
 43
0.0
 43
1.0
 77
     0
 47
0.0208333333333333
 47
0.0
 47
0.0
 47
0.0
 47
0.0
 47
0.0208333333333333
 47
0.0
 47
0.0
 47
0.0
 47
0.0
 47
1.0
 47
0.0
 47
0.0
 47
0.0
 47
0.0
 47
1.0
171
     0
 49
0.0208333333333333
 49
0.0
 49
0.0
 49
0.0
 49
0.0
 49
0.0208333333333333
 49
0.0
 49
0.0
 49
0.0
 49
0.0
 49
1.0
 49
0.0
 49
0.0
 49
0.0
 49
0.0
 49
1.0
175
     0
142
0.0208333333333333
142
0.0
142
0.0
142
0.0
142
0.0
142
0.0208333333333333
142
0.0
142
0.0
142
0.0
142
0.0
142
1.0
142
0.0
142
0.0
142
0.0
142
0.0
142
1.0
179
     0
144
0.0208333333333333
144
0.0
144
0.0
144
0.0
144
0.0
144
0.0208333333333333
144
0.0
144
0.0
144
0.0
144
0.0
144
1.0
144
0.0
144
0.0
144
0.0
144
0.0
144
1.0
147
0.0208333333333333
147
0.0
147
0.0
147
0.0
147
0.0
147
0.0208333333333333
147
0.0
147
0.0
147
0.0
147
0.0
147
1.0
147
0.0
147
0.0
147
0.0
147
0.0
147
1.0
  0
MATERIAL
  5
21
102
{ACAD_XDICTIONARY
360
22
102
}
102
{ACAD_REACTORS
330
10
102
}
330
10
100
AcDbMaterial
  1
Global
 72
     0
 43
0.0208333333333333
 43
0.0
 43
0.0
 43
0.0
 43
0.0
 43
0.0208333333333333
 43
0.0
 43
0.0
 43
0.0
 43
0.0
 43
1.0
 43
0.0
 43
0.0
 43
0.0
 43
0.0
 43
1.0
 77
     0
 47
0.0208333333333333
 47
0.0
 47
0.0
 47
0.0
 47
0.0
 47
0.0208333333333333
 47
0.0
 47
0.0
 47
0.0
 47
0.0
 47
1.0
 47
0.0
 47
0.0
 47
0.0
 47
0.0
 47
1.0
171
     0
 49
0.0208333333333333
 49
0.0
 49
0.0
 49
0.0
 49
0.0
 49
0.0208333333333333
 49
0.0
 49
0.0
 49
0.0
 49
0.0
 49
1.0
 49
0.0
 49
0.0
 49
0.0
 49
0.0
 49
1.0
175
     0
142
0.0208333333333333
142
0.0
142
0.0
142
0.0
142
0.0
142
0.0208333333333333
142
0.0
142
0.0
142
0.0
142
0.0
142
1.0
142
0.0
142
0.0
142
0.0
142
0.0
142
1.0
179
     0
144
0.0208333333333333
144
0.0
144
0.0
144
0.0
144
0.0
144
0.0208333333333333
144
0.0
144
0.0
144
0.0
144
0.0
144
1.0
144
0.0
144
0.0
144
0.0
144
0.0
144
1.0
147
0.0208333333333333
147
0.0
147
0.0
147
0.0
147
0.0
147
0.0208333333333333
147
0.0
147
0.0
147
0.0
147
0.0
147
1.0
147
0.0
147
0.0
147
0.0
147
0.0
147
1.0
  0
MLEADERSTYLE
  5
67
102
{ACAD_REACTORS
330
66
102
}
330
66
100
AcDbMLeaderStyle
179
     2
170
     2
171
     1
172
     0
 90
        2
 40
0.0
 41
0.0
173
     1
 91
-1056964608
340
5B
 92
       -2
290
     1
 42
0.09
291
     1
 43
0.36
  3
Standard
 44
0.18
300

342
55
174
     1
178
     6
175
     1
176
     0
 93
-1056964608
 45
0.18
292
     0
297
     0
 46
0.18
 94
-1056964608
 47
1.0
 49
1.0
140
1.0
293
     1
141
0.0
294
     1
177
     0
142
1.0
295
     0
296
     0
143
0.125
271
     0
272
     9
273
     9
298
     1
  0
MLINESTYLE
  5
60
102
{ACAD_REACTORS
330
5F
102
}
330
5F
100
AcDbMlineStyle
  2
STANDARD
 70
     0
  3

 62
   256
 51
90.0
 52
90.0
 71
     2
 49
0.5
 62
   256
  6
BYLAYER
 49
-0.5
 62
   256
  6
BYLAYER
  0
ACDBPLACEHOLDER
  5
F
102
{ACAD_REACTORS
330
E
102
}
330
E
  0
SCALE
  5
43
102
{ACAD_REACTORS
330
42
102
}
330
42
100
AcDbScale
 70
     0
300
1:1
140
1.0
141
1.0
290
     1
  0
SCALE
  5
44
102
{ACAD_REACTORS
330
42
102
}
330
42
100
AcDbScale
 70
     0
300
1/128" = 1'-0"
140
0.0078125
141
12.0
290
     0
  0
SCALE
  5
45
102
{ACAD_REACTORS
330
42
102
}
330
42
100
AcDbScale
 70
     0
300
1/64" = 1'-0"
140
0.015625
141
12.0
290
     0
  0
SCALE
  5
46
102
{ACAD_REACTORS
330
42
102
}
330
42
100
AcDbScale
 70
     0
300
1/32" = 1'-0"
140
0.03125
141
12.0
290
     0
  0
SCALE
  5
47
102
{ACAD_REACTORS
330
42
102
}
330
42
100
AcDbScale
 70
     0
300
1/16" = 1'-0"
140
0.0625
141
12.0
290
     0
  0
SCALE
  5
48
102
{ACAD_REACTORS
330
42
102
}
330
42
100
AcDbScale
 70
     0
300
3/32" = 1'-0"
140
0.09375
141
12.0
290
     0
  0
SCALE
  5
49
102
{ACAD_REACTORS
330
42
102
}
330
42
100
AcDbScale
 70
     0
300
1/8" = 1'-0"
140
0.125
141
12.0
290
     0
  0
SCALE
  5
4A
102
{ACAD_REACTORS
330
42
102
}
330
42
100
AcDbScale
 70
     0
300
3/16" = 1'-0"
140
0.1875
141
12.0
290
     0
  0
SCALE
  5
4B
102
{ACAD_REACTORS
330
42
102
}
330
42
100
AcDbScale
 70
     0
300
1/4" = 1'-0"
140
0.25
141
12.0
290
     0
  0
SCALE
  5
4C
102
{ACAD_REACTORS
330
42
102
}
330
42
100
AcDbScale
 70
     0
300
3/8" = 1'-0"
140
0.375
141
12.0
290
     0
  0
SCALE
  5
4D
102
{ACAD_REACTORS
330
42
102
}
330
42
100
AcDbScale
 70
     0
300
1/2" = 1'-0"
140
0.5
141
12.0
290
     0
  0
SCALE
  5
4E
102
{ACAD_REACTORS
330
42
102
}
330
42
100
AcDbScale
 70
     0
300
3/4" = 1'-0"
140
0.75
141
12.0
290
     0
  0
SCALE
  5
4F
102
{ACAD_REACTORS
330
42
102
}
330
42
100
AcDbScale
 70
     0
300
1" = 1'-0"
140
1.0
141
12.0
290
     0
  0
SCALE
  5
50
102
{ACAD_REACTORS
330
42
102
}
330
42
100
AcDbScale
 70
     0
300
1-1/2" = 1'-0"
140
1.5
141
12.0
290
     0
  0
SCALE
  5
51
102
{ACAD_REACTORS
330
42
102
}
330
42
100
AcDbScale
 70
     0
300
3" = 1'-0"
140
3.0
141
12.0
290
     0
  0
SCALE
  5
52
102
{ACAD_REACTORS
330
42
102
}
330
42
100
AcDbScale
 70
     0
300
6" = 1'-0"
140
6.0
141
12.0
290
     0
  0
SCALE
  5
53
102
{ACAD_REACTORS
330
42
102
}
330
42
100
AcDbScale
 70
     0
300
1'-0" = 1'-0"
140
12.0
141
12.0
290
     0
  0
ACDBSECTIONVIEWSTYLE
  5
69
102
{ACAD_XDICTIONARY
360
10B
102
}
102
{ACAD_REACTORS
330
68
102
}
330
68
100
AcDbModelDocViewStyle
 70
     0
  3
Imperial24
290
     0
100
AcDbSectionViewStyle
 70
     0
 71
     0
 90
       78
 71
     1
340
55
 62
   256
 40
0.24
340
0
340
0
 62
   256
 40
0.24
300
I, O, Q, S, X, Z
 40
0.48
 90
        3
 40
0.18
 90
        1
 71
     2
340
5D
 90
       25
 62
   256
340
5D
 90
       50
 62
   256
 40
0.24
 40
0.0
 40
0.24
 71
     3
340
55
 62
   256
 40
0.24
 90
        1
 40
0.75
 90
        1
300
%<\AcVar ViewType \f "%tc1">% %<\AcVar ViewSectionStartId>%-%<\AcVar ViewSectionEndId>%\PSCALE %<\AcVar ViewScale \f "%sn">%
 71
     4
 62
   256
 62
   257
300
ANSI31
 40
1.0
 90
        0
290
     0
290
     0
 90
        6
 40
0.0
 40
1.570796326794896
 40
0.2617993877991494
 40
1.308996938995747
 40
-0.2617993877991494
 40
1.832595714594046
  0
TABLESTYLE
  5
65
102
{ACAD_XDICTIONARY
360
108
102
}
102
{ACAD_REACTORS
330
64
102
}
330
64
100
AcDbTableStyle
280
     0
  3
Standard
 70
     0
 71
     0
 40
0.06
 41
0.06
280
     0
281
     0
  7
Standard
140
0.18
170
     2
 62
     0
 63
     7
283
     0
 90
      512
 91
        0
  1

274
    -2
284
     1
 64
     0
275
    -2
285
     1
 65
     0
276
    -2
286
     1
 66
     0
277
    -2
287
     1
 67
     0
278
    -2
288
     1
 68
     0
279
    -2
289
     1
 69
     0
  7
Standard
140
0.25
170
     5
 62
     0
 63
     7
283
     0
 90
      512
 91
        0
  1

274
    -2
284
     1
 64
     0
275
    -2
285
     1
 65
     0
276
    -2
286
     1
 66
     0
277
    -2
287
     1
 67
     0
278
    -2
288
     1
 68
     0
279
    -2
289
     1
 69
     0
  7
Standard
140
0.18
170
     5
 62
     0
 63
     7
283
     0
 90
      512
 91
        0
  1

274
    -2
284
     1
 64
     0
275
    -2
285
     1
 65
     0
276
    -2
286
     1
 66
     0
277
    -2
287
     1
 67
     0
278
    -2
288
     1
 68
     0
279
    -2
289
     1
 69
     0
  0
VISUALSTYLE
  5
2F
102
{ACAD_REACTORS
330
29
102
}
330
29
100
AcDbVisualStyle
  2
2dWireframe
 70
     4
177
     3
291
     0
 70
    58
 90
        0
176
     1
 90
        2
176
     1
 90
        0
176
     1
 90
        0
176
     1
 40
0.6
176
     1
 40
30.0
176
     1
 62
     7
420
 16777215
176
     1
 90
        1
176
     1
 90
        4
176
     1
 62
     7
176
     1
 62
   257
176
     1
 90
        1
176
     1
 90
        1
176
     1
 40
1.0
176
     1
 90
        0
176
     1
 62
   257
176
     1
 40
1.0
176
     1
 90
        1
176
     1
 90
        6
176
     1
 90
        2
176
     1
 62
     7
176
     1
 90
        5
176
     1
 90
        0
176
     1
 90
        0
176
     1
290
     0
176
     1
 90
        1
176
     1
 40
0.0
176
     1
 90
        0
176
     1
290
     1
176
     1
290
     1
176
     1
290
     0
176
     1
290
     0
176
     1
290
     0
176
     1
290
     0
176
     1
290
     0
176
     1
290
     0
176
     1
290
     0
176
     1
 90
       50
176
     1
 40
0.0
176
     1
 40
1.0
176
     1
 90
        0
176
     1
 62
    18
420
        0
176
     1
 90
       50
176
     1
 90
        3
176
     1
 62
     5
420
      255
176
     1
290
     0
176
     1
 90
       50
176
     1
 90
       50
176
     1
 90
       50
176
     1
290
     0
176
     1
 90
       50
176
     1
 62
   256
176
     0
 40
1.0
176
     0
 90
        2
176
     1
  1
strokes_ogs.tif
176
     1
290
     0
176
     1
 40
1.0
176
     1
 40
1.0
176
     1
1001
ACAD
1000
AcDbSavedByObjectVersion
1070
     0
  0
VISUALSTYLE
  5
2E
102
{ACAD_REACTORS
330
29
102
}
330
29
100
AcDbVisualStyle
  2
Basic
 70
     7
177
     3
291
     1
 70
    58
 90
        1
176
     1
 90
        0
176
     1
 90
        1
176
     1
 90
        0
176
     1
 40
0.6
176
     1
 40
30.0
176
     1
 62
     7
420
 16777215
176
     1
 90
        0
176
     1
 90
        4
176
     1
 62
     7
176
     1
 62
   257
176
     1
 90
        1
176
     1
 90
        1
176
     1
 40
1.0
176
     1
 90
        8
176
     1
 62
     7
176
     1
 40
1.0
176
     1
 90
        1
176
     1
 90
        6
176
     1
 90
        2
176
     1
 62
     7
176
     1
 90
        5
176
     1
 90
        0
176
     1
 90
        0
176
     1
290
     0
176
     1
 90
        1
176
     1
 40
0.0
176
     1
 90
        0
176
     1
290
     0
176
     1
290
     1
176
     1
290
     1
176
     1
290
     0
176
     1
290
     0
176
     1
290
     0
176
     1
290
     0
176
     1
290
     0
176
     1
290
     0
176
     1
 90
       50
176
     1
 40
0.0
176
     1
 40
1.0
176
     1
 90
        0
176
     1
 62
    18
420
        0
176
     1
 90
       50
176
     1
 90
        3
176
     1
 62
     5
420
      255
176
     1
290
     0
176
     1
 90
       50
176
     1
 90
       50
176
     1
 90
       50
176
     1
290
     0
176
     1
 90
       50
176
     1
 62
   256
176
     0
 40
1.0
176
     0
 90
        2
176
     1
  1
strokes_ogs.tif
176
     1
290
     0
176
     1
 40
1.0
176
     1
 40
1.0
176
     1
1001
ACAD
1000
AcDbSavedByObjectVersion
1070
     0
  0
VISUALSTYLE
  5
35
102
{ACAD_REACTORS
330
29
102
}
330
29
100
AcDbVisualStyle
  2
Brighten
 70
    12
177
     3
291
     1
 70
    58
 90
        2
176
     1
 90
        2
176
     1
 90
        0
176
     1
 90
        0
176
     1
 40
0.6
176
     1
 40
30.0
176
     1
 62
     7
420
 16777215
176
     1
 90
        1
176
     1
 90
        4
176
     1
 62
     7
176
     1
 62
   257
176
     1
 90
        1
176
     1
 90
        1
176
     1
 40
1.0
176
     1
 90
        8
176
     1
 62
     7
176
     1
 40
1.0
176
     1
 90
        1
176
     1
 90
        6
176
     1
 90
        2
176
     1
 62
     7
176
     1
 90
        5
176
     1
 90
        0
176
     1
 90
        0
176
     1
290
     0
176
     1
 90
        1
176
     1
 40
50.0
176
     1
 90
        0
176
     1
290
     0
176
     1
290
     1
176
     1
290
     1
176
     1
290
     0
176
     1
290
     0
176
     1
290
     0
176
     1
290
     0
176
     1
290
     0
176
     1
290
     0
176
     1
 90
       50
176
     1
 40
0.0
176
     1
 40
1.0
176
     1
 90
        0
176
     1
 62
    18
420
        0
176
     1
 90
       50
176
     1
 90
        3
176
     1
 62
     5
420
      255
176
     1
290
     0
176
     1
 90
       50
176
     1
 90
       50
176
     1
 90
       50
176
     1
290
     0
176
     1
 90
       50
176
     1
 62
   256
176
     0
 40
1.0
176
     0
 90
        2
176
     1
  1
strokes_ogs.tif
176
     1
290
     0
176
     1
 40
1.0
176
     1
 40
1.0
176
     1
1001
ACAD
1000
AcDbSavedByObjectVersion
1070
     0
  0
VISUALSTYLE
  5
39
102
{ACAD_REACTORS
330
29
102
}
330
29
100
AcDbVisualStyle
  2
ColorChange
 70
    16
177
     3
291
     1
 70
    58
 90
        2
176
     1
 90
        2
176
     1
 90
        3
176
     1
 90
        0
176
     1
 40
0.6
176
     1
 40
30.0
176
     1
 62
     8
420
  8421504
176
     1
 90
        1
176
     1
 90
        4
176
     1
 62
     7
176
     1
 62
   257
176
     1
 90
        1
176
     1
 90
        1
176
     1
 40
1.0
176
     1
 90
        8
176
     1
 62
     8
420
  8421504
176
     1
 40
1.0
176
     1
 90
        1
176
     1
 90
        6
176
     1
 90
        2
176
     1
 62
     7
176
     1
 90
        5
176
     1
 90
        0
176
     1
 90
        0
176
     1
290
     0
176
     1
 90
        1
176
     1
 40
0.0
176
     1
 90
        0
176
     1
290
     0
176
     1
290
     1
176
     1
290
     1
176
     1
290
     0
176
     1
290
     0
176
     1
290
     0
176
     1
290
     0
176
     1
290
     0
176
     1
290
     0
176
     1
 90
       50
176
     1
 40
0.0
176
     1
 40
1.0
176
     1
 90
        0
176
     1
 62
    18
420
        0
176
     1
 90
       50
176
     1
 90
        3
176
     1
 62
     5
420
      255
176
     1
290
     0
176
     1
 90
       50
176
     1
 90
       50
176
     1
 90
       50
176
     1
290
     0
176
     1
 90
       50
176
     1
 62
   256
176
     0
 40
1.0
176
     0
 90
        2
176
     1
  1
strokes_ogs.tif
176
     1
290
     0
176
     1
 40
1.0
176
     1
 40
1.0
176
     1
1001
ACAD
1000
AcDbSavedByObjectVersion
1070
     0
  0
VISUALSTYLE
  5
32
102
{ACAD_REACTORS
330
29
102
}
330
29
100
AcDbVisualStyle
  2
Conceptual
 70
     9
177
     3
291
     0
 70
    58
 90
        3
176
     1
 90
        2
176
     1
 90
        0
176
     1
 90
        0
176
     1
 40
0.6
176
     1
 40
30.0
176
     1
 62
     7
420
 16777215
176
     1
 90
        2
176
     1
 90
        2
176
     1
 62
     7
176
     1
 62
   257
176
     1
 90
        1
176
     1
 90
        1
176
     1
 40
179.0
176
     1
 90
        8
176
     1
 62
     7
176
     1
 40
1.0
176
     1
 90
        1
176
     1
 90
        6
176
     1
 90
        2
176
     1
 62
     7
176
     1
 90
        3
176
     1
 90
        0
176
     1
 90
        0
176
     1
290
     0
176
     1
 90
        1
176
     1
 40
0.0
176
     1
 90
        0
176
     1
290
     0
176
     1
290
     1
176
     1
290
     1
176
     1
290
     0
176
     1
290
     0
176
     1
290
     0
176
     1
290
     0
176
     1
290
     0
176
     1
290
     0
176
     1
 90
       50
176
     1
 40
0.0
176
     1
 40
1.0
176
     1
 90
        0
176
     1
 62
    18
420
        0
176
     1
 90
       50
176
     1
 90
        3
176
     1
 62
     5
420
      255
176
     1
290
     0
176
     1
 90
       50
176
     1
 90
       50
176
     1
 90
       50
176
     1
290
     0
176
     1
 90
       50
176
     1
 62
   256
176
     0
 40
1.0
176
     0
 90
        2
176
     1
  1
strokes_ogs.tif
176
     1
290
     0
176
     1
 40
1.0
176
     1
 40
1.0
176
     1
1001
ACAD
1000
AcDbSavedByObjectVersion
1070
     0
  0
VISUALSTYLE
  5
34
102
{ACAD_REACTORS
330
29
102
}
330
29
100
AcDbVisualStyle
  2
Dim
 70
    11
177
     3
291
     1
 70
    58
 90
        2
176
     1
 90
        2
176
     1
 90
        0
176
     1
 90
        0
176
     1
 40
0.6
176
     1
 40
30.0
176
     1
 62
     7
420
 16777215
176
     1
 90
        1
176
     1
 90
        4
176
     1
 62
     7
176
     1
 62
   257
176
     1
 90
        1
176
     1
 90
        1
176
     1
 40
1.0
176
     1
 90
        8
176
     1
 62
     7
176
     1
 40
1.0
176
     1
 90
        1
176
     1
 90
        6
176
     1
 90
        2
176
     1
 62
     7
176
     1
 90
        5
176
     1
 90
        0
176
     1
 90
        0
176
     1
290
     0
176
     1
 90
        1
176
     1
 40
-50.0
176
     1
 90
        0
176
     1
290
     0
176
     1
290
     1
176
     1
290
     1
176
     1
290
     0
176
     1
290
     0
176
     1
290
     0
176
     1
290
     0
176
     1
290
     0
176
     1
290
     0
176
     1
 90
       50
176
     1
 40
0.0
176
     1
 40
1.0
176
     1
 90
        0
176
     1
 62
    18
420
        0
176
     1
 90
       50
176
     1
 90
        3
176
     1
 62
     5
420
      255
176
     1
290
     0
176
     1
 90
       50
176
     1
 90
       50
176
     1
 90
       50
176
     1
290
     0
176
     1
 90
       50
176
     1
 62
   256
176
     0
 40
1.0
176
     0
 90
        2
176
     1
  1
strokes_ogs.tif
176
     1
290
     0
176
     1
 40
1.0
176
     1
 40
1.0
176
     1
1001
ACAD
1000
AcDbSavedByObjectVersion
1070
     0
  0
VISUALSTYLE
  5
41
102
{ACAD_REACTORS
330
29
102
}
330
29
100
AcDbVisualStyle
  2
EdgeColorOff
 70
    22
177
     3
291
     1
 70
    58
 90
        2
176
     0
 90
        2
176
     0
 90
        0
176
     0
 90
        0
176
     0
 40
0.6
176
     0
 40
30.0
176
     0
 62
     7
420
 16777215
176
     0
 90
        1
176
     0
 90
        4
176
     0
 62
     7
176
     0
 62
   257
176
     0
 90
        1
176
     0
 90
        1
176
     0
 40
1.0
176
     0
 90
        8
176
     2
 62
     7
176
     0
 40
1.0
176
     0
 90
        1
176
     0
 90
        6
176
     0
 90
        2
176
     0
 62
     7
176
     0
 90
        5
176
     0
 90
        0
176
     0
 90
        0
176
     0
290
     0
176
     0
 90
        1
176
     0
 40
0.0
176
     0
 90
        0
176
     0
290
     0
176
     0
290
     1
176
     0
290
     1
176
     0
290
     0
176
     0
290
     0
176
     0
290
     0
176
     0
290
     0
176
     0
290
     0
176
     0
290
     0
176
     0
 90
       50
176
     0
 40
0.0
176
     0
 40
1.0
176
     0
 90
        0
176
     0
 62
    18
420
        0
176
     0
 90
       50
176
     0
 90
        3
176
     0
 62
     5
420
      255
176
     0
290
     0
176
     0
 90
       50
176
     0
 90
       50
176
     0
 90
       50
176
     0
290
     0
176
     0
 90
       50
176
     0
 62
   256
176
     0
 40
1.0
176
     0
 90
        2
176
     0
  1
strokes_ogs.tif
176
     0
290
     0
176
     0
 40
1.0
176
     0
 40
1.0
176
     0
1001
ACAD
1000
AcDbSavedByObjectVersion
1070
     0
  0
VISUALSTYLE
  5
38
102
{ACAD_REACTORS
330
29
102
}
330
29
100
AcDbVisualStyle
  2
Facepattern
 70
    15
177
     3
291
     1
 70
    58
 90
        2
176
     1
 90
        2
176
     1
 90
        0
176
     1
 90
        0
176
     1
 40
0.6
176
     1
 40
30.0
176
     1
 62
     7
420
 16777215
176
     1
 90
        1
176
     1
 90
        4
176
     1
 62
     7
176
     1
 62
   257
176
     1
 90
        1
176
     1
 90
        1
176
     1
 40
1.0
176
     1
 90
        8
176
     1
 62
     7
176
     1
 40
1.0
176
     1
 90
        1
176
     1
 90
        6
176
     1
 90
        2
176
     1
 62
     7
176
     1
 90
        5
176
     1
 90
        0
176
     1
 90
        0
176
     1
290
     0
176
     1
 90
        1
176
     1
 40
0.0
176
     1
 90
        0
176
     1
290
     0
176
     1
290
     1
176
     1
290
     1
176
     1
290
     0
176
     1
290
     0
176
     1
290
     0
176
     1
290
     0
176
     1
290
     0
176
     1
290
     0
176
     1
 90
       50
176
     1
 40
0.0
176
     1
 40
1.0
176
     1
 90
        0
176
     1
 62
    18
420
        0
176
     1
 90
       50
176
     1
 90
        3
176
     1
 62
     5
420
      255
176
     1
290
     0
176
     1
 90
       50
176
     1
 90
       50
176
     1
 90
       50
176
     1
290
     0
176
     1
 90
       50
176
     1
 62
   256
176
     0
 40
1.0
176
     0
 90
        2
176
     1
  1
strokes_ogs.tif
176
     1
290
     0
176
     1
 40
1.0
176
     1
 40
1.0
176
     1
1001
ACAD
1000
AcDbSavedByObjectVersion
1070
     0
  0
VISUALSTYLE
  5
2A
102
{ACAD_REACTORS
330
29
102
}
330
29
100
AcDbVisualStyle
  2
Flat
 70
     0
177
     3
291
     1
 70
    58
 90
        2
176
     1
 90
        1
176
     1
 90
        1
176
     1
 90
        2
176
     1
 40
0.6
176
     1
 40
30.0
176
     1
 62
     7
420
 16777215
176
     1
 90
        0
176
     1
 90
        0
176
     1
 62
     7
176
     1
 62
   257
176
     1
 90
        1
176
     1
 90
        1
176
     1
 40
1.0
176
     1
 90
        8
176
     1
 62
     7
176
     1
 40
1.0
176
     1
 90
        1
176
     1
 90
        6
176
     1
 90
        2
176
     1
 62
     7
176
     1
 90
        5
176
     1
 90
        0
176
     1
 90
        0
176
     1
290
     0
176
     1
 90
       13
176
     1
 40
0.0
176
     1
 90
        0
176
     1
290
     0
176
     1
290
     1
176
     1
290
     1
176
     1
290
     0
176
     1
290
     0
176
     1
290
     0
176
     1
290
     0
176
     1
290
     0
176
     1
290
     0
176
     1
 90
       50
176
     1
 40
0.0
176
     1
 40
1.0
176
     1
 90
        0
176
     1
 62
    18
420
        0
176
     1
 90
       50
176
     1
 90
        3
176
     1
 62
     5
420
      255
176
     1
290
     0
176
     1
 90
       50
176
     1
 90
       50
176
     1
 90
       50
176
     1
290
     0
176
     1
 90
       50
176
     1
 62
   256
176
     0
 40
1.0
176
     0
 90
        2
176
     1
  1
strokes_ogs.tif
176
     1
290
     0
176
     1
 40
1.0
176
     1
 40
1.0
176
     1
1001
ACAD
1000
AcDbSavedByObjectVersion
1070
     0
  0
VISUALSTYLE
  5
2B
102
{ACAD_REACTORS
330
29
102
}
330
29
100
AcDbVisualStyle
  2
FlatWithEdges
 70
     1
177
     3
291
     1
 70
    58
 90
        2
176
     1
 90
        1
176
     1
 90
        1
176
     1
 90
        2
176
     1
 40
0.6
176
     1
 40
30.0
176
     1
 62
     7
420
 16777215
176
     1
 90
        1
176
     1
 90
        0
176
     1
 62
     7
176
     1
 62
   257
176
     1
 90
        1
176
     1
 90
        1
176
     1
 40
1.0
176
     1
 90
        0
176
     1
 62
   257
176
     1
 40
1.0
176
     1
 90
        1
176
     1
 90
        6
176
     1
 90
        2
176
     1
 62
     7
176
     1
 90
        5
176
     1
 90
        0
176
     1
 90
        0
176
     1
290
     0
176
     1
 90
       13
176
     1
 40
0.0
176
     1
 90
        0
176
     1
290
     0
176
     1
290
     1
176
     1
290
     1
176
     1
290
     0
176
     1
290
     0
176
     1
290
     0
176
     1
290
     0
176
     1
290
     0
176
     1
290
     0
176
     1
 90
       50
176
     1
 40
0.0
176
     1
 40
1.0
176
     1
 90
        0
176
     1
 62
    18
420
        0
176
     1
 90
       50
176
     1
 90
        3
176
     1
 62
     5
420
      255
176
     1
290
     0
176
     1
 90
       50
176
     1
 90
       50
176
     1
 90
       50
176
     1
290
     0
176
     1
 90
       50
176
     1
 62
   256
176
     0
 40
1.0
176
     0
 90
        2
176
     1
  1
strokes_ogs.tif
176
     1
290
     0
176
     1
 40
1.0
176
     1
 40
1.0
176
     1
1001
ACAD
1000
AcDbSavedByObjectVersion
1070
     0
  0
VISUALSTYLE
  5
2C
102
{ACAD_REACTORS
330
29
102
}
330
29
100
AcDbVisualStyle
  2
Gouraud
 70
     2
177
     3
291
     1
 70
    58
 90
        2
176
     1
 90
        2
176
     1
 90
        1
176
     1
 90
        2
176
     1
 40
0.6
176
     1
 40
30.0
176
     1
 62
     7
420
 16777215
176
     1
 90
        0
176
     1
 90
        0
176
     1
 62
     7
176
     1
 62
   257
176
     1
 90
        1
176
     1
 90
        1
176
     1
 40
1.0
176
     1
 90
        0
176
     1
 62
     7
176
     1
 40
1.0
176
     1
 90
        1
176
     1
 90
        6
176
     1
 90
        2
176
     1
 62
     7
176
     1
 90
        5
176
     1
 90
        0
176
     1
 90
        0
176
     1
290
     0
176
     1
 90
       13
176
     1
 40
0.0
176
     1
 90
        0
176
     1
290
     0
176
     1
290
     1
176
     1
290
     1
176
     1
290
     0
176
     1
290
     0
176
     1
290
     0
176
     1
290
     0
176
     1
290
     0
176
     1
290
     0
176
     1
 90
       50
176
     1
 40
0.0
176
     1
 40
1.0
176
     1
 90
        0
176
     1
 62
    18
420
        0
176
     1
 90
       50
176
     1
 90
        3
176
     1
 62
     5
420
      255
176
     1
290
     0
176
     1
 90
       50
176
     1
 90
       50
176
     1
 90
       50
176
     1
290
     0
176
     1
 90
       50
176
     1
 62
   256
176
     0
 40
1.0
176
     0
 90
        2
176
     1
  1
strokes_ogs.tif
176
     1
290
     0
176
     1
 40
1.0
176
     1
 40
1.0
176
     1
1001
ACAD
1000
AcDbSavedByObjectVersion
1070
     0
  0
VISUALSTYLE
  5
2D
102
{ACAD_REACTORS
330
29
102
}
330
29
100
AcDbVisualStyle
  2
GouraudWithEdges
 70
     3
177
     3
291
     1
 70
    58
 90
        2
176
     1
 90
        2
176
     1
 90
        1
176
     1
 90
        2
176
     1
 40
0.6
176
     1
 40
30.0
176
     1
 62
     7
420
 16777215
176
     1
 90
        1
176
     1
 90
        0
176
     1
 62
     7
176
     1
 62
   257
176
     1
 90
        1
176
     1
 90
        1
176
     1
 40
1.0
176
     1
 90
        0
176
     1
 62
   257
176
     1
 40
1.0
176
     1
 90
        1
176
     1
 90
        6
176
     1
 90
        2
176
     1
 62
     7
176
     1
 90
        5
176
     1
 90
        0
176
     1
 90
        0
176
     1
290
     0
176
     1
 90
       13
176
     1
 40
0.0
176
     1
 90
        0
176
     1
290
     0
176
     1
290
     1
176
     1
290
     1
176
     1
290
     0
176
     1
290
     0
176
     1
290
     0
176
     1
290
     0
176
     1
290
     0
176
     1
290
     0
176
     1
 90
       50
176
     1
 40
0.0
176
     1
 40
1.0
176
     1
 90
        0
176
     1
 62
    18
420
        0
176
     1
 90
       50
176
     1
 90
        3
176
     1
 62
     5
420
      255
176
     1
290
     0
176
     1
 90
       50
176
     1
 90
       50
176
     1
 90
       50
176
     1
290
     0
176
     1
 90
       50
176
     1
 62
   256
176
     0
 40
1.0
176
     0
 90
        2
176
     1
  1
strokes_ogs.tif
176
     1
290
     0
176
     1
 40
1.0
176
     1
 40
1.0
176
     1
1001
ACAD
1000
AcDbSavedByObjectVersion
1070
     0
  0
VISUALSTYLE
  5
31
102
{ACAD_REACTORS
330
29
102
}
330
29
100
AcDbVisualStyle
  2
Hidden
 70
     6
177
     3
291
     0
 70
    58
 90
        1
176
     1
 90
        2
176
     1
 90
        2
176
     1
 90
        0
176
     1
 40
0.6
176
     1
 40
30.0
176
     1
 62
     7
420
 16777215
176
     1
 90
        2
176
     1
 90
        2
176
     1
 62
     7
176
     1
 62
   257
176
     1
 90
        2
176
     1
 90
        1
176
     1
 40
40.0
176
     1
 90
        0
176
     1
 62
   257
176
     1
 40
1.0
176
     1
 90
        1
176
     1
 90
        6
176
     1
 90
        2
176
     1
 62
     7
176
     1
 90
        3
176
     1
 90
        0
176
     1
 90
        0
176
     1
290
     0
176
     1
 90
        1
176
     1
 40
0.0
176
     1
 90
        0
176
     1
290
     0
176
     1
290
     1
176
     1
290
     1
176
     1
290
     0
176
     1
290
     0
176
     1
290
     0
176
     1
290
     0
176
     1
290
     0
176
     1
290
     0
176
     1
 90
       50
176
     1
 40
0.0
176
     1
 40
1.0
176
     1
 90
        0
176
     1
 62
    18
420
        0
176
     1
 90
       50
176
     1
 90
        3
176
     1
 62
     5
420
      255
176
     1
290
     0
176
     1
 90
       50
176
     1
 90
       50
176
     1
 90
       50
176
     1
290
     0
176
     1
 90
       50
176
     1
 62
   256
176
     0
 40
1.0
176
     0
 90
        2
176
     1
  1
strokes_ogs.tif
176
     1
290
     0
176
     1
 40
1.0
176
     1
 40
1.0
176
     1
1001
ACAD
1000
AcDbSavedByObjectVersion
1070
     0
  0
VISUALSTYLE
  5
3F
102
{ACAD_REACTORS
330
29
102
}
330
29
100
AcDbVisualStyle
  2
JitterOff
 70
    20
177
     3
291
     1
 70
    58
 90
        2
176
     0
 90
        2
176
     0
 90
        0
176
     0
 90
        0
176
     0
 40
0.6
176
     0
 40
30.0
176
     0
 62
     7
420
 16777215
176
     0
 90
        1
176
     0
 90
        4
176
     0
 62
     7
176
     0
 62
   257
176
     0
 90
        1
176
     0
 90
        1
176
     0
 40
1.0
176
     0
 90
       10
176
     2
 62
     7
176
     0
 40
1.0
176
     0
 90
        1
176
     0
 90
        6
176
     0
 90
        2
176
     0
 62
     7
176
     0
 90
        5
176
     0
 90
        0
176
     0
 90
        0
176
     0
290
     0
176
     0
 90
        1
176
     0
 40
0.0
176
     0
 90
        0
176
     0
290
     0
176
     0
290
     1
176
     0
290
     1
176
     0
290
     0
176
     0
290
     0
176
     0
290
     0
176
     0
290
     0
176
     0
290
     0
176
     0
290
     0
176
     0
 90
       50
176
     0
 40
0.0
176
     0
 40
1.0
176
     0
 90
        0
176
     0
 62
    18
420
        0
176
     0
 90
       50
176
     0
 90
        3
176
     0
 62
     5
420
      255
176
     0
290
     0
176
     0
 90
       50
176
     0
 90
       50
176
     0
 90
       50
176
     0
290
     0
176
     0
 90
       50
176
     0
 62
   256
176
     0
 40
1.0
176
     0
 90
        2
176
     0
  1
strokes_ogs.tif
176
     0
290
     0
176
     0
 40
1.0
176
     0
 40
1.0
176
     0
1001
ACAD
1000
AcDbSavedByObjectVersion
1070
     0
  0
VISUALSTYLE
  5
37
102
{ACAD_REACTORS
330
29
102
}
330
29
100
AcDbVisualStyle
  2
Linepattern
 70
    14
177
     3
291
     1
 70
    58
 90
        2
176
     1
 90
        2
176
     1
 90
        0
176
     1
 90
        0
176
     1
 40
0.6
176
     1
 40
30.0
176
     1
 62
     7
420
 16777215
176
     1
 90
        1
176
     1
 90
        4
176
     1
 62
     7
176
     1
 62
   257
176
     1
 90
        7
176
     1
 90
        7
176
     1
 40
1.0
176
     1
 90
        8
176
     1
 62
     7
176
     1
 40
1.0
176
     1
 90
        1
176
     1
 90
        6
176
     1
 90
        2
176
     1
 62
     7
176
     1
 90
        5
176
     1
 90
        0
176
     1
 90
        0
176
     1
290
     0
176
     1
 90
        1
176
     1
 40
0.0
176
     1
 90
        0
176
     1
290
     0
176
     1
290
     1
176
     1
290
     1
176
     1
290
     0
176
     1
290
     0
176
     1
290
     0
176
     1
290
     0
176
     1
290
     0
176
     1
290
     0
176
     1
 90
       50
176
     1
 40
0.0
176
     1
 40
1.0
176
     1
 90
        0
176
     1
 62
    18
420
        0
176
     1
 90
       50
176
     1
 90
        3
176
     1
 62
     5
420
      255
176
     1
290
     0
176
     1
 90
       50
176
     1
 90
       50
176
     1
 90
       50
176
     1
290
     0
176
     1
 90
       50
176
     1
 62
   256
176
     0
 40
1.0
176
     0
 90
        2
176
     1
  1
strokes_ogs.tif
176
     1
290
     0
176
     1
 40
1.0
176
     1
 40
1.0
176
     1
1001
ACAD
1000
AcDbSavedByObjectVersion
1070
     0
  0
VISUALSTYLE
  5
40
102
{ACAD_REACTORS
330
29
102
}
330
29
100
AcDbVisualStyle
  2
OverhangOff
 70
    21
177
     3
291
     1
 70
    58
 90
        2
176
     0
 90
        2
176
     0
 90
        0
176
     0
 90
        0
176
     0
 40
0.6
176
     0
 40
30.0
176
     0
 62
     7
420
 16777215
176
     0
 90
        1
176
     0
 90
        4
176
     0
 62
     7
176
     0
 62
   257
176
     0
 90
        1
176
     0
 90
        1
176
     0
 40
1.0
176
     0
 90
        9
176
     2
 62
     7
176
     0
 40
1.0
176
     0
 90
        1
176
     0
 90
        6
176
     0
 90
        2
176
     0
 62
     7
176
     0
 90
        5
176
     0
 90
        0
176
     0
 90
        0
176
     0
290
     0
176
     0
 90
        1
176
     0
 40
0.0
176
     0
 90
        0
176
     0
290
     0
176
     0
290
     1
176
     0
290
     1
176
     0
290
     0
176
     0
290
     0
176
     0
290
     0
176
     0
290
     0
176
     0
290
     0
176
     0
290
     0
176
     0
 90
       50
176
     0
 40
0.0
176
     0
 40
1.0
176
     0
 90
        0
176
     0
 62
    18
420
        0
176
     0
 90
       50
176
     0
 90
        3
176
     0
 62
     5
420
      255
176
     0
290
     0
176
     0
 90
       50
176
     0
 90
       50
176
     0
 90
       50
176
     0
290
     0
176
     0
 90
       50
176
     0
 62
   256
176
     0
 40
1.0
176
     0
 90
        2
176
     0
  1
strokes_ogs.tif
176
     0
290
     0
176
     0
 40
1.0
176
     0
 40
1.0
176
     0
1001
ACAD
1000
AcDbSavedByObjectVersion
1070
     0
  0
VISUALSTYLE
  5
33
102
{ACAD_REACTORS
330
29
102
}
330
29
100
AcDbVisualStyle
  2
Realistic
 70
     8
177
     3
291
     0
 70
    58
 90
        2
176
     1
 90
        3
176
     1
 90
        0
176
     1
 90
        2
176
     1
 40
0.6
176
     1
 40
30.0
176
     1
 62
     7
420
 16777215
176
     1
 90
        0
176
     1
 90
        0
176
     1
 62
     7
176
     1
 62
   257
176
     1
 90
        1
176
     1
 90
        1
176
     1
 40
1.0
176
     1
 90
        8
176
     1
 62
   257
176
     1
 40
1.0
176
     1
 90
        1
176
     1
 90
        6
176
     1
 90
        2
176
     1
 62
     7
176
     1
 90
        3
176
     1
 90
        0
176
     1
 90
        0
176
     1
290
     0
176
     1
 90
       13
176
     1
 40
0.0
176
     1
 90
        0
176
     1
290
     0
176
     1
290
     1
176
     1
290
     1
176
     1
290
     0
176
     1
290
     0
176
     1
290
     0
176
     1
290
     0
176
     1
290
     0
176
     1
290
     0
176
     1
 90
       50
176
     1
 40
0.0
176
     1
 40
1.0
176
     1
 90
        0
176
     1
 62
    18
420
        0
176
     1
 90
       50
176
     1
 90
        3
176
     1
 62
     5
420
      255
176
     1
290
     0
176
     1
 90
       50
176
     1
 90
       50
176
     1
 90
       50
176
     1
290
     0
176
     1
 90
       50
176
     1
 62
   256
176
     0
 40
1.0
176
     0
 90
        2
176
     1
  1
strokes_ogs.tif
176
     1
290
     0
176
     1
 40
1.0
176
     1
 40
1.0
176
     1
1001
ACAD
1000
AcDbSavedByObjectVersion
1070
     0
  0
VISUALSTYLE
  5
3E
102
{ACAD_REACTORS
330
29
102
}
330
29
100
AcDbVisualStyle
  2
Shaded
 70
    27
177
     3
291
     0
 70
    58
 90
        2
176
     1
 90
        2
176
     1
 90
        1
176
     1
 90
        2
176
     1
 40
0.6
176
     1
 40
30.0
176
     1
 62
     7
420
 16777215
176
     1
 90
        0
176
     1
 90
        4
176
     1
 62
     7
176
     1
 62
   257
176
     1
 90
        1
176
     1
 90
        1
176
     1
 40
1.0
176
     1
 90
        8
176
     1
 62
   257
176
     1
 40
1.0
176
     1
 90
        1
176
     1
 90
        6
176
     1
 90
        2
176
     1
 62
     8
420
  7895160
176
     1
 90
        3
176
     1
 90
        0
176
     1
 90
        0
176
     1
290
     0
176
     1
 90
        5
176
     1
 40
0.0
176
     1
 90
        0
176
     1
290
     0
176
     1
290
     1
176
     1
290
     1
176
     1
290
     0
176
     1
290
     0
176
     1
290
     0
176
     1
290
     0
176
     1
290
     0
176
     1
290
     0
176
     1
 90
       50
176
     1
 40
0.0
176
     1
 40
1.0
176
     1
 90
        0
176
     1
 62
    18
420
        0
176
     1
 90
       50
176
     1
 90
        3
176
     1
 62
     5
420
      255
176
     1
290
     0
176
     1
 90
       50
176
     1
 90
       50
176
     1
 90
       50
176
     1
290
     0
176
     1
 90
       50
176
     1
 62
   256
176
     0
 40
1.0
176
     0
 90
        2
176
     1
  1
strokes_ogs.tif
176
     1
290
     0
176
     1
 40
1.0
176
     1
 40
1.0
176
     1
1001
ACAD
1000
AcDbSavedByObjectVersion
1070
     0
  0
VISUALSTYLE
  5
3D
102
{ACAD_REACTORS
330
29
102
}
330
29
100
AcDbVisualStyle
  2
Shaded with edges
 70
    26
177
     3
291
     0
 70
    58
 90
        2
176
     1
 90
        2
176
     1
 90
        1
176
     1
 90
        2
176
     1
 40
0.6
176
     1
 40
30.0
176
     1
 62
     7
420
 16777215
176
     1
 90
        1
176
     1
 90
        2
176
     1
 62
     7
176
     1
 62
   257
176
     1
 90
        2
176
     1
 90
        1
176
     1
 40
1.0
176
     1
 90
        8
176
     1
 62
   257
176
     1
 40
1.0
176
     1
 90
        1
176
     1
 90
        6
176
     1
 90
        2
176
     1
 62
     7
176
     1
 90
        3
176
     1
 90
        0
176
     1
 90
        0
176
     1
290
     0
176
     1
 90
        5
176
     1
 40
0.0
176
     1
 90
        0
176
     1
290
     0
176
     1
290
     1
176
     1
290
     1
176
     1
290
     0
176
     1
290
     0
176
     1
290
     0
176
     1
290
     0
176
     1
290
     0
176
     1
290
     0
176
     1
 90
       50
176
     1
 40
0.0
176
     1
 40
1.0
176
     1
 90
        0
176
     1
 62
    18
420
        0
176
     1
 90
       50
176
     1
 90
        3
176
     1
 62
     5
420
      255
176
     1
290
     0
176
     1
 90
       50
176
     1
 90
       50
176
     1
 90
       50
176
     1
290
     0
176
     1
 90
       50
176
     1
 62
   256
176
     0
 40
1.0
176
     0
 90
        2
176
     1
  1
strokes_ogs.tif
176
     1
290
     0
176
     1
 40
1.0
176
     1
 40
1.0
176
     1
1001
ACAD
1000
AcDbSavedByObjectVersion
1070
     0
  0
VISUALSTYLE
  5
3A
102
{ACAD_REACTORS
330
29
102
}
330
29
100
AcDbVisualStyle
  2
Shades of Gray
 70
    23
177
     3
291
     0
 70
    58
 90
        2
176
     1
 90
        2
176
     1
 90
        3
176
     1
 90
        0
176
     1
 40
0.6
176
     1
 40
30.0
176
     1
 62
     7
420
 16777215
176
     1
 90
        2
176
     1
 90
        2
176
     1
 62
     7
176
     1
 62
     7
176
     1
 90
        1
176
     1
 90
        1
176
     1
 40
40.0
176
     1
 90
        8
176
     1
 62
     7
176
     1
 40
1.0
176
     1
 90
        1
176
     1
 90
        6
176
     1
 90
        2
176
     1
 62
     7
176
     1
 90
        3
176
     1
 90
        0
176
     1
 90
        0
176
     1
290
     0
176
     1
 90
        1
176
     1
 40
0.0
176
     1
 90
        0
176
     1
290
     0
176
     1
290
     1
176
     1
290
     1
176
     1
290
     0
176
     1
290
     0
176
     1
290
     0
176
     1
290
     0
176
     1
290
     0
176
     1
290
     0
176
     1
 90
       50
176
     1
 40
0.0
176
     1
 40
1.0
176
     1
 90
        0
176
     1
 62
    18
420
        0
176
     1
 90
       50
176
     1
 90
        3
176
     1
 62
     5
420
      255
176
     1
290
     0
176
     1
 90
       50
176
     1
 90
       50
176
     1
 90
       50
176
     1
290
     0
176
     1
 90
       50
176
     1
 62
   256
176
     0
 40
1.0
176
     0
 90
        2
176
     1
  1
strokes_ogs.tif
176
     1
290
     0
176
     1
 40
1.0
176
     1
 40
1.0
176
     1
1001
ACAD
1000
AcDbSavedByObjectVersion
1070
     0
  0
VISUALSTYLE
  5
3B
102
{ACAD_REACTORS
330
29
102
}
330
29
100
AcDbVisualStyle
  2
Sketchy
 70
    24
177
     3
291
     0
 70
    58
 90
        1
176
     1
 90
        2
176
     1
 90
        2
176
     1
 90
        0
176
     1
 40
0.6
176
     1
 40
30.0
176
     1
 62
     7
420
 16777215
176
     1
 90
        2
176
     1
 90
        2
176
     1
 62
     7
176
     1
 62
     7
176
     1
 90
        1
176
     1
 90
        1
176
     1
 40
40.0
176
     1
 90
       11
176
     1
 62
     7
176
     1
 40
1.0
176
     1
 90
        1
176
     1
 90
        6
176
     1
 90
        2
176
     1
 62
     7
176
     1
 90
        6
176
     1
 90
        0
176
     1
 90
        0
176
     1
290
     0
176
     1
 90
        1
176
     1
 40
0.0
176
     1
 90
        0
176
     1
290
     0
176
     1
290
     1
176
     1
290
     1
176
     1
290
     0
176
     1
290
     0
176
     1
290
     0
176
     1
290
     0
176
     1
290
     0
176
     1
290
     0
176
     1
 90
       50
176
     1
 40
0.0
176
     1
 40
1.0
176
     1
 90
        0
176
     1
 62
    18
420
        0
176
     1
 90
       50
176
     1
 90
        3
176
     1
 62
     5
420
      255
176
     1
290
     0
176
     1
 90
       50
176
     1
 90
       50
176
     1
 90
       50
176
     1
290
     0
176
     1
 90
       50
176
     1
 62
   256
176
     0
 40
1.0
176
     0
 90
        2
176
     1
  1
strokes_ogs.tif
176
     1
290
     0
176
     1
 40
1.0
176
     1
 40
1.0
176
     1
1001
ACAD
1000
AcDbSavedByObjectVersion
1070
     0
  0
VISUALSTYLE
  5
36
102
{ACAD_REACTORS
330
29
102
}
330
29
100
AcDbVisualStyle
  2
Thicken
 70
    13
177
     3
291
     1
 70
    58
 90
        2
176
     1
 90
        2
176
     1
 90
        0
176
     1
 90
        0
176
     1
 40
0.6
176
     1
 40
30.0
176
     1
 62
     7
420
 16777215
176
     1
 90
        1
176
     1
 90
        4
176
     1
 62
     7
176
     1
 62
   257
176
     1
 90
        1
176
     1
 90
        1
176
     1
 40
1.0
176
     1
 90
       12
176
     1
 62
     7
176
     1
 40
1.0
176
     1
 90
        1
176
     1
 90
        6
176
     1
 90
        2
176
     1
 62
     7
176
     1
 90
        5
176
     1
 90
        0
176
     1
 90
        0
176
     1
290
     0
176
     1
 90
        1
176
     1
 40
0.0
176
     1
 90
        0
176
     1
290
     0
176
     1
290
     1
176
     1
290
     1
176
     1
290
     0
176
     1
290
     0
176
     1
290
     0
176
     1
290
     0
176
     1
290
     0
176
     1
290
     0
176
     1
 90
       50
176
     1
 40
0.0
176
     1
 40
1.0
176
     1
 90
        0
176
     1
 62
    18
420
        0
176
     1
 90
       50
176
     1
 90
        3
176
     1
 62
     5
420
      255
176
     1
290
     0
176
     1
 90
       50
176
     1
 90
       50
176
     1
 90
       50
176
     1
290
     0
176
     1
 90
       50
176
     1
 62
   256
176
     0
 40
1.0
176
     0
 90
        2
176
     1
  1
strokes_ogs.tif
176
     1
290
     0
176
     1
 40
1.0
176
     1
 40
1.0
176
     1
1001
ACAD
1000
AcDbSavedByObjectVersion
1070
     0
  0
VISUALSTYLE
  5
30
102
{ACAD_REACTORS
330
29
102
}
330
29
100
AcDbVisualStyle
  2
Wireframe
 70
     5
177
     3
291
     0
 70
    58
 90
        0
176
     1
 90
        2
176
     1
 90
        0
176
     1
 90
        0
176
     1
 40
0.6
176
     1
 40
30.0
176
     1
 62
     7
420
 16777215
176
     1
 90
        1
176
     1
 90
        4
176
     1
 62
     7
176
     1
 62
   257
176
     1
 90
        1
176
     1
 90
        1
176
     1
 40
1.0
176
     1
 90
        0
176
     1
 62
   257
176
     1
 40
1.0
176
     1
 90
        1
176
     1
 90
        6
176
     1
 90
        2
176
     1
 62
     7
176
     1
 90
        3
176
     1
 90
        0
176
     1
 90
        0
176
     1
290
     0
176
     1
 90
        1
176
     1
 40
0.0
176
     1
 90
        0
176
     1
290
     0
176
     1
290
     1
176
     1
290
     1
176
     1
290
     0
176
     1
290
     0
176
     1
290
     0
176
     1
290
     0
176
     1
290
     0
176
     1
290
     0
176
     1
 90
       50
176
     1
 40
0.0
176
     1
 40
1.0
176
     1
 90
        0
176
     1
 62
    18
420
        0
176
     1
 90
       50
176
     1
 90
        3
176
     1
 62
     5
420
      255
176
     1
290
     0
176
     1
 90
       50
176
     1
 90
       50
176
     1
 90
       50
176
     1
290
     0
176
     1
 90
       50
176
     1
 62
   256
176
     0
 40
1.0
176
     0
 90
        2
176
     1
  1
strokes_ogs.tif
176
     1
290
     0
176
     1
 40
1.0
176
     1
 40
1.0
176
     1
1001
ACAD
1000
AcDbSavedByObjectVersion
1070
     0
  0
VISUALSTYLE
  5
3C
102
{ACAD_REACTORS
330
29
102
}
330
29
100
AcDbVisualStyle
  2
X-Ray
 70
    25
177
     3
291
     0
 70
    58
 90
        2
176
     1
 90
        2
176
     1
 90
        1
176
     1
 90
        1
176
     1
 40
0.5
176
     1
 40
30.0
176
     1
 62
     7
420
 16777215
176
     1
 90
        1
176
     1
 90
        0
176
     1
 62
     7
176
     1
 62
   257
176
     1
 90
        1
176
     1
 90
        1
176
     1
 40
1.0
176
     1
 90
        8
176
     1
 62
     7
176
     1
 40
1.0
176
     1
 90
        1
176
     1
 90
        6
176
     1
 90
        2
176
     1
 62
     7
176
     1
 90
        3
176
     1
 90
        0
176
     1
 90
        0
176
     1
290
     0
176
     1
 90
       13
176
     1
 40
0.0
176
     1
 90
        0
176
     1
290
     0
176
     1
290
     1
176
     1
290
     1
176
     1
290
     0
176
     1
290
     0
176
     1
290
     0
176
     1
290
     0
176
     1
290
     0
176
     1
290
     0
176
     1
 90
       50
176
     1
 40
0.0
176
     1
 40
1.0
176
     1
 90
        0
176
     1
 62
    18
420
        0
176
     1
 90
       50
176
     1
 90
        3
176
     1
 62
     5
420
      255
176
     1
290
     0
176
     1
 90
       50
176
     1
 90
       50
176
     1
 90
       50
176
     1
290
     0
176
     1
 90
       50
176
     1
 62
   256
176
     0
 40
1.0
176
     0
 90
        2
176
     1
  1
strokes_ogs.tif
176
     1
290
     0
176
     1
 40
1.0
176
     1
 40
1.0
176
     1
1001
ACAD
1000
AcDbSavedByObjectVersion
1070
     0
  0
DICTIONARYVAR
  5
107
102
{ACAD_REACTORS
330
102
102
}
330
102
100
DictionaryVariables
280
     0
  1
1:1
  0
DICTIONARYVAR
  5
104
102
{ACAD_REACTORS
330
102
102
}
330
102
100
DictionaryVariables
280
     0
  1
STANDARD
  0
DICTIONARYVAR
  5
103
102
{ACAD_REACTORS
330
102
102
}
330
102
100
DictionaryVariables
280
     0
  1
STANDARD
  0
DICTIONARYVAR
  5
105
102
{ACAD_REACTORS
330
102
102
}
330
102
100
DictionaryVariables
280
     0
  1
Imperial24
  0
DICTIONARYVAR
  5
106
102
{ACAD_REACTORS
330
102
102
}
330
102
100
DictionaryVariables
280
     0
  1
Imperial24
  0
DICTIONARY
  5
10D
330
6B
100
AcDbDictionary
280
     1
281
     1
  3
ACAD_XREC_ROUNDTRIP
360
10E
  0
DICTIONARY
  5
1A
330
19
100
AcDbDictionary
280
     1
281
     1
  3
BUMPTILE
360
1C
  3
DIFFUSETILE
360
1B
  3
OPACITYTILE
360
1F
  3
REFLECTIONTILE
360
1E
  3
REFRACTIONTILE
360
20
  3
SPECULARTILE
360
1D
  0
DICTIONARY
  5
12
330
11
100
AcDbDictionary
280
     1
281
     1
  3
BUMPTILE
360
14
  3
DIFFUSETILE
360
13
  3
OPACITYTILE
360
17
  3
REFLECTIONTILE
360
16
  3
REFRACTIONTILE
360
18
  3
SPECULARTILE
360
15
  0
DICTIONARY
  5
22
330
21
100
AcDbDictionary
280
     1
281
     1
  3
BUMPTILE
360
24
  3
DIFFUSETILE
360
23
  3
OPACITYTILE
360
27
  3
REFLECTIONTILE
360
26
  3
REFRACTIONTILE
360
28
  3
SPECULARTILE
360
25
  0
DICTIONARY
  5
10B
330
69
100
AcDbDictionary
280
     1
281
     1
  3
ACAD_XREC_ROUNDTRIP
360
10C
  0
DICTIONARY
  5
108
330
65
100
AcDbDictionary
280
     1
281
     1
  3
ACAD_ROUNDTRIP_2008_TABLESTYLE_CELLSTYLEMAP
360
109
  0
XRECORD
  5
10E
102
{ACAD_REACTORS
330
10D
102
}
330
10D
100
AcDbXrecord
280
     1
102
DISPLAYNAME
  1
Imperial24
102
FLAGS
 90
        0
  0
XRECORD
  5
1C
102
{ACAD_REACTORS
330
1A
102
}
330
1A
100
AcDbXrecord
280
     1
270
     1
271
     1
  0
XRECORD
  5
1B
102
{ACAD_REACTORS
330
1A
102
}
330
1A
100
AcDbXrecord
280
     1
270
     1
271
     1
  0
XRECORD
  5
1F
102
{ACAD_REACTORS
330
1A
102
}
330
1A
100
AcDbXrecord
280
     1
270
     1
271
     1
  0
XRECORD
  5
1E
102
{ACAD_REACTORS
330
1A
102
}
330
1A
100
AcDbXrecord
280
     1
270
     1
271
     1
  0
XRECORD
  5
20
102
{ACAD_REACTORS
330
1A
102
}
330
1A
100
AcDbXrecord
280
     1
270
     1
271
     1
  0
XRECORD
  5
1D
102
{ACAD_REACTORS
330
1A
102
}
330
1A
100
AcDbXrecord
280
     1
270
     1
271
     1
  0
XRECORD
  5
14
102
{ACAD_REACTORS
330
12
102
}
330
12
100
AcDbXrecord
280
     1
270
     1
271
     1
  0
XRECORD
  5
13
102
{ACAD_REACTORS
330
12
102
}
330
12
100
AcDbXrecord
280
     1
270
     1
271
     1
  0
XRECORD
  5
17
102
{ACAD_REACTORS
330
12
102
}
330
12
100
AcDbXrecord
280
     1
270
     1
271
     1
  0
XRECORD
  5
16
102
{ACAD_REACTORS
330
12
102
}
330
12
100
AcDbXrecord
280
     1
270
     1
271
     1
  0
XRECORD
  5
18
102
{ACAD_REACTORS
330
12
102
}
330
12
100
AcDbXrecord
280
     1
270
     1
271
     1
  0
XRECORD
  5
15
102
{ACAD_REACTORS
330
12
102
}
330
12
100
AcDbXrecord
280
     1
270
     1
271
     1
  0
XRECORD
  5
24
102
{ACAD_REACTORS
330
22
102
}
330
22
100
AcDbXrecord
280
     1
270
     1
271
     1
  0
XRECORD
  5
23
102
{ACAD_REACTORS
330
22
102
}
330
22
100
AcDbXrecord
280
     1
270
     1
271
     1
  0
XRECORD
  5
27
102
{ACAD_REACTORS
330
22
102
}
330
22
100
AcDbXrecord
280
     1
270
     1
271
     1
  0
XRECORD
  5
26
102
{ACAD_REACTORS
330
22
102
}
330
22
100
AcDbXrecord
280
     1
270
     1
271
     1
  0
XRECORD
  5
28
102
{ACAD_REACTORS
330
22
102
}
330
22
100
AcDbXrecord
280
     1
270
     1
271
     1
  0
XRECORD
  5
25
102
{ACAD_REACTORS
330
22
102
}
330
22
100
AcDbXrecord
280
     1
270
     1
271
     1
  0
XRECORD
  5
10C
102
{ACAD_REACTORS
330
10B
102
}
330
10B
100
AcDbXrecord
280
     1
102
DISPLAYNAME
  1
Imperial24
102
FLAGS
 90
        0
  0
CELLSTYLEMAP
  5
109
102
{ACAD_REACTORS
330
108
102
}
330
108
100
AcDbCellStyleMap
 90
        3
300
CELLSTYLE
  1
TABLEFORMAT_BEGIN
 90
        5
170
     1
 91
        0
 92
    32768
 62
   257
 93
        1
300
CONTENTFORMAT
  1
CONTENTFORMAT_BEGIN
 90
        0
 91
        0
 92
      512
 93
        0
300

 40
0.0
140
1.0
 94
        5
 62
     0
340
55
144
0.25
309
CONTENTFORMAT_END
171
     0
 94
        0
309
TABLEFORMAT_END
  1
CELLSTYLE_BEGIN
 90
        1
 91
        1
300
_TITLE
309
CELLSTYLE_END
300
CELLSTYLE
  1
TABLEFORMAT_BEGIN
 90
        5
170
     1
 91
        0
 92
        0
 62
   257
 93
        1
300
CONTENTFORMAT
  1
CONTENTFORMAT_BEGIN
 90
        0
 91
        0
 92
      512
 93
        0
300

 40
0.0
140
1.0
 94
        5
 62
     0
340
55
144
0.18
309
CONTENTFORMAT_END
171
     0
 94
        0
309
TABLEFORMAT_END
  1
CELLSTYLE_BEGIN
 90
        2
 91
        1
300
_HEADER
309
CELLSTYLE_END
300
CELLSTYLE
  1
TABLEFORMAT_BEGIN
 90
        5
170
     1
 91
        0
 92
        0
 62
   257
 93
        1
300
CONTENTFORMAT
  1
CONTENTFORMAT_BEGIN
 90
        0
 91
        0
 92
      512
 93
        0
300

 40
0.0
140
1.0
 94
        2
 62
     0
340
55
144
0.18
309
CONTENTFORMAT_END
171
     0
 94
        0
309
TABLEFORMAT_END
  1
CELLSTYLE_BEGIN
 90
        3
 91
        2
300
_DATA
309
CELLSTYLE_END
  0
ENDSEC
  0
EOF
