  0
SECTION
  2
HEADER
  9
$ACADVER
  1
AC1018
  9
$ACADMAINTVER
 70
     0
  9
$DWGCODEPAGE
  3
ANSI_1252
  9
$INSBASE
 10
0.0
 20
0.0
 30
0.0
  9
$EXTMIN
 10
1.000000000000000E+20
 20
1.000000000000000E+20
 30
1.000000000000000E+20
  9
$EXTMAX
 10
-1.000000000000000E+20
 20
-1.000000000000000E+20
 30
-1.000000000000000E+20
  9
$LIMMIN
 10
0.0
 20
0.0
  9
$LIMMAX
 10
12.0
 20
9.0
  9
$ORTHOMODE
 70
     0
  9
$REGENMODE
 70
     1
  9
$FILLMODE
 70
     1
  9
$QTEXTMODE
 70
     0
  9
$MIRRTEXT
 70
     1
  9
$LTSCALE
 40
1.0
  9
$ATTMODE
 70
     1
  9
$TEXTSIZE
 40
0.2
  9
$TRACEWID
 40
0.05
  9
$TEXTSTYLE
  7
Standard
  9
$CLAYER
  8
0
  9
$CELTYPE
  6
ByLayer
  9
$CECOLOR
 62
   256
  9
$CELTSCALE
 40
1.0
  9
$DISPSILH
 70
     0
  9
$DIMSCALE
 40
1.0
  9
$DIMASZ
 40
0.18
  9
$DIMEXO
 40
0.0625
  9
$DIMDLI
 40
0.38
  9
$DIMRND
 40
0.0
  9
$DIMDLE
 40
0.0
  9
$DIMEXE
 40
0.18
  9
$DIMTP
 40
0.0
  9
$DIMTM
 40
0.0
  9
$DIMTXT
 40
0.18
  9
$DIMCEN
 40
0.09
  9
$DIMTSZ
 40
0.0
  9
$DIMTOL
 70
     0
  9
$DIMLIM
 70
     0
  9
$DIMTIH
 70
     1
  9
$DIMTOH
 70
     1
  9
$DIMSE1
 70
     0
  9
$DIMSE2
 70
     0
  9
$DIMTAD
 70
     0
  9
$DIMZIN
 70
     0
  9
$DIMBLK
  1

  9
$DIMASO
 70
     1
  9
$DIMSHO
 70
     1
  9
$DIMPOST
  1

  9
$DIMAPOST
  1

  9
$DIMALT
 70
     0
  9
$DIMALTD
 70
     2
  9
$DIMALTF
 40
25.4
  9
$DIMLFAC
 40
1.0
  9
$DIMTOFL
 70
     0
  9
$DIMTVP
 40
0.0
  9
$DIMTIX
 70
     0
  9
$DIMSOXD
 70
     0
  9
$DIMSAH
 70
     0
  9
$DIMBLK1
  1

  9
$DIMBLK2
  1

  9
$DIMSTYLE
  2
Standard
  9
$DIMCLRD
 70
     0
  9
$DIMCLRE
 70
     0
  9
$DIMCLRT
 70
     0
  9
$DIMTFAC
 40
1.0
  9
$DIMGAP
 40
0.09
  9
$DIMJUST
 70
     0
  9
$DIMSD1
 70
     0
  9
$DIMSD2
 70
     0
  9
$DIMTOLJ
 70
     1
  9
$DIMTZIN
 70
     0
  9
$DIMALTZ
 70
     0
  9
$DIMALTTZ
 70
     0
  9
$DIMUPT
 70
     0
  9
$DIMDEC
 70
     4
  9
$DIMTDEC
 70
     4
  9
$DIMALTU
 70
     2
  9
$DIMALTTD
 70
     2
  9
$DIMTXSTY
  7
Standard
  9
$DIMAUNIT
 70
     0
  9
$DIMADEC
 70
     0
  9
$DIMALTRND
 40
0.0
  9
$DIMAZIN
 70
     0
  9
$DIMDSEP
 70
    46
  9
$DIMATFIT
 70
     3
  9
$DIMFRAC
 70
     0
  9
$DIMLDRBLK
  1

  9
$DIMLUNIT
 70
     2
  9
$DIMLWD
 70
    -2
  9
$DIMLWE
 70
    -2
  9
$DIMTMOVE
 70
     0
  9
$LUNITS
 70
     2
  9
$LUPREC
 70
     4
  9
$SKETCHINC
 40
0.1
  9
$FILLETRAD
 40
0.5
  9
$AUNITS
 70
     0
  9
$AUPREC
 70
     0
  9
$MENU
  1
.
  9
$ELEVATION
 40
0.0
  9
$PELEVATION
 40
0.0
  9
$THICKNESS
 40
0.0
  9
$LIMCHECK
 70
     0
  9
$CHAMFERA
 40
0.5
  9
$CHAMFERB
 40
0.5
  9
$CHAMFERC
 40
1.0
  9
$CHAMFERD
 40
0.0
  9
$SKPOLY
 70
     0
  9
$TDCREATE
 40
2459243.720498553
  9
$TDUCREATE
 40
2459243.678831887
  9
$TDUPDATE
 40
2459243.720498565
  9
$TDUUPDATE
 40
2459243.678831898
  9
$TDINDWG
 40
0.0000000116
  9
$TDUSRTIMER
 40
0.0000000116
  9
$USRTIMER
 70
     1
  9
$ANGBASE
 50
0.0
  9
$ANGDIR
 70
     0
  9
$PDMODE
 70
     0
  9
$PDSIZE
 40
0.0
  9
$PLINEWID
 40
0.0
  9
$SPLFRAME
 70
     0
  9
$SPLINETYPE
 70
     6
  9
$SPLINESEGS
 70
     8
  9
$HANDSEED
  5
30A
  9
$SURFTAB1
 70
     6
  9
$SURFTAB2
 70
     6
  9
$SURFTYPE
 70
     6
  9
$SURFU
 70
     6
  9
$SURFV
 70
     6
  9
$UCSBASE
  2

  9
$UCSNAME
  2

  9
$UCSORG
 10
0.0
 20
0.0
 30
0.0
  9
$UCSXDIR
 10
1.0
 20
0.0
 30
0.0
  9
$UCSYDIR
 10
0.0
 20
1.0
 30
0.0
  9
$UCSORTHOREF
  2

  9
$UCSORTHOVIEW
 70
     0
  9
$UCSORGTOP
 10
0.0
 20
0.0
 30
0.0
  9
$UCSORGBOTTOM
 10
0.0
 20
0.0
 30
0.0
  9
$UCSORGLEFT
 10
0.0
 20
0.0
 30
0.0
  9
$UCSORGRIGHT
 10
0.0
 20
0.0
 30
0.0
  9
$UCSORGFRONT
 10
0.0
 20
0.0
 30
0.0
  9
$UCSORGBACK
 10
0.0
 20
0.0
 30
0.0
  9
$PUCSBASE
  2

  9
$PUCSNAME
  2

  9
$PUCSORG
 10
0.0
 20
0.0
 30
0.0
  9
$PUCSXDIR
 10
1.0
 20
0.0
 30
0.0
  9
$PUCSYDIR
 10
0.0
 20
1.0
 30
0.0
  9
$PUCSORTHOREF
  2

  9
$PUCSORTHOVIEW
 70
     0
  9
$PUCSORGTOP
 10
0.0
 20
0.0
 30
0.0
  9
$PUCSORGBOTTOM
 10
0.0
 20
0.0
 30
0.0
  9
$PUCSORGLEFT
 10
0.0
 20
0.0
 30
0.0
  9
$PUCSORGRIGHT
 10
0.0
 20
0.0
 30
0.0
  9
$PUCSORGFRONT
 10
0.0
 20
0.0
 30
0.0
  9
$PUCSORGBACK
 10
0.0
 20
0.0
 30
0.0
  9
$USERI1
 70
     0
  9
$USERI2
 70
     0
  9
$USERI3
 70
     0
  9
$USERI4
 70
     0
  9
$USERI5
 70
     0
  9
$USERR1
 40
0.0
  9
$USERR2
 40
0.0
  9
$USERR3
 40
0.0
  9
$USERR4
 40
0.0
  9
$USERR5
 40
0.0
  9
$WORLDVIEW
 70
     1
  9
$SHADEDGE
 70
     3
  9
$SHADEDIF
 70
    70
  9
$TILEMODE
 70
     1
  9
$MAXACTVP
 70
    64
  9
$PINSBASE
 10
0.0
 20
0.0
 30
0.0
  9
$PLIMCHECK
 70
     0
  9
$PEXTMIN
 10
1.000000000000000E+20
 20
1.000000000000000E+20
 30
1.000000000000000E+20
  9
$PEXTMAX
 10
-1.000000000000000E+20
 20
-1.000000000000000E+20
 30
-1.000000000000000E+20
  9
$PLIMMIN
 10
0.0
 20
0.0
  9
$PLIMMAX
 10
12.0
 20
9.0
  9
$UNITMODE
 70
     0
  9
$VISRETAIN
 70
     1
  9
$PLINEGEN
 70
     0
  9
$PSLTSCALE
 70
     1
  9
$TREEDEPTH
 70
  3020
  9
$CMLSTYLE
  2
Standard
  9
$CMLJUST
 70
     0
  9
$CMLSCALE
 40
1.0
  9
$PROXYGRAPHICS
 70
     1
  9
$MEASUREMENT
 70
     0
  9
$CELWEIGHT
370
    -1
  9
$ENDCAPS
280
     0
  9
$JOINSTYLE
280
     0
  9
$LWDISPLAY
290
     1
  9
$INSUNITS
 70
     1
  9
$HYPERLINKBASE
  1

  9
$STYLESHEET
  1

  9
$XEDIT
290
     1
  9
$CEPSNTYPE
380
     0
  9
$PSTYLEMODE
290
     1
  9
$FINGERPRINTGUID
  2
{5AE843D6-8AED-4F16-B075-6520F7A37876}
  9
$VERSIONGUID
  2
{FAEB1C32-E019-11D5-929B-00C0DF256EC4}
  9
$EXTNAMES
290
     1
  9
$PSVPSCALE
 40
0.0
  9
$OLESTARTUP
290
     0
  9
$SORTENTS
280
   127
  9
$INDEXCTL
280
     0
  9
$HIDETEXT
280
     1
  9
$XCLIPFRAME
290
     0
  9
$HALOGAP
280
     0
  9
$OBSCOLOR
 70
   257
  9
$OBSLTYPE
280
     0
  9
$INTERSECTIONDISPLAY
280
     0
  9
$INTERSECTIONCOLOR
 70
   257
  9
$DIMASSOC
280
     2
  9
$PROJECTNAME
  1

  0
ENDSEC
  0
SECTION
  2
CLASSES
  0
CLASS
  1
ACDBDICTIONARYWDFLT
  2
AcDbDictionaryWithDefault
  3
ObjectDBX Classes
 90
        0
 91
        3
280
     0
281
     0
  0
CLASS
  1
VISUALSTYLE
  2
AcDbVisualStyle
  3
ObjectDBX Classes
 90
     4095
 91
        3
280
     0
281
     0
  0
ENDSEC
  0
SECTION
  2
TABLES
  0
TABLE
  2
VPORT
  5
8
330
0
100
AcDbSymbolTable
 70
     1
  0
VPORT
  5
29
330
8
100
AcDbSymbolTableRecord
100
AcDbViewportTableRecord
  2
*Active
 70
     0
 10
0.0
 20
0.0
 11
1.0
 21
1.0
 12
0.0
 22
0.0
 13
0.0
 23
0.0
 14
0.5
 24
0.5
 15
0.5
 25
0.5
 16
0.0
 26
0.0
 36
1.0
 17
105.0008259828644
 27
148.5000657452101
 37
0.0
 40
297.0001314904201
 41
0.7070759562020681
 42
50.0
 43
0.0
 44
0.0
 50
0.0
 51
0.0
 71
     0
 72
   100
 73
     1
 74
     3
 75
     0
 76
     0
 77
     0
 78
     0
281
     0
 65
     1
110
0.0
120
0.0
130
0.0
111
1.0
121
0.0
131
0.0
112
0.0
122
1.0
132
0.0
 79
     0
146
0.0
  0
ENDTAB
  0
TABLE
  2
LTYPE
  5
5
330
0
100
AcDbSymbolTable
 70
     1
  0
LTYPE
  5
14
330
5
100
AcDbSymbolTableRecord
100
AcDbLinetypeTableRecord
  2
ByBlock
 70
     0
  3

 72
    65
 73
     0
 40
0.0
  0
LTYPE
  5
15
330
5
100
AcDbSymbolTableRecord
100
AcDbLinetypeTableRecord
  2
ByLayer
 70
     0
  3

 72
    65
 73
     0
 40
0.0
  0
LTYPE
  5
16
330
5
100
AcDbSymbolTableRecord
100
AcDbLinetypeTableRecord
  2
Continuous
 70
     0
  3
Solid line
 72
    65
 73
     0
 40
0.0
  0
ENDTAB
  0
TABLE
  2
LAYER
  5
2
330
0
100
AcDbSymbolTable
 70
     2
  0
LAYER
  5
10
330
2
100
AcDbSymbolTableRecord
100
AcDbLayerTableRecord
  2
0
 70
     0
 62
     7
  6
Continuous
370
    -3
390
F
  0
LAYER
  5
3B
330
2
100
AcDbSymbolTableRecord
100
AcDbLayerTableRecord
  2
Capa 1
 70
     0
 62
     7
  6
Continuous
370
    -3
390
F
  0
ENDTAB
  0
TABLE
  2
STYLE
  5
3
330
0
100
AcDbSymbolTable
 70
     1
  0
STYLE
  5
11
330
3
100
AcDbSymbolTableRecord
100
AcDbTextStyleTableRecord
  2
Standard
 70
     0
 40
0.0
 41
1.0
 50
0.0
 71
     0
 42
0.2
  3
txt
  4

  0
ENDTAB
  0
TABLE
  2
VIEW
  5
6
330
0
100
AcDbSymbolTable
 70
     0
  0
ENDTAB
  0
TABLE
  2
UCS
  5
7
330
0
100
AcDbSymbolTable
 70
     0
  0
ENDTAB
  0
TABLE
  2
APPID
  5
9
330
0
100
AcDbSymbolTable
 70
     1
  0
APPID
  5
12
330
9
100
AcDbSymbolTableRecord
100
AcDbRegAppTableRecord
  2
ACAD
 70
     0
  0
ENDTAB
  0
TABLE
  2
DIMSTYLE
  5
A
330
0
100
AcDbSymbolTable
 70
     1
100
AcDbDimStyleTable
  0
DIMSTYLE
105
27
330
A
100
AcDbSymbolTableRecord
100
AcDbDimStyleTableRecord
  2
Standard
 70
     0
340
11
  0
ENDTAB
  0
TABLE
  2
BLOCK_RECORD
  5
1
330
0
100
AcDbSymbolTable
 70
     2
  0
BLOCK_RECORD
  5
1F
330
1
100
AcDbSymbolTableRecord
100
AcDbBlockTableRecord
  2
*Model_Space
340
22
  0
BLOCK_RECORD
  5
1B
330
1
100
AcDbSymbolTableRecord
100
AcDbBlockTableRecord
  2
*Paper_Space
340
1E
  0
BLOCK_RECORD
  5
23
330
1
100
AcDbSymbolTableRecord
100
AcDbBlockTableRecord
  2
*Paper_Space0
340
26
  0
BLOCK_RECORD
  5
3C
330
1
100
AcDbSymbolTableRecord
100
AcDbBlockTableRecord
  2
block 2
340
0
102
{BLKREFS
331
3D
102
}
  0
ENDTAB
  0
ENDSEC
  0
SECTION
  2
BLOCKS
  0
BLOCK
  5
20
330
1F
100
AcDbEntity
  8
0
100
AcDbBlockBegin
  2
*Model_Space
 70
     0
 71
     0
 10
0.0
 20
0.0
 30
0.0
  3
*Model_Space
  1

  0
ENDBLK
  5
21
330
1F
100
AcDbEntity
  8
0
100
AcDbBlockEnd
  0
BLOCK
  5
1C
330
1B
100
AcDbEntity
 67
     1
  8
0
100
AcDbBlockBegin
  2
*Paper_Space
 70
     0
 71
     0
 10
0.0
 20
0.0
 30
0.0
  3
*Paper_Space
  1

  0
ENDBLK
  5
1D
330
1B
100
AcDbEntity
 67
     1
  8
0
100
AcDbBlockEnd
  0
BLOCK
  5
24
330
23
100
AcDbEntity
  8
0
100
AcDbBlockBegin
  2
*Paper_Space0
 70
     0
 71
     0
 10
0.0
 20
0.0
 30
0.0
  3
*Paper_Space0
  1

  0
ENDBLK
  5
25
330
23
100
AcDbEntity
  8
0
100
AcDbBlockEnd
  0
BLOCK
  5
3E
330
3C
100
AcDbEntity
  8
0
100
AcDbBlockBegin
  2
block 2
 70
     0
 71
     0
 10
0.0
 20
0.0
 30
0.0
  3
block 2
  1

  0
SPLINE
  5
40
330
3C
100
AcDbEntity
  8
Capa 1
 62
   250
370
    13
100
AcDbSpline
210
0.0
220
0.0
230
1.0
 70
    27
 71
     3
 72
    11
 73
     7
 74
     0
 42
0.0000000001
 43
0.0000000001
 40
0.0
 40
0.0
 40
0.0
 40
0.0
 40
1.0
 40
1.0
 40
1.0
 40
2.0
 40
2.0
 40
2.0
 40
2.0
 10
102.1727470990228
 20
165.0455674500581
 30
0.0
 10
102.1727470990228
 20
165.0455674500581
 30
0.0
 10
102.1727470990228
 20
150.3503404029506
 30
0.0
 10
102.1727470990228
 20
150.3503404029506
 30
0.0
 10
102.1727470990228
 20
150.3503404029506
 30
0.0
 10
102.1727470990228
 20
165.0455674500581
 30
0.0
 10
102.1727470990228
 20
165.0455674500581
 30
0.0
  0
SPLINE
  5
41
330
3C
100
AcDbEntity
  8
Capa 1
 62
   250
370
    13
100
AcDbSpline
210
0.0
220
0.0
230
1.0
 70
    27
 71
     3
 72
    11
 73
     7
 74
     0
 42
0.0000000001
 43
0.0000000001
 40
0.0
 40
0.0
 40
0.0
 40
0.0
 40
1.0
 40
1.0
 40
1.0
 40
2.0
 40
2.0
 40
2.0
 40
2.0
 10
95.00315888466935
 20
164.5556748720555
 30
0.0
 10
95.00315888466935
 20
164.5556748720555
 30
0.0
 10
102.1727470990228
 20
164.5556748720555
 30
0.0
 10
102.1727470990228
 20
164.5556748720555
 30
0.0
 10
102.1727470990228
 20
164.5556748720555
 30
0.0
 10
95.00315888466935
 20
164.5556748720555
 30
0.0
 10
95.00315888466935
 20
164.5556748720555
 30
0.0
  0
SPLINE
  5
42
330
3C
100
AcDbEntity
  8
Capa 1
 62
   250
370
    13
100
AcDbSpline
210
0.0
220
0.0
230
1.0
 70
    27
 71
     3
 72
    11
 73
     7
 74
     0
 42
0.0000000001
 43
0.0000000001
 40
0.0
 40
0.0
 40
0.0
 40
0.0
 40
1.0
 40
1.0
 40
1.0
 40
2.0
 40
2.0
 40
2.0
 40
2.0
 10
95.36403263674927
 20
164.5556748720555
 30
0.0
 10
95.36403263674927
 20
164.5556748720555
 30
0.0
 10
95.36403263674927
 20
154.1924831428755
 30
0.0
 10
95.36403263674927
 20
154.1924831428755
 30
0.0
 10
95.36403263674927
 20
154.1924831428755
 30
0.0
 10
95.36403263674927
 20
164.5556748720555
 30
0.0
 10
95.36403263674927
 20
164.5556748720555
 30
0.0
  0
SPLINE
  5
43
330
3C
100
AcDbEntity
  8
Capa 1
 62
   250
370
    13
100
AcDbSpline
210
0.0
220
0.0
230
1.0
 70
    27
 71
     3
 72
    11
 73
     7
 74
     0
 42
0.0000000001
 43
0.0000000001
 40
0.0
 40
0.0
 40
0.0
 40
0.0
 40
1.0
 40
1.0
 40
1.0
 40
2.0
 40
2.0
 40
2.0
 40
2.0
 10
103.0453897854366
 20
164.99957542533
 30
0.0
 10
103.0453897854366
 20
164.99957542533
 30
0.0
 10
103.0453897854366
 20
150.3961601729044
 30
0.0
 10
103.0453897854366
 20
150.3961601729044
 30
0.0
 10
103.0453897854366
 20
150.3961601729044
 30
0.0
 10
103.0453897854366
 20
164.99957542533
 30
0.0
 10
103.0453897854366
 20
164.99957542533
 30
0.0
  0
SPLINE
  5
44
330
3C
100
AcDbEntity
  8
Capa 1
 62
   250
370
    13
100
AcDbSpline
210
0.0
220
0.0
230
1.0
 70
    27
 71
     3
 72
    11
 73
     7
 74
     0
 42
0.0000000001
 43
0.0000000001
 40
0.0
 40
0.0
 40
0.0
 40
0.0
 40
1.0
 40
1.0
 40
1.0
 40
2.0
 40
2.0
 40
2.0
 40
2.0
 10
102.1727470990228
 20
165.0455674500581
 30
0.0
 10
102.1727470990228
 20
165.0455674500581
 30
0.0
 10
102.9993977607085
 20
165.0455674500581
 30
0.0
 10
102.9993977607085
 20
165.0455674500581
 30
0.0
 10
102.9993977607085
 20
165.0455674500581
 30
0.0
 10
102.1727470990228
 20
165.0455674500581
 30
0.0
 10
102.1727470990228
 20
165.0455674500581
 30
0.0
  0
SPLINE
  5
45
330
3C
100
AcDbEntity
  8
Capa 1
 62
   250
370
    13
100
AcDbSpline
210
0.0
220
0.0
230
1.0
 70
    27
 71
     3
 72
    11
 73
     7
 74
     0
 42
0.0000000001
 43
0.0000000001
 40
0.0
 40
0.0
 40
0.0
 40
0.0
 40
1.0
 40
1.0
 40
1.0
 40
2.0
 40
2.0
 40
2.0
 40
2.0
 10
102.1727470990228
 20
150.3503404029506
 30
0.0
 10
102.1727470990228
 20
150.3503404029506
 30
0.0
 10
102.9993977607085
 20
150.3503404029506
 30
0.0
 10
102.9993977607085
 20
150.3503404029506
 30
0.0
 10
102.9993977607085
 20
150.3503404029506
 30
0.0
 10
102.1727470990228
 20
150.3503404029506
 30
0.0
 10
102.1727470990228
 20
150.3503404029506
 30
0.0
  0
SPLINE
  5
46
330
3C
100
AcDbEntity
  8
Capa 1
 62
   250
370
    13
100
AcDbSpline
210
0.0
220
0.0
230
1.0
 70
     8
 71
     3
 72
    11
 73
     7
 74
     0
 42
0.0000000001
 43
0.0000000001
 40
0.0
 40
0.0
 40
0.0
 40
0.0
 40
1.0
 40
1.0
 40
1.0
 40
2.0
 40
2.0
 40
2.0
 40
2.0
 10
103.0453897854366
 20
164.99957542533
 30
0.0
 10
103.0453897854366
 20
165.0118055143026
 30
0.0
 10
103.0405666517572
 20
165.0235188389525
 30
0.0
 10
103.0319539130441
 20
165.0321315776656
 30
0.0
 10
103.023341174331
 20
165.0407443163787
 30
0.0
 10
103.0116278496811
 20
165.0455674500581
 30
0.0
 10
102.9993977607085
 20
165.0455674500581
 30
0.0
  0
SPLINE
  5
47
330
3C
100
AcDbEntity
  8
Capa 1
 62
   250
370
    13
100
AcDbSpline
210
0.0
220
0.0
230
1.0
 70
     8
 71
     3
 72
     8
 73
     4
 74
     0
 42
0.0000000001
 43
0.0000000001
 40
0.0
 40
0.0
 40
0.0
 40
0.0
 40
1.0
 40
1.0
 40
1.0
 40
1.0
 10
102.9993977607085
 20
150.3503404029506
 30
0.0
 10
103.0248914672993
 20
150.3503404029506
 30
0.0
 10
103.0453897854366
 20
150.3708387210879
 30
0.0
 10
103.0453897854366
 20
150.3961601729044
 30
0.0
  0
SPLINE
  5
48
330
3C
100
AcDbEntity
  8
Capa 1
 62
   250
370
    13
100
AcDbSpline
210
0.0
220
0.0
230
1.0
 70
    27
 71
     3
 72
    11
 73
     7
 74
     0
 42
0.0000000001
 43
0.0000000001
 40
0.0
 40
0.0
 40
0.0
 40
0.0
 40
1.0
 40
1.0
 40
1.0
 40
2.0
 40
2.0
 40
2.0
 40
2.0
 10
74.29899629218914
 20
165.0455674500581
 30
0.0
 10
74.29899629218914
 20
165.0455674500581
 30
0.0
 10
88.84108884497724
 20
165.0455674500581
 30
0.0
 10
88.84108884497724
 20
165.0455674500581
 30
0.0
 10
88.84108884497724
 20
165.0455674500581
 30
0.0
 10
74.29899629218914
 20
165.0455674500581
 30
0.0
 10
74.29899629218914
 20
165.0455674500581
 30
0.0
  0
SPLINE
  5
49
330
3C
100
AcDbEntity
  8
Capa 1
 62
   250
370
    13
100
AcDbSpline
210
0.0
220
0.0
230
1.0
 70
    27
 71
     3
 72
    11
 73
     7
 74
     0
 42
0.0000000001
 43
0.0000000001
 40
0.0
 40
0.0
 40
0.0
 40
0.0
 40
1.0
 40
1.0
 40
1.0
 40
2.0
 40
2.0
 40
2.0
 40
2.0
 10
74.29899629218914
 20
150.3503404029506
 30
0.0
 10
74.29899629218914
 20
150.3503404029506
 30
0.0
 10
88.84108884497724
 20
150.3503404029506
 30
0.0
 10
88.84108884497724
 20
150.3503404029506
 30
0.0
 10
88.84108884497724
 20
150.3503404029506
 30
0.0
 10
74.29899629218914
 20
150.3503404029506
 30
0.0
 10
74.29899629218914
 20
150.3503404029506
 30
0.0
  0
SPLINE
  5
4A
330
3C
100
AcDbEntity
  8
Capa 1
 62
   250
370
    13
100
AcDbSpline
210
0.0
220
0.0
230
1.0
 70
    27
 71
     3
 72
    11
 73
     7
 74
     0
 42
0.0000000001
 43
0.0000000001
 40
0.0
 40
0.0
 40
0.0
 40
0.0
 40
1.0
 40
1.0
 40
1.0
 40
2.0
 40
2.0
 40
2.0
 40
2.0
 10
74.22234291764234
 20
164.9689140755113
 30
0.0
 10
74.22234291764234
 20
164.9689140755113
 30
0.0
 10
74.22234291764234
 20
150.4268215227232
 30
0.0
 10
74.22234291764234
 20
150.4268215227232
 30
0.0
 10
74.22234291764234
 20
150.4268215227232
 30
0.0
 10
74.22234291764234
 20
164.9689140755113
 30
0.0
 10
74.22234291764234
 20
164.9689140755113
 30
0.0
  0
SPLINE
  5
4B
330
3C
100
AcDbEntity
  8
Capa 1
 62
   250
370
    13
100
AcDbSpline
210
0.0
220
0.0
230
1.0
 70
    27
 71
     3
 72
    11
 73
     7
 74
     0
 42
0.0000000001
 43
0.0000000001
 40
0.0
 40
0.0
 40
0.0
 40
0.0
 40
1.0
 40
1.0
 40
1.0
 40
2.0
 40
2.0
 40
2.0
 40
2.0
 10
88.91774221952404
 20
164.9689140755113
 30
0.0
 10
88.91774221952404
 20
164.9689140755113
 30
0.0
 10
88.91774221952404
 20
150.4268215227232
 30
0.0
 10
88.91774221952404
 20
150.4268215227232
 30
0.0
 10
88.91774221952404
 20
150.4268215227232
 30
0.0
 10
88.91774221952404
 20
164.9689140755113
 30
0.0
 10
88.91774221952404
 20
164.9689140755113
 30
0.0
  0
SPLINE
  5
4C
330
3C
100
AcDbEntity
  8
Capa 1
 62
   250
370
    13
100
AcDbSpline
210
0.0
220
0.0
230
1.0
 70
     8
 71
     3
 72
    11
 73
     7
 74
     0
 42
0.0000000001
 43
0.0000000001
 40
0.0
 40
0.0
 40
0.0
 40
0.0
 40
1.0
 40
1.0
 40
1.0
 40
2.0
 40
2.0
 40
2.0
 40
2.0
 10
74.29899629218914
 20
165.0455674500581
 30
0.0
 10
74.27867022882617
 20
165.0455674500581
 30
0.0
 10
74.25920543933451
 20
165.0374714756677
 30
0.0
 10
74.24490829307072
 20
165.0231743294039
 30
0.0
 10
74.23043889203267
 20
165.0088771831402
 30
0.0
 10
74.22234291764234
 20
164.9892401388742
 30
0.0
 10
74.22234291764234
 20
164.9689140755113
 30
0.0
  0
SPLINE
  5
4D
330
3C
100
AcDbEntity
  8
Capa 1
 62
   250
370
    13
100
AcDbSpline
210
0.0
220
0.0
230
1.0
 70
     8
 71
     3
 72
    11
 73
     7
 74
     0
 42
0.0000000001
 43
0.0000000001
 40
0.0
 40
0.0
 40
0.0
 40
0.0
 40
1.0
 40
1.0
 40
1.0
 40
2.0
 40
2.0
 40
2.0
 40
2.0
 10
74.22234291764234
 20
150.4268215227232
 30
0.0
 10
74.22234291764234
 20
150.4064954593602
 30
0.0
 10
74.23043889203267
 20
150.3870306698685
 30
0.0
 10
74.24490829307072
 20
150.3727335236048
 30
0.0
 10
74.25920543933451
 20
150.358436377341
 30
0.0
 10
74.27867022882617
 20
150.3503404029506
 30
0.0
 10
74.29899629218914
 20
150.3503404029506
 30
0.0
  0
SPLINE
  5
4E
330
3C
100
AcDbEntity
  8
Capa 1
 62
   250
370
    13
100
AcDbSpline
210
0.0
220
0.0
230
1.0
 70
     8
 71
     3
 72
    11
 73
     7
 74
     0
 42
0.0000000001
 43
0.0000000001
 40
0.0
 40
0.0
 40
0.0
 40
0.0
 40
1.0
 40
1.0
 40
1.0
 40
2.0
 40
2.0
 40
2.0
 40
2.0
 10
88.91774221952404
 20
164.9689140755113
 30
0.0
 10
88.91774221952404
 20
164.9892401388742
 30
0.0
 10
88.9096462451337
 20
165.0088771831402
 30
0.0
 10
88.89517684409566
 20
165.0231743294039
 30
0.0
 10
88.88087969783187
 20
165.0374714756677
 30
0.0
 10
88.86141490834021
 20
165.0455674500581
 30
0.0
 10
88.84108884497724
 20
165.0455674500581
 30
0.0
  0
SPLINE
  5
4F
330
3C
100
AcDbEntity
  8
Capa 1
 62
   250
370
    13
100
AcDbSpline
210
0.0
220
0.0
230
1.0
 70
     8
 71
     3
 72
     8
 73
     4
 74
     0
 42
0.0000000001
 43
0.0000000001
 40
0.0
 40
0.0
 40
0.0
 40
0.0
 40
1.0
 40
1.0
 40
1.0
 40
1.0
 10
88.84108884497724
 20
150.3503404029506
 30
0.0
 10
88.88346351944581
 20
150.3503404029506
 30
0.0
 10
88.91774221952404
 20
150.3846191030289
 30
0.0
 10
88.91774221952404
 20
150.4268215227232
 30
0.0
  0
SPLINE
  5
50
330
3C
100
AcDbEntity
  8
Capa 1
 62
   250
370
    13
100
AcDbSpline
210
0.0
220
0.0
230
1.0
 70
    27
 71
     3
 72
    11
 73
     7
 74
     0
 42
0.0000000001
 43
0.0000000001
 40
0.0
 40
0.0
 40
0.0
 40
0.0
 40
1.0
 40
1.0
 40
1.0
 40
2.0
 40
2.0
 40
2.0
 40
2.0
 10
74.89603133978294
 20
164.4025403777362
 30
0.0
 10
74.89603133978294
 20
164.4025403777362
 30
0.0
 10
88.24405379738343
 20
164.4025403777362
 30
0.0
 10
88.24405379738343
 20
164.4025403777362
 30
0.0
 10
88.24405379738343
 20
164.4025403777362
 30
0.0
 10
74.89603133978294
 20
164.4025403777362
 30
0.0
 10
74.89603133978294
 20
164.4025403777362
 30
0.0
  0
SPLINE
  5
51
330
3C
100
AcDbEntity
  8
Capa 1
 62
   250
370
    13
100
AcDbSpline
210
0.0
220
0.0
230
1.0
 70
    27
 71
     3
 72
    11
 73
     7
 74
     0
 42
0.0000000001
 43
0.0000000001
 40
0.0
 40
0.0
 40
0.0
 40
0.0
 40
1.0
 40
1.0
 40
1.0
 40
2.0
 40
2.0
 40
2.0
 40
2.0
 10
74.89603133978294
 20
150.9931952204982
 30
0.0
 10
74.89603133978294
 20
150.9931952204982
 30
0.0
 10
88.24405379738343
 20
150.9931952204982
 30
0.0
 10
88.24405379738343
 20
150.9931952204982
 30
0.0
 10
88.24405379738343
 20
150.9931952204982
 30
0.0
 10
74.89603133978294
 20
150.9931952204982
 30
0.0
 10
74.89603133978294
 20
150.9931952204982
 30
0.0
  0
SPLINE
  5
52
330
3C
100
AcDbEntity
  8
Capa 1
 62
   250
370
    13
100
AcDbSpline
210
0.0
220
0.0
230
1.0
 70
    27
 71
     3
 72
    11
 73
     7
 74
     0
 42
0.0000000001
 43
0.0000000001
 40
0.0
 40
0.0
 40
0.0
 40
0.0
 40
1.0
 40
1.0
 40
1.0
 40
2.0
 40
2.0
 40
2.0
 40
2.0
 10
74.86536998996422
 20
164.3720512826917
 30
0.0
 10
74.86536998996422
 20
164.3720512826917
 30
0.0
 10
74.86536998996422
 20
151.023856570317
 30
0.0
 10
74.86536998996422
 20
151.023856570317
 30
0.0
 10
74.86536998996422
 20
151.023856570317
 30
0.0
 10
74.86536998996422
 20
164.3720512826917
 30
0.0
 10
74.86536998996422
 20
164.3720512826917
 30
0.0
  0
SPLINE
  5
53
330
3C
100
AcDbEntity
  8
Capa 1
 62
   250
370
    13
100
AcDbSpline
210
0.0
220
0.0
230
1.0
 70
    27
 71
     3
 72
    11
 73
     7
 74
     0
 42
0.0000000001
 43
0.0000000001
 40
0.0
 40
0.0
 40
0.0
 40
0.0
 40
1.0
 40
1.0
 40
1.0
 40
2.0
 40
2.0
 40
2.0
 40
2.0
 10
88.27471514720216
 20
164.3720512826917
 30
0.0
 10
88.27471514720216
 20
164.3720512826917
 30
0.0
 10
88.27471514720216
 20
151.023856570317
 30
0.0
 10
88.27471514720216
 20
151.023856570317
 30
0.0
 10
88.27471514720216
 20
151.023856570317
 30
0.0
 10
88.27471514720216
 20
164.3720512826917
 30
0.0
 10
88.27471514720216
 20
164.3720512826917
 30
0.0
  0
SPLINE
  5
54
330
3C
100
AcDbEntity
  8
Capa 1
 62
   250
370
    13
100
AcDbSpline
210
0.0
220
0.0
230
1.0
 70
     8
 71
     3
 72
    11
 73
     7
 74
     0
 42
0.0000000001
 43
0.0000000001
 40
0.0
 40
0.0
 40
0.0
 40
0.0
 40
1.0
 40
1.0
 40
1.0
 40
2.0
 40
2.0
 40
2.0
 40
2.0
 10
74.89603133978294
 20
164.4025403777362
 30
0.0
 10
74.88776311061834
 20
164.4025403777362
 30
0.0
 10
74.88001164577653
 20
164.3994397917995
 30
0.0
 10
74.87432723822586
 20
164.3937553842488
 30
0.0
 10
74.86847057590094
 20
164.3880709766981
 30
0.0
 10
74.86536998996422
 20
164.3801472570821
 30
0.0
 10
74.86536998996422
 20
164.3720512826917
 30
0.0
  0
SPLINE
  5
55
330
3C
100
AcDbEntity
  8
Capa 1
 62
   250
370
    13
100
AcDbSpline
210
0.0
220
0.0
230
1.0
 70
     8
 71
     3
 72
    11
 73
     7
 74
     0
 42
0.0000000001
 43
0.0000000001
 40
0.0
 40
0.0
 40
0.0
 40
0.0
 40
1.0
 40
1.0
 40
1.0
 40
2.0
 40
2.0
 40
2.0
 40
2.0
 10
74.86536998996422
 20
151.023856570317
 30
0.0
 10
74.86536998996422
 20
151.0157605959266
 30
0.0
 10
74.86847057590094
 20
151.0078368763105
 30
0.0
 10
74.87432723822586
 20
151.0021524687599
 30
0.0
 10
74.88001164577653
 20
150.9964680612092
 30
0.0
 10
74.88776311061834
 20
150.9931952204982
 30
0.0
 10
74.89603133978294
 20
150.9931952204982
 30
0.0
  0
SPLINE
  5
56
330
3C
100
AcDbEntity
  8
Capa 1
 62
   250
370
    13
100
AcDbSpline
210
0.0
220
0.0
230
1.0
 70
     8
 71
     3
 72
     8
 73
     4
 74
     0
 42
0.0000000001
 43
0.0000000001
 40
0.0
 40
0.0
 40
0.0
 40
0.0
 40
1.0
 40
1.0
 40
1.0
 40
1.0
 10
88.24405379738343
 20
150.9931952204982
 30
0.0
 10
88.26110702003542
 20
150.9931952204982
 30
0.0
 10
88.27471514720216
 20
151.0069756024392
 30
0.0
 10
88.27471514720216
 20
151.023856570317
 30
0.0
  0
SPLINE
  5
57
330
3C
100
AcDbEntity
  8
Capa 1
 62
   250
370
    13
100
AcDbSpline
210
0.0
220
0.0
230
1.0
 70
     8
 71
     3
 72
    11
 73
     7
 74
     0
 42
0.0000000001
 43
0.0000000001
 40
0.0
 40
0.0
 40
0.0
 40
0.0
 40
1.0
 40
1.0
 40
1.0
 40
2.0
 40
2.0
 40
2.0
 40
2.0
 10
88.27471514720216
 20
164.3720512826917
 30
0.0
 10
88.27471514720216
 20
164.3801472570821
 30
0.0
 10
88.27144230649117
 20
164.3880709766981
 30
0.0
 10
88.2657578989405
 20
164.3937553842488
 30
0.0
 10
88.26007349138985
 20
164.3994397917995
 30
0.0
 10
88.25214977177377
 20
164.4025403777362
 30
0.0
 10
88.24405379738343
 20
164.4025403777362
 30
0.0
  0
SPLINE
  5
58
330
3C
100
AcDbEntity
  8
Capa 1
 62
   250
370
    13
100
AcDbSpline
210
0.0
220
0.0
230
1.0
 70
    27
 71
     3
 72
    11
 73
     7
 74
     0
 42
0.0000000001
 43
0.0000000001
 40
0.0
 40
0.0
 40
0.0
 40
0.0
 40
1.0
 40
1.0
 40
1.0
 40
2.0
 40
2.0
 40
2.0
 40
2.0
 10
75.56179604230748
 20
163.7062865801672
 30
0.0
 10
75.56179604230748
 20
163.7062865801672
 30
0.0
 10
87.5782890948589
 20
163.7062865801672
 30
0.0
 10
87.5782890948589
 20
163.7062865801672
 30
0.0
 10
87.5782890948589
 20
163.7062865801672
 30
0.0
 10
75.56179604230748
 20
163.7062865801672
 30
0.0
 10
75.56179604230748
 20
163.7062865801672
 30
0.0
  0
SPLINE
  5
59
330
3C
100
AcDbEntity
  8
Capa 1
 62
   250
370
    13
100
AcDbSpline
210
0.0
220
0.0
230
1.0
 70
    27
 71
     3
 72
    11
 73
     7
 74
     0
 42
0.0000000001
 43
0.0000000001
 40
0.0
 40
0.0
 40
0.0
 40
0.0
 40
1.0
 40
1.0
 40
1.0
 40
2.0
 40
2.0
 40
2.0
 40
2.0
 10
75.56179604230748
 20
151.6897935276158
 30
0.0
 10
75.56179604230748
 20
151.6897935276158
 30
0.0
 10
87.5782890948589
 20
151.6897935276158
 30
0.0
 10
87.5782890948589
 20
151.6897935276158
 30
0.0
 10
87.5782890948589
 20
151.6897935276158
 30
0.0
 10
75.56179604230748
 20
151.6897935276158
 30
0.0
 10
75.56179604230748
 20
151.6897935276158
 30
0.0
  0
SPLINE
  5
5A
330
3C
100
AcDbEntity
  8
Capa 1
 62
   250
370
    13
100
AcDbSpline
210
0.0
220
0.0
230
1.0
 70
    27
 71
     3
 72
    11
 73
     7
 74
     0
 42
0.0000000001
 43
0.0000000001
 40
0.0
 40
0.0
 40
0.0
 40
0.0
 40
1.0
 40
1.0
 40
1.0
 40
2.0
 40
2.0
 40
2.0
 40
2.0
 10
75.56179604230748
 20
163.7062865801672
 30
0.0
 10
75.56179604230748
 20
163.7062865801672
 30
0.0
 10
75.56179604230748
 20
151.6897935276158
 30
0.0
 10
75.56179604230748
 20
151.6897935276158
 30
0.0
 10
75.56179604230748
 20
151.6897935276158
 30
0.0
 10
75.56179604230748
 20
163.7062865801672
 30
0.0
 10
75.56179604230748
 20
163.7062865801672
 30
0.0
  0
SPLINE
  5
5B
330
3C
100
AcDbEntity
  8
Capa 1
 62
   250
370
    13
100
AcDbSpline
210
0.0
220
0.0
230
1.0
 70
    27
 71
     3
 72
    11
 73
     7
 74
     0
 42
0.0000000001
 43
0.0000000001
 40
0.0
 40
0.0
 40
0.0
 40
0.0
 40
1.0
 40
1.0
 40
1.0
 40
2.0
 40
2.0
 40
2.0
 40
2.0
 10
87.5782890948589
 20
163.7062865801672
 30
0.0
 10
87.5782890948589
 20
163.7062865801672
 30
0.0
 10
87.5782890948589
 20
151.6897935276158
 30
0.0
 10
87.5782890948589
 20
151.6897935276158
 30
0.0
 10
87.5782890948589
 20
151.6897935276158
 30
0.0
 10
87.5782890948589
 20
163.7062865801672
 30
0.0
 10
87.5782890948589
 20
163.7062865801672
 30
0.0
  0
SPLINE
  5
5C
330
3C
100
AcDbEntity
  8
Capa 1
 62
   250
370
    13
100
AcDbSpline
210
0.0
220
0.0
230
1.0
 70
    27
 71
     3
 72
    11
 73
     7
 74
     0
 42
0.0000000001
 43
0.0000000001
 40
0.0
 40
0.0
 40
0.0
 40
0.0
 40
1.0
 40
1.0
 40
1.0
 40
2.0
 40
2.0
 40
2.0
 40
2.0
 10
87.5782890948589
 20
163.7062865801672
 30
0.0
 10
87.5782890948589
 20
163.7062865801672
 30
0.0
 10
88.2657578989405
 20
164.3937553842488
 30
0.0
 10
88.2657578989405
 20
164.3937553842488
 30
0.0
 10
88.2657578989405
 20
164.3937553842488
 30
0.0
 10
87.5782890948589
 20
163.7062865801672
 30
0.0
 10
87.5782890948589
 20
163.7062865801672
 30
0.0
  0
SPLINE
  5
5D
330
3C
100
AcDbEntity
  8
Capa 1
 62
   250
370
    13
100
AcDbSpline
210
0.0
220
0.0
230
1.0
 70
    27
 71
     3
 72
    11
 73
     7
 74
     0
 42
0.0000000001
 43
0.0000000001
 40
0.0
 40
0.0
 40
0.0
 40
0.0
 40
1.0
 40
1.0
 40
1.0
 40
2.0
 40
2.0
 40
2.0
 40
2.0
 10
75.56179604230748
 20
163.7062865801672
 30
0.0
 10
75.56179604230748
 20
163.7062865801672
 30
0.0
 10
74.87432723822586
 20
164.3937553842488
 30
0.0
 10
74.87432723822586
 20
164.3937553842488
 30
0.0
 10
74.87432723822586
 20
164.3937553842488
 30
0.0
 10
75.56179604230748
 20
163.7062865801672
 30
0.0
 10
75.56179604230748
 20
163.7062865801672
 30
0.0
  0
SPLINE
  5
5E
330
3C
100
AcDbEntity
  8
Capa 1
 62
   250
370
    13
100
AcDbSpline
210
0.0
220
0.0
230
1.0
 70
    27
 71
     3
 72
    11
 73
     7
 74
     0
 42
0.0000000001
 43
0.0000000001
 40
0.0
 40
0.0
 40
0.0
 40
0.0
 40
1.0
 40
1.0
 40
1.0
 40
2.0
 40
2.0
 40
2.0
 40
2.0
 10
75.56179604230748
 20
151.6897935276158
 30
0.0
 10
75.56179604230748
 20
151.6897935276158
 30
0.0
 10
74.87432723822586
 20
151.0021524687599
 30
0.0
 10
74.87432723822586
 20
151.0021524687599
 30
0.0
 10
74.87432723822586
 20
151.0021524687599
 30
0.0
 10
75.56179604230748
 20
151.6897935276158
 30
0.0
 10
75.56179604230748
 20
151.6897935276158
 30
0.0
  0
SPLINE
  5
5F
330
3C
100
AcDbEntity
  8
Capa 1
 62
   250
370
    13
100
AcDbSpline
210
0.0
220
0.0
230
1.0
 70
    27
 71
     3
 72
    11
 73
     7
 74
     0
 42
0.0000000001
 43
0.0000000001
 40
0.0
 40
0.0
 40
0.0
 40
0.0
 40
1.0
 40
1.0
 40
1.0
 40
2.0
 40
2.0
 40
2.0
 40
2.0
 10
87.5782890948589
 20
151.6897935276158
 30
0.0
 10
87.5782890948589
 20
151.6897935276158
 30
0.0
 10
88.2657578989405
 20
151.0021524687599
 30
0.0
 10
88.2657578989405
 20
151.0021524687599
 30
0.0
 10
88.2657578989405
 20
151.0021524687599
 30
0.0
 10
87.5782890948589
 20
151.6897935276158
 30
0.0
 10
87.5782890948589
 20
151.6897935276158
 30
0.0
  0
SPLINE
  5
60
330
3C
100
AcDbEntity
  8
Capa 1
 62
   250
370
    13
100
AcDbSpline
210
0.0
220
0.0
230
1.0
 70
    27
 71
     3
 72
    11
 73
     7
 74
     0
 42
0.0000000001
 43
0.0000000001
 40
0.0
 40
0.0
 40
0.0
 40
0.0
 40
1.0
 40
1.0
 40
1.0
 40
2.0
 40
2.0
 40
2.0
 40
2.0
 10
95.36403263674927
 20
154.1924831428755
 30
0.0
 10
95.36403263674927
 20
154.1924831428755
 30
0.0
 10
95.36403263674927
 20
152.1297322210822
 30
0.0
 10
95.36403263674927
 20
152.1297322210822
 30
0.0
 10
95.36403263674927
 20
152.1297322210822
 30
0.0
 10
95.36403263674927
 20
154.1924831428755
 30
0.0
 10
95.36403263674927
 20
154.1924831428755
 30
0.0
  0
SPLINE
  5
61
330
3C
100
AcDbEntity
  8
Capa 1
 62
   250
370
    13
100
AcDbSpline
210
0.0
220
0.0
230
1.0
 70
    27
 71
     3
 72
    11
 73
     7
 74
     0
 42
0.0000000001
 43
0.0000000001
 40
0.0
 40
0.0
 40
0.0
 40
0.0
 40
1.0
 40
1.0
 40
1.0
 40
2.0
 40
2.0
 40
2.0
 40
2.0
 10
96.12936059879752
 20
164.5098551021017
 30
0.0
 10
96.12936059879752
 20
164.5098551021017
 30
0.0
 10
96.12936059879752
 20
154.6210530212406
 30
0.0
 10
96.12936059879752
 20
154.6210530212406
 30
0.0
 10
96.12936059879752
 20
154.6210530212406
 30
0.0
 10
96.12936059879752
 20
164.5098551021017
 30
0.0
 10
96.12936059879752
 20
164.5098551021017
 30
0.0
  0
SPLINE
  5
62
330
3C
100
AcDbEntity
  8
Capa 1
 62
   250
370
    13
100
AcDbSpline
210
0.0
220
0.0
230
1.0
 70
    27
 71
     3
 72
    11
 73
     7
 74
     0
 42
0.0000000001
 43
0.0000000001
 40
0.0
 40
0.0
 40
0.0
 40
0.0
 40
1.0
 40
1.0
 40
1.0
 40
2.0
 40
2.0
 40
2.0
 40
2.0
 10
96.12936059879752
 20
154.6210530212406
 30
0.0
 10
96.12936059879752
 20
154.6210530212406
 30
0.0
 10
96.12936059879752
 20
152.1297322210822
 30
0.0
 10
96.12936059879752
 20
152.1297322210822
 30
0.0
 10
96.12936059879752
 20
152.1297322210822
 30
0.0
 10
96.12936059879752
 20
154.6210530212406
 30
0.0
 10
96.12936059879752
 20
154.6210530212406
 30
0.0
  0
SPLINE
  5
63
330
3C
100
AcDbEntity
  8
Capa 1
 62
   250
370
    13
100
AcDbSpline
210
0.0
220
0.0
230
1.0
 70
    27
 71
     3
 72
    11
 73
     7
 74
     0
 42
0.0000000001
 43
0.0000000001
 40
0.0
 40
0.0
 40
0.0
 40
0.0
 40
1.0
 40
1.0
 40
1.0
 40
2.0
 40
2.0
 40
2.0
 40
2.0
 10
94.00166962710722
 20
159.556841322958
 30
0.0
 10
94.00166962710722
 20
159.556841322958
 30
0.0
 10
95.36403263674927
 20
159.556841322958
 30
0.0
 10
95.36403263674927
 20
159.556841322958
 30
0.0
 10
95.36403263674927
 20
159.556841322958
 30
0.0
 10
94.00166962710722
 20
159.556841322958
 30
0.0
 10
94.00166962710722
 20
159.556841322958
 30
0.0
  0
SPLINE
  5
64
330
3C
100
AcDbEntity
  8
Capa 1
 62
   250
370
    13
100
AcDbSpline
210
0.0
220
0.0
230
1.0
 70
    27
 71
     3
 72
    11
 73
     7
 74
     0
 42
0.0000000001
 43
0.0000000001
 40
0.0
 40
0.0
 40
0.0
 40
0.0
 40
1.0
 40
1.0
 40
1.0
 40
2.0
 40
2.0
 40
2.0
 40
2.0
 10
93.97497013709653
 20
159.4007784974762
 30
0.0
 10
93.97497013709653
 20
159.4007784974762
 30
0.0
 10
94.46486271509907
 20
159.3141343460222
 30
0.0
 10
94.46486271509907
 20
159.3141343460222
 30
0.0
 10
94.46486271509907
 20
159.3141343460222
 30
0.0
 10
93.97497013709653
 20
159.4007784974762
 30
0.0
 10
93.97497013709653
 20
159.4007784974762
 30
0.0
  0
SPLINE
  5
65
330
3C
100
AcDbEntity
  8
Capa 1
 62
   250
370
    13
100
AcDbSpline
210
0.0
220
0.0
230
1.0
 70
    27
 71
     3
 72
    11
 73
     7
 74
     0
 42
0.0000000001
 43
0.0000000001
 40
0.0
 40
0.0
 40
0.0
 40
0.0
 40
1.0
 40
1.0
 40
1.0
 40
2.0
 40
2.0
 40
2.0
 40
2.0
 10
94.00166962710722
 20
159.5515014249559
 30
0.0
 10
94.00166962710722
 20
159.5515014249559
 30
0.0
 10
94.49156220510976
 20
159.4650295282761
 30
0.0
 10
94.49156220510976
 20
159.4650295282761
 30
0.0
 10
94.49156220510976
 20
159.4650295282761
 30
0.0
 10
94.00166962710722
 20
159.5515014249559
 30
0.0
 10
94.00166962710722
 20
159.5515014249559
 30
0.0
  0
SPLINE
  5
66
330
3C
100
AcDbEntity
  8
Capa 1
 62
   250
370
    13
100
AcDbSpline
210
0.0
220
0.0
230
1.0
 70
    27
 71
     3
 72
    11
 73
     7
 74
     0
 42
0.0000000001
 43
0.0000000001
 40
0.0
 40
0.0
 40
0.0
 40
0.0
 40
1.0
 40
1.0
 40
1.0
 40
2.0
 40
2.0
 40
2.0
 40
2.0
 10
94.00166962710722
 20
160.7814005131901
 30
0.0
 10
94.00166962710722
 20
160.7814005131901
 30
0.0
 10
95.36403263674927
 20
160.7814005131901
 30
0.0
 10
95.36403263674927
 20
160.7814005131901
 30
0.0
 10
95.36403263674927
 20
160.7814005131901
 30
0.0
 10
94.00166962710722
 20
160.7814005131901
 30
0.0
 10
94.00166962710722
 20
160.7814005131901
 30
0.0
  0
SPLINE
  5
67
330
3C
100
AcDbEntity
  8
Capa 1
 62
   250
370
    13
100
AcDbSpline
210
0.0
220
0.0
230
1.0
 70
    27
 71
     3
 72
    11
 73
     7
 74
     0
 42
0.0000000001
 43
0.0000000001
 40
0.0
 40
0.0
 40
0.0
 40
0.0
 40
1.0
 40
1.0
 40
1.0
 40
2.0
 40
2.0
 40
2.0
 40
2.0
 10
93.97497013709653
 20
160.9372910838976
 30
0.0
 10
93.97497013709653
 20
160.9372910838976
 30
0.0
 10
94.46486271509907
 20
161.0239352353517
 30
0.0
 10
94.46486271509907
 20
161.0239352353517
 30
0.0
 10
94.46486271509907
 20
161.0239352353517
 30
0.0
 10
93.97497013709653
 20
160.9372910838976
 30
0.0
 10
93.97497013709653
 20
160.9372910838976
 30
0.0
  0
SPLINE
  5
68
330
3C
100
AcDbEntity
  8
Capa 1
 62
   250
370
    13
100
AcDbSpline
210
0.0
220
0.0
230
1.0
 70
    27
 71
     3
 72
    11
 73
     7
 74
     0
 42
0.0000000001
 43
0.0000000001
 40
0.0
 40
0.0
 40
0.0
 40
0.0
 40
1.0
 40
1.0
 40
1.0
 40
2.0
 40
2.0
 40
2.0
 40
2.0
 10
94.00166962710722
 20
160.786568156418
 30
0.0
 10
94.00166962710722
 20
160.786568156418
 30
0.0
 10
94.49156220510976
 20
160.8733845626462
 30
0.0
 10
94.49156220510976
 20
160.8733845626462
 30
0.0
 10
94.49156220510976
 20
160.8733845626462
 30
0.0
 10
94.00166962710722
 20
160.786568156418
 30
0.0
 10
94.00166962710722
 20
160.786568156418
 30
0.0
  0
SPLINE
  5
69
330
3C
100
AcDbEntity
  8
Capa 1
 62
   250
370
    13
100
AcDbSpline
210
0.0
220
0.0
230
1.0
 70
    27
 71
     3
 72
    11
 73
     7
 74
     0
 42
0.0000000001
 43
0.0000000001
 40
0.0
 40
0.0
 40
0.0
 40
0.0
 40
1.0
 40
1.0
 40
1.0
 40
2.0
 40
2.0
 40
2.0
 40
2.0
 10
93.51005450136208
 20
159.6305663663424
 30
0.0
 10
93.51005450136208
 20
159.6305663663424
 30
0.0
 10
93.51005450136208
 20
160.1690347906869
 30
0.0
 10
93.51005450136208
 20
160.1690347906869
 30
0.0
 10
93.51005450136208
 20
160.1690347906869
 30
0.0
 10
93.51005450136208
 20
159.6305663663424
 30
0.0
 10
93.51005450136208
 20
159.6305663663424
 30
0.0
  0
SPLINE
  5
6A
330
3C
100
AcDbEntity
  8
Capa 1
 62
   250
370
    13
100
AcDbSpline
210
0.0
220
0.0
230
1.0
 70
     8
 71
     3
 72
     8
 73
     4
 74
     0
 42
0.0000000001
 43
0.0000000001
 40
0.0
 40
0.0
 40
0.0
 40
0.0
 40
1.0
 40
1.0
 40
1.0
 40
1.0
 10
93.3891316498298
 20
160.1690347906869
 30
0.0
 10
93.3891316498298
 20
159.9871337490657
 30
0.0
 10
93.42788897403886
 20
159.8071275099614
 30
0.0
 10
93.50264754606879
 20
159.6412461623466
 30
0.0
  0
SPLINE
  5
6B
330
3C
100
AcDbEntity
  8
Capa 1
 62
   250
370
    13
100
AcDbSpline
210
0.0
220
0.0
230
1.0
 70
    27
 71
     3
 72
    11
 73
     7
 74
     0
 42
0.0000000001
 43
0.0000000001
 40
0.0
 40
0.0
 40
0.0
 40
0.0
 40
1.0
 40
1.0
 40
1.0
 40
2.0
 40
2.0
 40
2.0
 40
2.0
 10
93.76395803862499
 20
159.5742390551585
 30
0.0
 10
93.76395803862499
 20
159.5742390551585
 30
0.0
 10
93.76395803862499
 20
160.7638305262153
 30
0.0
 10
93.76395803862499
 20
160.7638305262153
 30
0.0
 10
93.76395803862499
 20
160.7638305262153
 30
0.0
 10
93.76395803862499
 20
159.5742390551585
 30
0.0
 10
93.76395803862499
 20
159.5742390551585
 30
0.0
  0
SPLINE
  5
6C
330
3C
100
AcDbEntity
  8
Capa 1
 62
   250
370
    13
100
AcDbSpline
210
0.0
220
0.0
230
1.0
 70
    27
 71
     3
 72
    11
 73
     7
 74
     0
 42
0.0000000001
 43
0.0000000001
 40
0.0
 40
0.0
 40
0.0
 40
0.0
 40
1.0
 40
1.0
 40
1.0
 40
2.0
 40
2.0
 40
2.0
 40
2.0
 10
93.84870738756213
 20
159.6560600729332
 30
0.0
 10
93.84870738756213
 20
159.6560600729332
 30
0.0
 10
93.84870738756213
 20
160.6821817632149
 30
0.0
 10
93.84870738756213
 20
160.6821817632149
 30
0.0
 10
93.84870738756213
 20
160.6821817632149
 30
0.0
 10
93.84870738756213
 20
159.6560600729332
 30
0.0
 10
93.84870738756213
 20
159.6560600729332
 30
0.0
  0
SPLINE
  5
6D
330
3C
100
AcDbEntity
  8
Capa 1
 62
   250
370
    13
100
AcDbSpline
210
0.0
220
0.0
230
1.0
 70
    27
 71
     3
 72
    11
 73
     7
 74
     0
 42
0.0000000001
 43
0.0000000001
 40
0.0
 40
0.0
 40
0.0
 40
0.0
 40
1.0
 40
1.0
 40
1.0
 40
2.0
 40
2.0
 40
2.0
 40
2.0
 10
93.84870738756213
 20
160.786568156418
 30
0.0
 10
93.84870738756213
 20
160.786568156418
 30
0.0
 10
93.84870738756213
 20
159.556841322958
 30
0.0
 10
93.84870738756213
 20
159.556841322958
 30
0.0
 10
93.84870738756213
 20
159.556841322958
 30
0.0
 10
93.84870738756213
 20
160.786568156418
 30
0.0
 10
93.84870738756213
 20
160.786568156418
 30
0.0
  0
SPLINE
  5
6E
330
3C
100
AcDbEntity
  8
Capa 1
 62
   250
370
    13
100
AcDbSpline
210
0.0
220
0.0
230
1.0
 70
    27
 71
     3
 72
    11
 73
     7
 74
     0
 42
0.0000000001
 43
0.0000000001
 40
0.0
 40
0.0
 40
0.0
 40
0.0
 40
1.0
 40
1.0
 40
1.0
 40
2.0
 40
2.0
 40
2.0
 40
2.0
 10
94.00166962710722
 20
160.786568156418
 30
0.0
 10
94.00166962710722
 20
160.786568156418
 30
0.0
 10
94.00166962710722
 20
159.5515014249559
 30
0.0
 10
94.00166962710722
 20
159.5515014249559
 30
0.0
 10
94.00166962710722
 20
159.5515014249559
 30
0.0
 10
94.00166962710722
 20
160.786568156418
 30
0.0
 10
94.00166962710722
 20
160.786568156418
 30
0.0
  0
SPLINE
  5
6F
330
3C
100
AcDbEntity
  8
Capa 1
 62
   250
370
    13
100
AcDbSpline
210
0.0
220
0.0
230
1.0
 70
     8
 71
     3
 72
     8
 73
     4
 74
     0
 42
0.0000000001
 43
0.0000000001
 40
0.0
 40
0.0
 40
0.0
 40
0.0
 40
1.0
 40
1.0
 40
1.0
 40
1.0
 10
93.72106659983362
 20
159.5747558194813
 30
0.0
 10
93.7482828541671
 20
159.5682101380594
 30
0.0
 10
93.77704940146894
 20
159.57389454561
 30
0.0
 10
93.79978703167158
 20
159.5900864943907
 30
0.0
  0
SPLINE
  5
70
330
3C
100
AcDbEntity
  8
Capa 1
 62
   250
370
    13
100
AcDbSpline
210
0.0
220
0.0
230
1.0
 70
     8
 71
     3
 72
     8
 73
     4
 74
     0
 42
0.0000000001
 43
0.0000000001
 40
0.0
 40
0.0
 40
0.0
 40
0.0
 40
1.0
 40
1.0
 40
1.0
 40
1.0
 10
93.82338593574555
 20
159.6069674622684
 30
0.0
 10
93.83906112020344
 20
159.6183362773697
 30
0.0
 10
93.84870738756213
 20
159.6365952834416
 30
0.0
 10
93.84870738756213
 20
159.6560600729332
 30
0.0
  0
SPLINE
  5
71
330
3C
100
AcDbEntity
  8
Capa 1
 62
   250
370
    13
100
AcDbSpline
210
0.0
220
0.0
230
1.0
 70
    27
 71
     3
 72
    11
 73
     7
 74
     0
 42
0.0000000001
 43
0.0000000001
 40
0.0
 40
0.0
 40
0.0
 40
0.0
 40
1.0
 40
1.0
 40
1.0
 40
2.0
 40
2.0
 40
2.0
 40
2.0
 10
93.79978703167158
 20
159.5900864943907
 30
0.0
 10
93.79978703167158
 20
159.5900864943907
 30
0.0
 10
93.82338593574555
 20
159.6069674622684
 30
0.0
 10
93.82338593574555
 20
159.6069674622684
 30
0.0
 10
93.82338593574555
 20
159.6069674622684
 30
0.0
 10
93.79978703167158
 20
159.5900864943907
 30
0.0
 10
93.79978703167158
 20
159.5900864943907
 30
0.0
  0
SPLINE
  5
72
330
3C
100
AcDbEntity
  8
Capa 1
 62
   250
370
    13
100
AcDbSpline
210
0.0
220
0.0
230
1.0
 70
     8
 71
     3
 72
     8
 73
     4
 74
     0
 42
0.0000000001
 43
0.0000000001
 40
0.0
 40
0.0
 40
0.0
 40
0.0
 40
1.0
 40
1.0
 40
1.0
 40
1.0
 10
93.50264754606879
 20
159.6412461623466
 30
0.0
 10
93.50712617019961
 20
159.6310831306652
 30
0.0
 10
93.51625567323552
 20
159.6235039205976
 30
0.0
 10
93.52727997878833
 20
159.6209200989837
 30
0.0
  0
SPLINE
  5
73
330
3C
100
AcDbEntity
  8
Capa 1
 62
   250
370
    13
100
AcDbSpline
210
0.0
220
0.0
230
1.0
 70
    27
 71
     3
 72
    11
 73
     7
 74
     0
 42
0.0000000001
 43
0.0000000001
 40
0.0
 40
0.0
 40
0.0
 40
0.0
 40
1.0
 40
1.0
 40
1.0
 40
2.0
 40
2.0
 40
2.0
 40
2.0
 10
93.52727997878833
 20
159.6209200989837
 30
0.0
 10
93.52727997878833
 20
159.6209200989837
 30
0.0
 10
93.72106659983362
 20
159.5747558194813
 30
0.0
 10
93.72106659983362
 20
159.5747558194813
 30
0.0
 10
93.72106659983362
 20
159.5747558194813
 30
0.0
 10
93.52727997878833
 20
159.6209200989837
 30
0.0
 10
93.52727997878833
 20
159.6209200989837
 30
0.0
  0
SPLINE
  5
74
330
3C
100
AcDbEntity
  8
Capa 1
 62
   250
370
    13
100
AcDbSpline
210
0.0
220
0.0
230
1.0
 70
     8
 71
     3
 72
     8
 73
     4
 74
     0
 42
0.0000000001
 43
0.0000000001
 40
0.0
 40
0.0
 40
0.0
 40
0.0
 40
1.0
 40
1.0
 40
1.0
 40
1.0
 10
93.84870738756213
 20
159.5515014249559
 30
0.0
 10
93.84870738756213
 20
159.4772596172487
 30
0.0
 10
93.90193411280924
 20
159.4136976055459
 30
0.0
 10
93.97497013709653
 20
159.4007784974762
 30
0.0
  0
SPLINE
  5
75
330
3C
100
AcDbEntity
  8
Capa 1
 62
   250
370
    13
100
AcDbSpline
210
0.0
220
0.0
230
1.0
 70
     8
 71
     3
 72
     8
 73
     4
 74
     0
 42
0.0000000001
 43
0.0000000001
 40
0.0
 40
0.0
 40
0.0
 40
0.0
 40
1.0
 40
1.0
 40
1.0
 40
1.0
 10
93.79978703167158
 20
160.7481553417574
 30
0.0
 10
93.77704940146894
 20
160.7643472905381
 30
0.0
 10
93.7482828541671
 20
160.7698594433145
 30
0.0
 10
93.72106659983362
 20
160.7634860166668
 30
0.0
  0
SPLINE
  5
76
330
3C
100
AcDbEntity
  8
Capa 1
 62
   250
370
    13
100
AcDbSpline
210
0.0
220
0.0
230
1.0
 70
     8
 71
     3
 72
     8
 73
     4
 74
     0
 42
0.0000000001
 43
0.0000000001
 40
0.0
 40
0.0
 40
0.0
 40
0.0
 40
1.0
 40
1.0
 40
1.0
 40
1.0
 10
93.84870738756213
 20
160.6821817632149
 30
0.0
 10
93.84870738756213
 20
160.7016465527065
 30
0.0
 10
93.83906112020344
 20
160.7199055587784
 30
0.0
 10
93.82338593574555
 20
160.7312743738797
 30
0.0
  0
SPLINE
  5
77
330
3C
100
AcDbEntity
  8
Capa 1
 62
   250
370
    13
100
AcDbSpline
210
0.0
220
0.0
230
1.0
 70
    27
 71
     3
 72
    11
 73
     7
 74
     0
 42
0.0000000001
 43
0.0000000001
 40
0.0
 40
0.0
 40
0.0
 40
0.0
 40
1.0
 40
1.0
 40
1.0
 40
2.0
 40
2.0
 40
2.0
 40
2.0
 10
93.79978703167158
 20
160.7481553417574
 30
0.0
 10
93.79978703167158
 20
160.7481553417574
 30
0.0
 10
93.82338593574555
 20
160.7312743738797
 30
0.0
 10
93.82338593574555
 20
160.7312743738797
 30
0.0
 10
93.82338593574555
 20
160.7312743738797
 30
0.0
 10
93.79978703167158
 20
160.7481553417574
 30
0.0
 10
93.79978703167158
 20
160.7481553417574
 30
0.0
  0
SPLINE
  5
78
330
3C
100
AcDbEntity
  8
Capa 1
 62
   250
370
    13
100
AcDbSpline
210
0.0
220
0.0
230
1.0
 70
     8
 71
     3
 72
     8
 73
     4
 74
     0
 42
0.0000000001
 43
0.0000000001
 40
0.0
 40
0.0
 40
0.0
 40
0.0
 40
1.0
 40
1.0
 40
1.0
 40
1.0
 10
93.97497013709653
 20
160.9372910838976
 30
0.0
 10
93.90193411280924
 20
160.9243719758279
 30
0.0
 10
93.84870738756213
 20
160.8609822188994
 30
0.0
 10
93.84870738756213
 20
160.786568156418
 30
0.0
  0
SPLINE
  5
79
330
3C
100
AcDbEntity
  8
Capa 1
 62
   250
370
    13
100
AcDbSpline
210
0.0
220
0.0
230
1.0
 70
     8
 71
     3
 72
     8
 73
     4
 74
     0
 42
0.0000000001
 43
0.0000000001
 40
0.0
 40
0.0
 40
0.0
 40
0.0
 40
1.0
 40
1.0
 40
1.0
 40
1.0
 10
93.52727997878833
 20
160.7171494823902
 30
0.0
 10
93.51625567323552
 20
160.7147379155505
 30
0.0
 10
93.50712617019961
 20
160.707158705483
 30
0.0
 10
93.50264754606879
 20
160.6969956738014
 30
0.0
  0
SPLINE
  5
7A
330
3C
100
AcDbEntity
  8
Capa 1
 62
   250
370
    13
100
AcDbSpline
210
0.0
220
0.0
230
1.0
 70
    27
 71
     3
 72
    11
 73
     7
 74
     0
 42
0.0000000001
 43
0.0000000001
 40
0.0
 40
0.0
 40
0.0
 40
0.0
 40
1.0
 40
1.0
 40
1.0
 40
2.0
 40
2.0
 40
2.0
 40
2.0
 10
93.52727997878833
 20
160.7171494823902
 30
0.0
 10
93.52727997878833
 20
160.7171494823902
 30
0.0
 10
93.72106659983362
 20
160.7634860166668
 30
0.0
 10
93.72106659983362
 20
160.7634860166668
 30
0.0
 10
93.72106659983362
 20
160.7634860166668
 30
0.0
 10
93.52727997878833
 20
160.7171494823902
 30
0.0
 10
93.52727997878833
 20
160.7171494823902
 30
0.0
  0
SPLINE
  5
7B
330
3C
100
AcDbEntity
  8
Capa 1
 62
   250
370
    13
100
AcDbSpline
210
0.0
220
0.0
230
1.0
 70
    27
 71
     3
 72
    11
 73
     7
 74
     0
 42
0.0000000001
 43
0.0000000001
 40
0.0
 40
0.0
 40
0.0
 40
0.0
 40
1.0
 40
1.0
 40
1.0
 40
2.0
 40
2.0
 40
2.0
 40
2.0
 10
93.51005450136208
 20
160.1690347906869
 30
0.0
 10
93.51005450136208
 20
160.1690347906869
 30
0.0
 10
93.51005450136208
 20
160.7076754698057
 30
0.0
 10
93.51005450136208
 20
160.7076754698057
 30
0.0
 10
93.51005450136208
 20
160.7076754698057
 30
0.0
 10
93.51005450136208
 20
160.1690347906869
 30
0.0
 10
93.51005450136208
 20
160.1690347906869
 30
0.0
  0
SPLINE
  5
7C
330
3C
100
AcDbEntity
  8
Capa 1
 62
   250
370
    13
100
AcDbSpline
210
0.0
220
0.0
230
1.0
 70
     8
 71
     3
 72
     8
 73
     4
 74
     0
 42
0.0000000001
 43
0.0000000001
 40
0.0
 40
0.0
 40
0.0
 40
0.0
 40
1.0
 40
1.0
 40
1.0
 40
1.0
 10
93.50264754606879
 20
160.6969956738014
 30
0.0
 10
93.42788897403886
 20
160.5309420714124
 30
0.0
 10
93.3891316498298
 20
160.3511080870824
 30
0.0
 10
93.3891316498298
 20
160.1690347906869
 30
0.0
  0
SPLINE
  5
7D
330
3C
100
AcDbEntity
  8
Capa 1
 62
   250
370
    13
100
AcDbSpline
210
0.0
220
0.0
230
1.0
 70
    27
 71
     3
 72
    11
 73
     7
 74
     0
 42
0.0000000001
 43
0.0000000001
 40
0.0
 40
0.0
 40
0.0
 40
0.0
 40
1.0
 40
1.0
 40
1.0
 40
2.0
 40
2.0
 40
2.0
 40
2.0
 10
94.46486271509907
 20
159.3141343460222
 30
0.0
 10
94.46486271509907
 20
159.3141343460222
 30
0.0
 10
94.49156220510976
 20
159.4650295282761
 30
0.0
 10
94.49156220510976
 20
159.4650295282761
 30
0.0
 10
94.49156220510976
 20
159.4650295282761
 30
0.0
 10
94.46486271509907
 20
159.3141343460222
 30
0.0
 10
94.46486271509907
 20
159.3141343460222
 30
0.0
  0
SPLINE
  5
7E
330
3C
100
AcDbEntity
  8
Capa 1
 62
   250
370
    13
100
AcDbSpline
210
0.0
220
0.0
230
1.0
 70
    27
 71
     3
 72
    11
 73
     7
 74
     0
 42
0.0000000001
 43
0.0000000001
 40
0.0
 40
0.0
 40
0.0
 40
0.0
 40
1.0
 40
1.0
 40
1.0
 40
2.0
 40
2.0
 40
2.0
 40
2.0
 10
94.46486271509907
 20
161.0239352353517
 30
0.0
 10
94.46486271509907
 20
161.0239352353517
 30
0.0
 10
94.49156220510976
 20
160.8733845626462
 30
0.0
 10
94.49156220510976
 20
160.8733845626462
 30
0.0
 10
94.49156220510976
 20
160.8733845626462
 30
0.0
 10
94.46486271509907
 20
161.0239352353517
 30
0.0
 10
94.46486271509907
 20
161.0239352353517
 30
0.0
  0
SPLINE
  5
7F
330
3C
100
AcDbEntity
  8
Capa 1
 62
   250
370
    13
100
AcDbSpline
210
0.0
220
0.0
230
1.0
 70
    27
 71
     3
 72
    11
 73
     7
 74
     0
 42
0.0000000001
 43
0.0000000001
 40
0.0
 40
0.0
 40
0.0
 40
0.0
 40
1.0
 40
1.0
 40
1.0
 40
2.0
 40
2.0
 40
2.0
 40
2.0
 10
101.5605536312939
 20
161.1620835643102
 30
0.0
 10
101.5605536312939
 20
161.1620835643102
 30
0.0
 10
102.1727470990228
 20
161.1620835643102
 30
0.0
 10
102.1727470990228
 20
161.1620835643102
 30
0.0
 10
102.1727470990228
 20
161.1620835643102
 30
0.0
 10
101.5605536312939
 20
161.1620835643102
 30
0.0
 10
101.5605536312939
 20
161.1620835643102
 30
0.0
  0
SPLINE
  5
80
330
3C
100
AcDbEntity
  8
Capa 1
 62
   250
370
    13
100
AcDbSpline
210
0.0
220
0.0
230
1.0
 70
    27
 71
     3
 72
    11
 73
     7
 74
     0
 42
0.0000000001
 43
0.0000000001
 40
0.0
 40
0.0
 40
0.0
 40
0.0
 40
1.0
 40
1.0
 40
1.0
 40
2.0
 40
2.0
 40
2.0
 40
2.0
 10
101.5605536312939
 20
160.9691582171362
 30
0.0
 10
101.5605536312939
 20
160.9691582171362
 30
0.0
 10
102.1727470990228
 20
160.9691582171362
 30
0.0
 10
102.1727470990228
 20
160.9691582171362
 30
0.0
 10
102.1727470990228
 20
160.9691582171362
 30
0.0
 10
101.5605536312939
 20
160.9691582171362
 30
0.0
 10
101.5605536312939
 20
160.9691582171362
 30
0.0
  0
SPLINE
  5
81
330
3C
100
AcDbEntity
  8
Capa 1
 62
   250
370
    13
100
AcDbSpline
210
0.0
220
0.0
230
1.0
 70
    27
 71
     3
 72
    11
 73
     7
 74
     0
 42
0.0000000001
 43
0.0000000001
 40
0.0
 40
0.0
 40
0.0
 40
0.0
 40
1.0
 40
1.0
 40
1.0
 40
2.0
 40
2.0
 40
2.0
 40
2.0
 10
101.5605536312939
 20
161.1620835643102
 30
0.0
 10
101.5605536312939
 20
161.1620835643102
 30
0.0
 10
101.5605536312939
 20
160.9691582171362
 30
0.0
 10
101.5605536312939
 20
160.9691582171362
 30
0.0
 10
101.5605536312939
 20
160.9691582171362
 30
0.0
 10
101.5605536312939
 20
161.1620835643102
 30
0.0
 10
101.5605536312939
 20
161.1620835643102
 30
0.0
  0
SPLINE
  5
82
330
3C
100
AcDbEntity
  8
Capa 1
 62
   250
370
    13
100
AcDbSpline
210
0.0
220
0.0
230
1.0
 70
    27
 71
     3
 72
    11
 73
     7
 74
     0
 42
0.0000000001
 43
0.0000000001
 40
0.0
 40
0.0
 40
0.0
 40
0.0
 40
1.0
 40
1.0
 40
1.0
 40
2.0
 40
2.0
 40
2.0
 40
2.0
 10
102.1727470990228
 20
164.6934786914655
 30
0.0
 10
102.1727470990228
 20
164.6934786914655
 30
0.0
 10
101.5605536312939
 20
164.5556748720555
 30
0.0
 10
101.5605536312939
 20
164.5556748720555
 30
0.0
 10
101.5605536312939
 20
164.5556748720555
 30
0.0
 10
102.1727470990228
 20
164.6934786914655
 30
0.0
 10
102.1727470990228
 20
164.6934786914655
 30
0.0
  0
SPLINE
  5
83
330
3C
100
AcDbEntity
  8
Capa 1
 62
   250
370
    13
100
AcDbSpline
210
0.0
220
0.0
230
1.0
 70
    27
 71
     3
 72
    11
 73
     7
 74
     0
 42
0.0000000001
 43
0.0000000001
 40
0.0
 40
0.0
 40
0.0
 40
0.0
 40
1.0
 40
1.0
 40
1.0
 40
2.0
 40
2.0
 40
2.0
 40
2.0
 10
124.779291418458
 20
146.3834852064597
 30
0.0
 10
124.779291418458
 20
146.3834852064597
 30
0.0
 10
124.779291418458
 20
132.3006238818554
 30
0.0
 10
124.779291418458
 20
132.3006238818554
 30
0.0
 10
124.779291418458
 20
132.3006238818554
 30
0.0
 10
124.779291418458
 20
146.3834852064597
 30
0.0
 10
124.779291418458
 20
146.3834852064597
 30
0.0
  0
SPLINE
  5
84
330
3C
100
AcDbEntity
  8
Capa 1
 62
   250
370
    13
100
AcDbSpline
210
0.0
220
0.0
230
1.0
 70
    27
 71
     3
 72
    11
 73
     7
 74
     0
 42
0.0000000001
 43
0.0000000001
 40
0.0
 40
0.0
 40
0.0
 40
0.0
 40
1.0
 40
1.0
 40
1.0
 40
2.0
 40
2.0
 40
2.0
 40
2.0
 10
138.8621527430622
 20
146.3834852064597
 30
0.0
 10
138.8621527430622
 20
146.3834852064597
 30
0.0
 10
138.8621527430622
 20
132.3006238818554
 30
0.0
 10
138.8621527430622
 20
132.3006238818554
 30
0.0
 10
138.8621527430622
 20
132.3006238818554
 30
0.0
 10
138.8621527430622
 20
146.3834852064597
 30
0.0
 10
138.8621527430622
 20
146.3834852064597
 30
0.0
  0
SPLINE
  5
85
330
3C
100
AcDbEntity
  8
Capa 1
 62
   250
370
    13
100
AcDbSpline
210
0.0
220
0.0
230
1.0
 70
    27
 71
     3
 72
    11
 73
     7
 74
     0
 42
0.0000000001
 43
0.0000000001
 40
0.0
 40
0.0
 40
0.0
 40
0.0
 40
1.0
 40
1.0
 40
1.0
 40
2.0
 40
2.0
 40
2.0
 40
2.0
 10
124.779291418458
 20
146.3834852064597
 30
0.0
 10
124.779291418458
 20
146.3834852064597
 30
0.0
 10
138.8621527430622
 20
146.3834852064597
 30
0.0
 10
138.8621527430622
 20
146.3834852064597
 30
0.0
 10
138.8621527430622
 20
146.3834852064597
 30
0.0
 10
124.779291418458
 20
146.3834852064597
 30
0.0
 10
124.779291418458
 20
146.3834852064597
 30
0.0
  0
SPLINE
  5
86
330
3C
100
AcDbEntity
  8
Capa 1
 62
   250
370
    13
100
AcDbSpline
210
0.0
220
0.0
230
1.0
 70
    27
 71
     3
 72
    11
 73
     7
 74
     0
 42
0.0000000001
 43
0.0000000001
 40
0.0
 40
0.0
 40
0.0
 40
0.0
 40
1.0
 40
1.0
 40
1.0
 40
2.0
 40
2.0
 40
2.0
 40
2.0
 10
124.779291418458
 20
132.3006238818554
 30
0.0
 10
124.779291418458
 20
132.3006238818554
 30
0.0
 10
138.8621527430622
 20
132.3006238818554
 30
0.0
 10
138.8621527430622
 20
132.3006238818554
 30
0.0
 10
138.8621527430622
 20
132.3006238818554
 30
0.0
 10
124.779291418458
 20
132.3006238818554
 30
0.0
 10
124.779291418458
 20
132.3006238818554
 30
0.0
  0
POLYLINE
  5
87
330
3C
100
AcDbEntity
  8
Capa 1
 62
   250
370
    13
100
AcDb2dPolyline
 66
     1
 10
0.0
 20
0.0
 30
0.0
  0
VERTEX
  5
88
330
87
100
AcDbEntity
  8
Capa 1
 62
   250
370
    13
100
AcDbVertex
100
AcDb2dVertex
 10
123.7430066964948
 20
147.7759928015977
 30
0.0
  0
VERTEX
  5
89
330
87
100
AcDbEntity
  8
Capa 1
 62
   250
370
    13
100
AcDbVertex
100
AcDb2dVertex
 10
124.3762152466837
 20
147.911385054168
 30
0.0
  0
VERTEX
  5
8A
330
87
100
AcDbEntity
  8
Capa 1
 62
   250
370
    13
100
AcDbVertex
100
AcDb2dVertex
 10
125.4627983627315
 20
147.7305175411924
 30
0.0
  0
VERTEX
  5
8B
330
87
100
AcDbEntity
  8
Capa 1
 62
   250
370
    13
100
AcDbVertex
100
AcDb2dVertex
 10
126.3226941958499
 20
147.7759928015977
 30
0.0
  0
VERTEX
  5
8C
330
87
100
AcDbEntity
  8
Capa 1
 62
   250
370
    13
100
AcDbVertex
100
AcDb2dVertex
 10
127.137114768563
 20
147.7759928015977
 30
0.0
  0
VERTEX
  5
8D
330
87
100
AcDbEntity
  8
Capa 1
 62
   250
370
    13
100
AcDbVertex
100
AcDb2dVertex
 10
127.8612738395625
 20
147.9565158050248
 30
0.0
  0
VERTEX
  5
8E
330
87
100
AcDbEntity
  8
Capa 1
 62
   250
370
    13
100
AcDbVertex
100
AcDb2dVertex
 10
128.3139593863243
 20
147.8207790429059
 30
0.0
  0
VERTEX
  5
8F
330
87
100
AcDbEntity
  8
Capa 1
 62
   250
370
    13
100
AcDbVertex
100
AcDb2dVertex
 10
129.3543782228697
 20
147.50451927736
 30
0.0
  0
VERTEX
  5
90
330
87
100
AcDbEntity
  8
Capa 1
 62
   250
370
    13
100
AcDbVertex
100
AcDb2dVertex
 10
129.8973252713451
 20
148.0019910654301
 30
0.0
  0
VERTEX
  5
91
330
87
100
AcDbEntity
  8
Capa 1
 62
   250
370
    13
100
AcDbVertex
100
AcDb2dVertex
 10
131.0286946287012
 20
147.9565158050248
 30
0.0
  0
VERTEX
  5
92
330
87
100
AcDbEntity
  8
Capa 1
 62
   250
370
    13
100
AcDbVertex
100
AcDb2dVertex
 10
131.6625921979871
 20
147.8207790429059
 30
0.0
  0
VERTEX
  5
93
330
87
100
AcDbEntity
  8
Capa 1
 62
   250
370
    13
100
AcDbVertex
100
AcDb2dVertex
 10
132.3867512689866
 20
147.9565158050248
 30
0.0
  0
VERTEX
  5
94
330
87
100
AcDbEntity
  8
Capa 1
 62
   250
370
    13
100
AcDbVertex
100
AcDb2dVertex
 10
133.0654350795809
 20
147.9565158050248
 30
0.0
  0
VERTEX
  5
95
330
87
100
AcDbEntity
  8
Capa 1
 62
   250
370
    13
100
AcDbVertex
100
AcDb2dVertex
 10
134.1968044369369
 20
147.6850422807871
 30
0.0
  0
VERTEX
  5
96
330
87
100
AcDbEntity
  8
Capa 1
 62
   250
370
    13
100
AcDbVertex
100
AcDb2dVertex
 10
135.5093858168171
 20
147.7305175411924
 30
0.0
  0
VERTEX
  5
97
330
87
100
AcDbEntity
  8
Capa 1
 62
   250
370
    13
100
AcDbVertex
100
AcDb2dVertex
 10
135.9165961031736
 20
147.8207790429059
 30
0.0
  0
VERTEX
  5
98
330
87
100
AcDbEntity
  8
Capa 1
 62
   250
370
    13
100
AcDbVertex
100
AcDb2dVertex
 10
137.4097004864809
 20
147.8662543033112
 30
0.0
  0
VERTEX
  5
99
330
87
100
AcDbEntity
  8
Capa 1
 62
   250
370
    13
100
AcDbVertex
100
AcDb2dVertex
 10
138.3150715800046
 20
147.7305175411924
 30
0.0
  0
VERTEX
  5
9A
330
87
100
AcDbEntity
  8
Capa 1
 62
   250
370
    13
100
AcDbVertex
100
AcDb2dVertex
 10
139.1749674131229
 20
147.7759928015977
 30
0.0
  0
VERTEX
  5
9B
330
87
100
AcDbEntity
  8
Capa 1
 62
   250
370
    13
100
AcDbVertex
100
AcDb2dVertex
 10
140.0803385066466
 20
147.7759928015977
 30
0.0
  0
VERTEX
  5
9C
330
87
100
AcDbEntity
  8
Capa 1
 62
   250
370
    13
100
AcDbVertex
100
AcDb2dVertex
 10
140.2608615100737
 20
146.7355739650522
 30
0.0
  0
VERTEX
  5
9D
330
87
100
AcDbEntity
  8
Capa 1
 62
   250
370
    13
100
AcDbVertex
100
AcDb2dVertex
 10
140.3518120308843
 20
145.9218424114362
 30
0.0
  0
VERTEX
  5
9E
330
87
100
AcDbEntity
  8
Capa 1
 62
   250
370
    13
100
AcDbVertex
100
AcDb2dVertex
 10
140.2160752687654
 20
145.1081108578202
 30
0.0
  0
VERTEX
  5
9F
330
87
100
AcDbEntity
  8
Capa 1
 62
   250
370
    13
100
AcDbVertex
100
AcDb2dVertex
 10
140.5323350343114
 20
143.7066460144206
 30
0.0
  0
VERTEX
  5
A0
330
87
100
AcDbEntity
  8
Capa 1
 62
   250
370
    13
100
AcDbVertex
100
AcDb2dVertex
 10
140.3965982721925
 20
142.7117024382804
 30
0.0
  0
VERTEX
  5
A1
330
87
100
AcDbEntity
  8
Capa 1
 62
   250
370
    13
100
AcDbVertex
100
AcDb2dVertex
 10
140.4420735325978
 20
141.4459743569996
 30
0.0
  0
VERTEX
  5
A2
330
87
100
AcDbEntity
  8
Capa 1
 62
   250
370
    13
100
AcDbVertex
100
AcDb2dVertex
 10
140.306336770479
 20
140.3607692791459
 30
0.0
  0
VERTEX
  5
A3
330
87
100
AcDbEntity
  8
Capa 1
 62
   250
370
    13
100
AcDbVertex
100
AcDb2dVertex
 10
140.4875487930031
 20
139.4567762238164
 30
0.0
  0
VERTEX
  5
A4
330
87
100
AcDbEntity
  8
Capa 1
 62
   250
370
    13
100
AcDbVertex
100
AcDb2dVertex
 10
140.3518120308843
 20
138.7333061719139
 30
0.0
  0
VERTEX
  5
A5
330
87
100
AcDbEntity
  8
Capa 1
 62
   250
370
    13
100
AcDbVertex
100
AcDb2dVertex
 10
140.5323350343114
 20
137.8286240974873
 30
0.0
  0
VERTEX
  5
A6
330
87
100
AcDbEntity
  8
Capa 1
 62
   250
370
    13
100
AcDbVertex
100
AcDb2dVertex
 10
140.2608615100737
 20
136.6531575179201
 30
0.0
  0
VERTEX
  5
A7
330
87
100
AcDbEntity
  8
Capa 1
 62
   250
370
    13
100
AcDbVertex
100
AcDb2dVertex
 10
140.4875487930031
 20
135.2971679349257
 30
0.0
  0
VERTEX
  5
A8
330
87
100
AcDbEntity
  8
Capa 1
 62
   250
370
    13
100
AcDbVertex
100
AcDb2dVertex
 10
140.4875487930031
 20
133.5339680655748
 30
0.0
  0
VERTEX
  5
A9
330
87
100
AcDbEntity
  8
Capa 1
 62
   250
370
    13
100
AcDbVertex
100
AcDb2dVertex
 10
140.4875487930031
 20
133.0364962775048
 30
0.0
  0
VERTEX
  5
AA
330
87
100
AcDbEntity
  8
Capa 1
 62
   250
370
    13
100
AcDbVertex
100
AcDb2dVertex
 10
140.4875487930031
 20
131.5440809132946
 30
0.0
  0
VERTEX
  5
AB
330
87
100
AcDbEntity
  8
Capa 1
 62
   250
370
    13
100
AcDbVertex
100
AcDb2dVertex
 10
140.5323350343114
 20
131.0920843856298
 30
0.0
  0
VERTEX
  5
AC
330
87
100
AcDbEntity
  8
Capa 1
 62
   250
370
    13
100
AcDbVertex
100
AcDb2dVertex
 10
139.2652289148365
 20
130.9563476235109
 30
0.0
  0
VERTEX
  5
AD
330
87
100
AcDbEntity
  8
Capa 1
 62
   250
370
    13
100
AcDbVertex
100
AcDb2dVertex
 10
138.1793348178857
 20
130.7758246200838
 30
0.0
  0
VERTEX
  5
AE
330
87
100
AcDbEntity
  8
Capa 1
 62
   250
370
    13
100
AcDbVertex
100
AcDb2dVertex
 10
137.1382269622432
 20
130.9563476235109
 30
0.0
  0
VERTEX
  5
AF
330
87
100
AcDbEntity
  8
Capa 1
 62
   250
370
    13
100
AcDbVertex
100
AcDb2dVertex
 10
136.1880696274113
 20
131.0018228839162
 30
0.0
  0
VERTEX
  5
B0
330
87
100
AcDbEntity
  8
Capa 1
 62
   250
370
    13
100
AcDbVertex
100
AcDb2dVertex
 10
134.9209635079364
 20
130.7758246200838
 30
0.0
  0
VERTEX
  5
B1
330
87
100
AcDbEntity
  8
Capa 1
 62
   250
370
    13
100
AcDbVertex
100
AcDb2dVertex
 10
134.1065429352234
 20
130.9115613822027
 30
0.0
  0
VERTEX
  5
B2
330
87
100
AcDbEntity
  8
Capa 1
 62
   250
370
    13
100
AcDbVertex
100
AcDb2dVertex
 10
133.1556965812944
 20
131.0018228839162
 30
0.0
  0
VERTEX
  5
B3
330
87
100
AcDbEntity
  8
Capa 1
 62
   250
370
    13
100
AcDbVertex
100
AcDb2dVertex
 10
132.4770127707002
 20
130.8206108613921
 30
0.0
  0
VERTEX
  5
B4
330
87
100
AcDbEntity
  8
Capa 1
 62
   250
370
    13
100
AcDbVertex
100
AcDb2dVertex
 10
131.5723306962736
 20
131.0018228839162
 30
0.0
  0
VERTEX
  5
B5
330
87
100
AcDbEntity
  8
Capa 1
 62
   250
370
    13
100
AcDbVertex
100
AcDb2dVertex
 10
130.5312228406311
 20
131.2278211477486
 30
0.0
  0
VERTEX
  5
B6
330
87
100
AcDbEntity
  8
Capa 1
 62
   250
370
    13
100
AcDbVertex
100
AcDb2dVertex
 10
128.9016926761079
 20
131.0920843856298
 30
0.0
  0
VERTEX
  5
B7
330
87
100
AcDbEntity
  8
Capa 1
 62
   250
370
    13
100
AcDbVertex
100
AcDb2dVertex
 10
126.4584309579687
 20
131.0018228839162
 30
0.0
  0
VERTEX
  5
B8
330
87
100
AcDbEntity
  8
Capa 1
 62
   250
370
    13
100
AcDbVertex
100
AcDb2dVertex
 10
125.0101128159697
 20
131.1830349064404
 30
0.0
  0
VERTEX
  5
B9
330
87
100
AcDbEntity
  8
Capa 1
 62
   250
370
    13
100
AcDbVertex
100
AcDb2dVertex
 10
123.607269934376
 20
131.0472981443215
 30
0.0
  0
VERTEX
  5
BA
330
87
100
AcDbEntity
  8
Capa 1
 62
   250
370
    13
100
AcDbVertex
100
AcDb2dVertex
 10
123.3357964101383
 20
132.0415527013646
 30
0.0
  0
VERTEX
  5
BB
330
87
100
AcDbEntity
  8
Capa 1
 62
   250
370
    13
100
AcDbVertex
100
AcDb2dVertex
 10
123.5163194135654
 20
133.4884928051696
 30
0.0
  0
VERTEX
  5
BC
330
87
100
AcDbEntity
  8
Capa 1
 62
   250
370
    13
100
AcDbVertex
100
AcDb2dVertex
 10
123.5163194135654
 20
134.9354329089745
 30
0.0
  0
VERTEX
  5
BD
330
87
100
AcDbEntity
  8
Capa 1
 62
   250
370
    13
100
AcDbVertex
100
AcDb2dVertex
 10
123.4260579118518
 20
136.0206379868282
 30
0.0
  0
VERTEX
  5
BE
330
87
100
AcDbEntity
  8
Capa 1
 62
   250
370
    13
100
AcDbVertex
100
AcDb2dVertex
 10
123.1545843876141
 20
137.4675780906331
 30
0.0
  0
VERTEX
  5
BF
330
87
100
AcDbEntity
  8
Capa 1
 62
   250
370
    13
100
AcDbVertex
100
AcDb2dVertex
 10
123.4260579118518
 20
139.1398274391734
 30
0.0
  0
VERTEX
  5
C0
330
87
100
AcDbEntity
  8
Capa 1
 62
   250
370
    13
100
AcDbVertex
100
AcDb2dVertex
 10
123.3357964101383
 20
141.1297145914537
 30
0.0
  0
VERTEX
  5
C1
330
87
100
AcDbEntity
  8
Capa 1
 62
   250
370
    13
100
AcDbVertex
100
AcDb2dVertex
 10
123.3812716705436
 20
142.2597059106156
 30
0.0
  0
VERTEX
  5
C2
330
87
100
AcDbEntity
  8
Capa 1
 62
   250
370
    13
100
AcDbVertex
100
AcDb2dVertex
 10
123.4260579118518
 20
143.8871690178477
 30
0.0
  0
VERTEX
  5
C3
330
87
100
AcDbEntity
  8
Capa 1
 62
   250
370
    13
100
AcDbVertex
100
AcDb2dVertex
 10
123.290321149733
 20
144.6561143301554
 30
0.0
  0
VERTEX
  5
C4
330
87
100
AcDbEntity
  8
Capa 1
 62
   250
370
    13
100
AcDbVertex
100
AcDb2dVertex
 10
123.4715331722571
 20
145.1983723595337
 30
0.0
  0
VERTEX
  5
C5
330
87
100
AcDbEntity
  8
Capa 1
 62
   250
370
    13
100
AcDbVertex
100
AcDb2dVertex
 10
123.3812716705436
 20
147.2330457531223
 30
0.0
  0
VERTEX
  5
C6
330
87
100
AcDbEntity
  8
Capa 1
 62
   250
370
    13
100
AcDbVertex
100
AcDb2dVertex
 10
123.7430066964948
 20
147.7759928015977
 30
0.0
  0
VERTEX
  5
C7
330
87
100
AcDbEntity
  8
Capa 1
 62
   250
370
    13
100
AcDbVertex
100
AcDb2dVertex
 10
123.7430066964948
 20
147.7759928015977
 30
0.0
  0
SEQEND
  5
C8
330
87
100
AcDbEntity
  8
Capa 1
370
    13
  0
SPLINE
  5
C9
330
3C
100
AcDbEntity
  8
Capa 1
 62
   250
370
    13
100
AcDbSpline
210
0.0
220
0.0
230
1.0
 70
    27
 71
     3
 72
    11
 73
     7
 74
     0
 42
0.0000000001
 43
0.0000000001
 40
0.0
 40
0.0
 40
0.0
 40
0.0
 40
1.0
 40
1.0
 40
1.0
 40
2.0
 40
2.0
 40
2.0
 40
2.0
 10
102.1727470990228
 20
150.7024291615431
 30
0.0
 10
102.1727470990228
 20
150.7024291615431
 30
0.0
 10
101.5605536312939
 20
150.8402329809531
 30
0.0
 10
101.5605536312939
 20
150.8402329809531
 30
0.0
 10
101.5605536312939
 20
150.8402329809531
 30
0.0
 10
102.1727470990228
 20
150.7024291615431
 30
0.0
 10
102.1727470990228
 20
150.7024291615431
 30
0.0
  0
SPLINE
  5
CA
330
3C
100
AcDbEntity
  8
Capa 1
 62
   250
370
    13
100
AcDbSpline
210
0.0
220
0.0
230
1.0
 70
    27
 71
     3
 72
    11
 73
     7
 74
     0
 42
0.0000000001
 43
0.0000000001
 40
0.0
 40
0.0
 40
0.0
 40
0.0
 40
1.0
 40
1.0
 40
1.0
 40
2.0
 40
2.0
 40
2.0
 40
2.0
 10
101.5515963830322
 20
152.1297322210822
 30
0.0
 10
101.5515963830322
 20
152.1297322210822
 30
0.0
 10
94.69723440557917
 20
152.1297322210822
 30
0.0
 10
94.69723440557917
 20
152.1297322210822
 30
0.0
 10
94.69723440557917
 20
152.1297322210822
 30
0.0
 10
101.5515963830322
 20
152.1297322210822
 30
0.0
 10
101.5515963830322
 20
152.1297322210822
 30
0.0
  0
SPLINE
  5
CB
330
3C
100
AcDbEntity
  8
Capa 1
 62
   250
370
    13
100
AcDbSpline
210
0.0
220
0.0
230
1.0
 70
    27
 71
     3
 72
    11
 73
     7
 74
     0
 42
0.0000000001
 43
0.0000000001
 40
0.0
 40
0.0
 40
0.0
 40
0.0
 40
1.0
 40
1.0
 40
1.0
 40
2.0
 40
2.0
 40
2.0
 40
2.0
 10
101.5515963830322
 20
150.5151882219198
 30
0.0
 10
101.5515963830322
 20
150.5151882219198
 30
0.0
 10
94.69723440557917
 20
150.5151882219198
 30
0.0
 10
94.69723440557917
 20
150.5151882219198
 30
0.0
 10
94.69723440557917
 20
150.5151882219198
 30
0.0
 10
101.5515963830322
 20
150.5151882219198
 30
0.0
 10
101.5515963830322
 20
150.5151882219198
 30
0.0
  0
SPLINE
  5
CC
330
3C
100
AcDbEntity
  8
Capa 1
 62
   250
370
    13
100
AcDbSpline
210
0.0
220
0.0
230
1.0
 70
    27
 71
     3
 72
    11
 73
     7
 74
     0
 42
0.0000000001
 43
0.0000000001
 40
0.0
 40
0.0
 40
0.0
 40
0.0
 40
1.0
 40
1.0
 40
1.0
 40
2.0
 40
2.0
 40
2.0
 40
2.0
 10
94.69723440557917
 20
152.1297322210822
 30
0.0
 10
94.69723440557917
 20
152.1297322210822
 30
0.0
 10
94.69723440557917
 20
150.5151882219198
 30
0.0
 10
94.69723440557917
 20
150.5151882219198
 30
0.0
 10
94.69723440557917
 20
150.5151882219198
 30
0.0
 10
94.69723440557917
 20
152.1297322210822
 30
0.0
 10
94.69723440557917
 20
152.1297322210822
 30
0.0
  0
SPLINE
  5
CD
330
3C
100
AcDbEntity
  8
Capa 1
 62
   250
370
    13
100
AcDbSpline
210
0.0
220
0.0
230
1.0
 70
    27
 71
     3
 72
    11
 73
     7
 74
     0
 42
0.0000000001
 43
0.0000000001
 40
0.0
 40
0.0
 40
0.0
 40
0.0
 40
1.0
 40
1.0
 40
1.0
 40
2.0
 40
2.0
 40
2.0
 40
2.0
 10
101.5515963830322
 20
152.1297322210822
 30
0.0
 10
101.5515963830322
 20
152.1297322210822
 30
0.0
 10
101.5515963830322
 20
150.5151882219198
 30
0.0
 10
101.5515963830322
 20
150.5151882219198
 30
0.0
 10
101.5515963830322
 20
150.5151882219198
 30
0.0
 10
101.5515963830322
 20
152.1297322210822
 30
0.0
 10
101.5515963830322
 20
152.1297322210822
 30
0.0
  0
SPLINE
  5
CE
330
3C
100
AcDbEntity
  8
Capa 1
 62
   250
370
    13
100
AcDbSpline
210
0.0
220
0.0
230
1.0
 70
    27
 71
     3
 72
    11
 73
     7
 74
     0
 42
0.0000000001
 43
0.0000000001
 40
0.0
 40
0.0
 40
0.0
 40
0.0
 40
1.0
 40
1.0
 40
1.0
 40
2.0
 40
2.0
 40
2.0
 40
2.0
 10
94.0908976001752
 20
151.930777956809
 30
0.0
 10
94.0908976001752
 20
151.930777956809
 30
0.0
 10
94.0908976001752
 20
150.7994085994529
 30
0.0
 10
94.0908976001752
 20
150.7994085994529
 30
0.0
 10
94.0908976001752
 20
150.7994085994529
 30
0.0
 10
94.0908976001752
 20
151.930777956809
 30
0.0
 10
94.0908976001752
 20
151.930777956809
 30
0.0
  0
SPLINE
  5
CF
330
3C
100
AcDbEntity
  8
Capa 1
 62
   250
370
    13
100
AcDbSpline
210
0.0
220
0.0
230
1.0
 70
    27
 71
     3
 72
    11
 73
     7
 74
     0
 42
0.0000000001
 43
0.0000000001
 40
0.0
 40
0.0
 40
0.0
 40
0.0
 40
1.0
 40
1.0
 40
1.0
 40
2.0
 40
2.0
 40
2.0
 40
2.0
 10
94.0908976001752
 20
151.930777956809
 30
0.0
 10
94.0908976001752
 20
151.930777956809
 30
0.0
 10
94.69723440557917
 20
151.930777956809
 30
0.0
 10
94.69723440557917
 20
151.930777956809
 30
0.0
 10
94.69723440557917
 20
151.930777956809
 30
0.0
 10
94.0908976001752
 20
151.930777956809
 30
0.0
 10
94.0908976001752
 20
151.930777956809
 30
0.0
  0
SPLINE
  5
D0
330
3C
100
AcDbEntity
  8
Capa 1
 62
   250
370
    13
100
AcDbSpline
210
0.0
220
0.0
230
1.0
 70
    27
 71
     3
 72
    11
 73
     7
 74
     0
 42
0.0000000001
 43
0.0000000001
 40
0.0
 40
0.0
 40
0.0
 40
0.0
 40
1.0
 40
1.0
 40
1.0
 40
2.0
 40
2.0
 40
2.0
 40
2.0
 10
94.0908976001752
 20
150.7994085994529
 30
0.0
 10
94.0908976001752
 20
150.7994085994529
 30
0.0
 10
94.69723440557917
 20
150.7994085994529
 30
0.0
 10
94.69723440557917
 20
150.7994085994529
 30
0.0
 10
94.69723440557917
 20
150.7994085994529
 30
0.0
 10
94.0908976001752
 20
150.7994085994529
 30
0.0
 10
94.0908976001752
 20
150.7994085994529
 30
0.0
  0
SPLINE
  5
D1
330
3C
100
AcDbEntity
  8
Capa 1
 62
   250
370
    13
100
AcDbSpline
210
0.0
220
0.0
230
1.0
 70
    27
 71
     3
 72
    11
 73
     7
 74
     0
 42
0.0000000001
 43
0.0000000001
 40
0.0
 40
0.0
 40
0.0
 40
0.0
 40
1.0
 40
1.0
 40
1.0
 40
2.0
 40
2.0
 40
2.0
 40
2.0
 10
94.0908976001752
 20
151.5464775554294
 30
0.0
 10
94.0908976001752
 20
151.5464775554294
 30
0.0
 10
93.82614201213374
 20
151.5464775554294
 30
0.0
 10
93.82614201213374
 20
151.5464775554294
 30
0.0
 10
93.82614201213374
 20
151.5464775554294
 30
0.0
 10
94.0908976001752
 20
151.5464775554294
 30
0.0
 10
94.0908976001752
 20
151.5464775554294
 30
0.0
  0
SPLINE
  5
D2
330
3C
100
AcDbEntity
  8
Capa 1
 62
   250
370
    13
100
AcDbSpline
210
0.0
220
0.0
230
1.0
 70
    27
 71
     3
 72
    11
 73
     7
 74
     0
 42
0.0000000001
 43
0.0000000001
 40
0.0
 40
0.0
 40
0.0
 40
0.0
 40
1.0
 40
1.0
 40
1.0
 40
2.0
 40
2.0
 40
2.0
 40
2.0
 10
94.0908976001752
 20
151.1838812556068
 30
0.0
 10
94.0908976001752
 20
151.1838812556068
 30
0.0
 10
93.82614201213374
 20
151.1838812556068
 30
0.0
 10
93.82614201213374
 20
151.1838812556068
 30
0.0
 10
93.82614201213374
 20
151.1838812556068
 30
0.0
 10
94.0908976001752
 20
151.1838812556068
 30
0.0
 10
94.0908976001752
 20
151.1838812556068
 30
0.0
  0
SPLINE
  5
D3
330
3C
100
AcDbEntity
  8
Capa 1
 62
   250
370
    13
100
AcDbSpline
210
0.0
220
0.0
230
1.0
 70
    27
 71
     3
 72
    11
 73
     7
 74
     0
 42
0.0000000001
 43
0.0000000001
 40
0.0
 40
0.0
 40
0.0
 40
0.0
 40
1.0
 40
1.0
 40
1.0
 40
2.0
 40
2.0
 40
2.0
 40
2.0
 10
93.82614201213374
 20
151.5464775554294
 30
0.0
 10
93.82614201213374
 20
151.5464775554294
 30
0.0
 10
93.82614201213374
 20
151.1838812556068
 30
0.0
 10
93.82614201213374
 20
151.1838812556068
 30
0.0
 10
93.82614201213374
 20
151.1838812556068
 30
0.0
 10
93.82614201213374
 20
151.5464775554294
 30
0.0
 10
93.82614201213374
 20
151.5464775554294
 30
0.0
  0
SPLINE
  5
D4
330
3C
100
AcDbEntity
  8
Capa 1
 62
   250
370
    13
100
AcDbSpline
210
0.0
220
0.0
230
1.0
 70
    27
 71
     3
 72
    11
 73
     7
 74
     0
 42
0.0000000001
 43
0.0000000001
 40
0.0
 40
0.0
 40
0.0
 40
0.0
 40
1.0
 40
1.0
 40
1.0
 40
2.0
 40
2.0
 40
2.0
 40
2.0
 10
101.5605536312939
 20
154.2339965434728
 30
0.0
 10
101.5605536312939
 20
154.2339965434728
 30
0.0
 10
101.5605536312939
 20
154.4267496358725
 30
0.0
 10
101.5605536312939
 20
154.4267496358725
 30
0.0
 10
101.5605536312939
 20
154.4267496358725
 30
0.0
 10
101.5605536312939
 20
154.2339965434728
 30
0.0
 10
101.5605536312939
 20
154.2339965434728
 30
0.0
  0
SPLINE
  5
D5
330
3C
100
AcDbEntity
  8
Capa 1
 62
   250
370
    13
100
AcDbSpline
210
0.0
220
0.0
230
1.0
 70
    27
 71
     3
 72
    11
 73
     7
 74
     0
 42
0.0000000001
 43
0.0000000001
 40
0.0
 40
0.0
 40
0.0
 40
0.0
 40
1.0
 40
1.0
 40
1.0
 40
2.0
 40
2.0
 40
2.0
 40
2.0
 10
101.5605536312939
 20
154.4267496358725
 30
0.0
 10
101.5605536312939
 20
154.4267496358725
 30
0.0
 10
102.1727470990228
 20
154.4267496358725
 30
0.0
 10
102.1727470990228
 20
154.4267496358725
 30
0.0
 10
102.1727470990228
 20
154.4267496358725
 30
0.0
 10
101.5605536312939
 20
154.4267496358725
 30
0.0
 10
101.5605536312939
 20
154.4267496358725
 30
0.0
  0
SPLINE
  5
D6
330
3C
100
AcDbEntity
  8
Capa 1
 62
   250
370
    13
100
AcDbSpline
210
0.0
220
0.0
230
1.0
 70
    27
 71
     3
 72
    11
 73
     7
 74
     0
 42
0.0000000001
 43
0.0000000001
 40
0.0
 40
0.0
 40
0.0
 40
0.0
 40
1.0
 40
1.0
 40
1.0
 40
2.0
 40
2.0
 40
2.0
 40
2.0
 10
101.5605536312939
 20
154.2339965434728
 30
0.0
 10
101.5605536312939
 20
154.2339965434728
 30
0.0
 10
102.1727470990228
 20
154.2339965434728
 30
0.0
 10
102.1727470990228
 20
154.2339965434728
 30
0.0
 10
102.1727470990228
 20
154.2339965434728
 30
0.0
 10
101.5605536312939
 20
154.2339965434728
 30
0.0
 10
101.5605536312939
 20
154.2339965434728
 30
0.0
  0
SPLINE
  5
D7
330
3C
100
AcDbEntity
  8
Capa 1
 62
   250
370
    13
100
AcDbSpline
210
0.0
220
0.0
230
1.0
 70
    27
 71
     3
 72
    11
 73
     7
 74
     0
 42
0.0000000001
 43
0.0000000001
 40
0.0
 40
0.0
 40
0.0
 40
0.0
 40
1.0
 40
1.0
 40
1.0
 40
2.0
 40
2.0
 40
2.0
 40
2.0
 10
94.15997176465446
 20
151.8534355631651
 30
0.0
 10
94.15997176465446
 20
151.8534355631651
 30
0.0
 10
94.65641002407895
 20
151.8534355631651
 30
0.0
 10
94.65641002407895
 20
151.8534355631651
 30
0.0
 10
94.65641002407895
 20
151.8534355631651
 30
0.0
 10
94.15997176465446
 20
151.8534355631651
 30
0.0
 10
94.15997176465446
 20
151.8534355631651
 30
0.0
  0
SPLINE
  5
D8
330
3C
100
AcDbEntity
  8
Capa 1
 62
   250
370
    13
100
AcDbSpline
210
0.0
220
0.0
230
1.0
 70
    27
 71
     3
 72
    11
 73
     7
 74
     0
 42
0.0000000001
 43
0.0000000001
 40
0.0
 40
0.0
 40
0.0
 40
0.0
 40
1.0
 40
1.0
 40
1.0
 40
2.0
 40
2.0
 40
2.0
 40
2.0
 10
94.15997176465446
 20
151.5158162056106
 30
0.0
 10
94.15997176465446
 20
151.5158162056106
 30
0.0
 10
94.65641002407895
 20
151.5158162056106
 30
0.0
 10
94.65641002407895
 20
151.5158162056106
 30
0.0
 10
94.65641002407895
 20
151.5158162056106
 30
0.0
 10
94.15997176465446
 20
151.5158162056106
 30
0.0
 10
94.15997176465446
 20
151.5158162056106
 30
0.0
  0
SPLINE
  5
D9
330
3C
100
AcDbEntity
  8
Capa 1
 62
   250
370
    13
100
AcDbSpline
210
0.0
220
0.0
230
1.0
 70
    27
 71
     3
 72
    11
 73
     7
 74
     0
 42
0.0000000001
 43
0.0000000001
 40
0.0
 40
0.0
 40
0.0
 40
0.0
 40
1.0
 40
1.0
 40
1.0
 40
2.0
 40
2.0
 40
2.0
 40
2.0
 10
94.15997176465446
 20
151.70047332362
 30
0.0
 10
94.15997176465446
 20
151.70047332362
 30
0.0
 10
94.65641002407895
 20
151.70047332362
 30
0.0
 10
94.65641002407895
 20
151.70047332362
 30
0.0
 10
94.65641002407895
 20
151.70047332362
 30
0.0
 10
94.15997176465446
 20
151.70047332362
 30
0.0
 10
94.15997176465446
 20
151.70047332362
 30
0.0
  0
SPLINE
  5
DA
330
3C
100
AcDbEntity
  8
Capa 1
 62
   250
370
    13
100
AcDbSpline
210
0.0
220
0.0
230
1.0
 70
    27
 71
     3
 72
    11
 73
     7
 74
     0
 42
0.0000000001
 43
0.0000000001
 40
0.0
 40
0.0
 40
0.0
 40
0.0
 40
1.0
 40
1.0
 40
1.0
 40
2.0
 40
2.0
 40
2.0
 40
2.0
 10
94.15997176465446
 20
151.0297132326419
 30
0.0
 10
94.15997176465446
 20
151.0297132326419
 30
0.0
 10
94.65641002407895
 20
151.0297132326419
 30
0.0
 10
94.65641002407895
 20
151.0297132326419
 30
0.0
 10
94.65641002407895
 20
151.0297132326419
 30
0.0
 10
94.15997176465446
 20
151.0297132326419
 30
0.0
 10
94.15997176465446
 20
151.0297132326419
 30
0.0
  0
SPLINE
  5
DB
330
3C
100
AcDbEntity
  8
Capa 1
 62
   250
370
    13
100
AcDbSpline
210
0.0
220
0.0
230
1.0
 70
    27
 71
     3
 72
    11
 73
     7
 74
     0
 42
0.0000000001
 43
0.0000000001
 40
0.0
 40
0.0
 40
0.0
 40
0.0
 40
1.0
 40
1.0
 40
1.0
 40
2.0
 40
2.0
 40
2.0
 40
2.0
 10
94.15997176465446
 20
151.2143703506513
 30
0.0
 10
94.15997176465446
 20
151.2143703506513
 30
0.0
 10
94.65641002407895
 20
151.2143703506513
 30
0.0
 10
94.65641002407895
 20
151.2143703506513
 30
0.0
 10
94.65641002407895
 20
151.2143703506513
 30
0.0
 10
94.15997176465446
 20
151.2143703506513
 30
0.0
 10
94.15997176465446
 20
151.2143703506513
 30
0.0
  0
SPLINE
  5
DC
330
3C
100
AcDbEntity
  8
Capa 1
 62
   250
370
    13
100
AcDbSpline
210
0.0
220
0.0
230
1.0
 70
    27
 71
     3
 72
    11
 73
     7
 74
     0
 42
0.0000000001
 43
0.0000000001
 40
0.0
 40
0.0
 40
0.0
 40
0.0
 40
1.0
 40
1.0
 40
1.0
 40
2.0
 40
2.0
 40
2.0
 40
2.0
 10
94.15997176465446
 20
150.8767509930968
 30
0.0
 10
94.15997176465446
 20
150.8767509930968
 30
0.0
 10
94.65641002407895
 20
150.8767509930968
 30
0.0
 10
94.65641002407895
 20
150.8767509930968
 30
0.0
 10
94.65641002407895
 20
150.8767509930968
 30
0.0
 10
94.15997176465446
 20
150.8767509930968
 30
0.0
 10
94.15997176465446
 20
150.8767509930968
 30
0.0
  0
SPLINE
  5
DD
330
3C
100
AcDbEntity
  8
Capa 1
 62
   250
370
    13
100
AcDbSpline
210
0.0
220
0.0
230
1.0
 70
    27
 71
     3
 72
    11
 73
     7
 74
     0
 42
0.0000000001
 43
0.0000000001
 40
0.0
 40
0.0
 40
0.0
 40
0.0
 40
1.0
 40
1.0
 40
1.0
 40
2.0
 40
2.0
 40
2.0
 40
2.0
 10
101.5515963830322
 20
164.8807196310889
 30
0.0
 10
101.5515963830322
 20
164.8807196310889
 30
0.0
 10
94.69723440557917
 20
164.8807196310889
 30
0.0
 10
94.69723440557917
 20
164.8807196310889
 30
0.0
 10
94.69723440557917
 20
164.8807196310889
 30
0.0
 10
101.5515963830322
 20
164.8807196310889
 30
0.0
 10
101.5515963830322
 20
164.8807196310889
 30
0.0
  0
SPLINE
  5
DE
330
3C
100
AcDbEntity
  8
Capa 1
 62
   250
370
    13
100
AcDbSpline
210
0.0
220
0.0
230
1.0
 70
    27
 71
     3
 72
    11
 73
     7
 74
     0
 42
0.0000000001
 43
0.0000000001
 40
0.0
 40
0.0
 40
0.0
 40
0.0
 40
1.0
 40
1.0
 40
1.0
 40
2.0
 40
2.0
 40
2.0
 40
2.0
 10
95.36403263674927
 20
163.2661756319265
 30
0.0
 10
95.36403263674927
 20
163.2661756319265
 30
0.0
 10
94.69723440557917
 20
163.2661756319265
 30
0.0
 10
94.69723440557917
 20
163.2661756319265
 30
0.0
 10
94.69723440557917
 20
163.2661756319265
 30
0.0
 10
95.36403263674927
 20
163.2661756319265
 30
0.0
 10
95.36403263674927
 20
163.2661756319265
 30
0.0
  0
SPLINE
  5
DF
330
3C
100
AcDbEntity
  8
Capa 1
 62
   250
370
    13
100
AcDbSpline
210
0.0
220
0.0
230
1.0
 70
    27
 71
     3
 72
    11
 73
     7
 74
     0
 42
0.0000000001
 43
0.0000000001
 40
0.0
 40
0.0
 40
0.0
 40
0.0
 40
1.0
 40
1.0
 40
1.0
 40
2.0
 40
2.0
 40
2.0
 40
2.0
 10
94.15997176465446
 20
164.5191568599119
 30
0.0
 10
94.15997176465446
 20
164.5191568599119
 30
0.0
 10
94.65641002407895
 20
164.5191568599119
 30
0.0
 10
94.65641002407895
 20
164.5191568599119
 30
0.0
 10
94.65641002407895
 20
164.5191568599119
 30
0.0
 10
94.15997176465446
 20
164.5191568599119
 30
0.0
 10
94.15997176465446
 20
164.5191568599119
 30
0.0
  0
SPLINE
  5
E0
330
3C
100
AcDbEntity
  8
Capa 1
 62
   250
370
    13
100
AcDbSpline
210
0.0
220
0.0
230
1.0
 70
    27
 71
     3
 72
    11
 73
     7
 74
     0
 42
0.0000000001
 43
0.0000000001
 40
0.0
 40
0.0
 40
0.0
 40
0.0
 40
1.0
 40
1.0
 40
1.0
 40
2.0
 40
2.0
 40
2.0
 40
2.0
 10
94.15997176465446
 20
164.1815375023574
 30
0.0
 10
94.15997176465446
 20
164.1815375023574
 30
0.0
 10
94.65641002407895
 20
164.1815375023574
 30
0.0
 10
94.65641002407895
 20
164.1815375023574
 30
0.0
 10
94.65641002407895
 20
164.1815375023574
 30
0.0
 10
94.15997176465446
 20
164.1815375023574
 30
0.0
 10
94.15997176465446
 20
164.1815375023574
 30
0.0
  0
SPLINE
  5
E1
330
3C
100
AcDbEntity
  8
Capa 1
 62
   250
370
    13
100
AcDbSpline
210
0.0
220
0.0
230
1.0
 70
    27
 71
     3
 72
    11
 73
     7
 74
     0
 42
0.0000000001
 43
0.0000000001
 40
0.0
 40
0.0
 40
0.0
 40
0.0
 40
1.0
 40
1.0
 40
1.0
 40
2.0
 40
2.0
 40
2.0
 40
2.0
 10
94.15997176465446
 20
164.3661946203668
 30
0.0
 10
94.15997176465446
 20
164.3661946203668
 30
0.0
 10
94.65641002407895
 20
164.3661946203668
 30
0.0
 10
94.65641002407895
 20
164.3661946203668
 30
0.0
 10
94.65641002407895
 20
164.3661946203668
 30
0.0
 10
94.15997176465446
 20
164.3661946203668
 30
0.0
 10
94.15997176465446
 20
164.3661946203668
 30
0.0
  0
SPLINE
  5
E2
330
3C
100
AcDbEntity
  8
Capa 1
 62
   250
370
    13
100
AcDbSpline
210
0.0
220
0.0
230
1.0
 70
    27
 71
     3
 72
    11
 73
     7
 74
     0
 42
0.0000000001
 43
0.0000000001
 40
0.0
 40
0.0
 40
0.0
 40
0.0
 40
1.0
 40
1.0
 40
1.0
 40
2.0
 40
2.0
 40
2.0
 40
2.0
 10
94.15997176465446
 20
163.6954345293886
 30
0.0
 10
94.15997176465446
 20
163.6954345293886
 30
0.0
 10
94.65641002407895
 20
163.6954345293886
 30
0.0
 10
94.65641002407895
 20
163.6954345293886
 30
0.0
 10
94.65641002407895
 20
163.6954345293886
 30
0.0
 10
94.15997176465446
 20
163.6954345293886
 30
0.0
 10
94.15997176465446
 20
163.6954345293886
 30
0.0
  0
SPLINE
  5
E3
330
3C
100
AcDbEntity
  8
Capa 1
 62
   250
370
    13
100
AcDbSpline
210
0.0
220
0.0
230
1.0
 70
    27
 71
     3
 72
    11
 73
     7
 74
     0
 42
0.0000000001
 43
0.0000000001
 40
0.0
 40
0.0
 40
0.0
 40
0.0
 40
1.0
 40
1.0
 40
1.0
 40
2.0
 40
2.0
 40
2.0
 40
2.0
 10
94.15997176465446
 20
163.880091647398
 30
0.0
 10
94.15997176465446
 20
163.880091647398
 30
0.0
 10
94.65641002407895
 20
163.880091647398
 30
0.0
 10
94.65641002407895
 20
163.880091647398
 30
0.0
 10
94.65641002407895
 20
163.880091647398
 30
0.0
 10
94.15997176465446
 20
163.880091647398
 30
0.0
 10
94.15997176465446
 20
163.880091647398
 30
0.0
  0
SPLINE
  5
E4
330
3C
100
AcDbEntity
  8
Capa 1
 62
   250
370
    13
100
AcDbSpline
210
0.0
220
0.0
230
1.0
 70
    27
 71
     3
 72
    11
 73
     7
 74
     0
 42
0.0000000001
 43
0.0000000001
 40
0.0
 40
0.0
 40
0.0
 40
0.0
 40
1.0
 40
1.0
 40
1.0
 40
2.0
 40
2.0
 40
2.0
 40
2.0
 10
94.15997176465446
 20
163.5424722898435
 30
0.0
 10
94.15997176465446
 20
163.5424722898435
 30
0.0
 10
94.65641002407895
 20
163.5424722898435
 30
0.0
 10
94.65641002407895
 20
163.5424722898435
 30
0.0
 10
94.65641002407895
 20
163.5424722898435
 30
0.0
 10
94.15997176465446
 20
163.5424722898435
 30
0.0
 10
94.15997176465446
 20
163.5424722898435
 30
0.0
  0
SPLINE
  5
E5
330
3C
100
AcDbEntity
  8
Capa 1
 62
   250
370
    13
100
AcDbSpline
210
0.0
220
0.0
230
1.0
 70
    27
 71
     3
 72
    11
 73
     7
 74
     0
 42
0.0000000001
 43
0.0000000001
 40
0.0
 40
0.0
 40
0.0
 40
0.0
 40
1.0
 40
1.0
 40
1.0
 40
2.0
 40
2.0
 40
2.0
 40
2.0
 10
94.0908976001752
 20
164.5964992535557
 30
0.0
 10
94.0908976001752
 20
164.5964992535557
 30
0.0
 10
94.69723440557917
 20
164.5964992535557
 30
0.0
 10
94.69723440557917
 20
164.5964992535557
 30
0.0
 10
94.69723440557917
 20
164.5964992535557
 30
0.0
 10
94.0908976001752
 20
164.5964992535557
 30
0.0
 10
94.0908976001752
 20
164.5964992535557
 30
0.0
  0
SPLINE
  5
E6
330
3C
100
AcDbEntity
  8
Capa 1
 62
   250
370
    13
100
AcDbSpline
210
0.0
220
0.0
230
1.0
 70
    27
 71
     3
 72
    11
 73
     7
 74
     0
 42
0.0000000001
 43
0.0000000001
 40
0.0
 40
0.0
 40
0.0
 40
0.0
 40
1.0
 40
1.0
 40
1.0
 40
2.0
 40
2.0
 40
2.0
 40
2.0
 10
94.0908976001752
 20
163.4651298961997
 30
0.0
 10
94.0908976001752
 20
163.4651298961997
 30
0.0
 10
94.69723440557917
 20
163.4651298961997
 30
0.0
 10
94.69723440557917
 20
163.4651298961997
 30
0.0
 10
94.69723440557917
 20
163.4651298961997
 30
0.0
 10
94.0908976001752
 20
163.4651298961997
 30
0.0
 10
94.0908976001752
 20
163.4651298961997
 30
0.0
  0
SPLINE
  5
E7
330
3C
100
AcDbEntity
  8
Capa 1
 62
   250
370
    13
100
AcDbSpline
210
0.0
220
0.0
230
1.0
 70
    27
 71
     3
 72
    11
 73
     7
 74
     0
 42
0.0000000001
 43
0.0000000001
 40
0.0
 40
0.0
 40
0.0
 40
0.0
 40
1.0
 40
1.0
 40
1.0
 40
2.0
 40
2.0
 40
2.0
 40
2.0
 10
94.0908976001752
 20
163.4651298961997
 30
0.0
 10
94.0908976001752
 20
163.4651298961997
 30
0.0
 10
94.0908976001752
 20
164.5964992535557
 30
0.0
 10
94.0908976001752
 20
164.5964992535557
 30
0.0
 10
94.0908976001752
 20
164.5964992535557
 30
0.0
 10
94.0908976001752
 20
163.4651298961997
 30
0.0
 10
94.0908976001752
 20
163.4651298961997
 30
0.0
  0
SPLINE
  5
E8
330
3C
100
AcDbEntity
  8
Capa 1
 62
   250
370
    13
100
AcDbSpline
210
0.0
220
0.0
230
1.0
 70
    27
 71
     3
 72
    11
 73
     7
 74
     0
 42
0.0000000001
 43
0.0000000001
 40
0.0
 40
0.0
 40
0.0
 40
0.0
 40
1.0
 40
1.0
 40
1.0
 40
2.0
 40
2.0
 40
2.0
 40
2.0
 10
94.0908976001752
 20
163.8496025523536
 30
0.0
 10
94.0908976001752
 20
163.8496025523536
 30
0.0
 10
93.82614201213374
 20
163.8496025523536
 30
0.0
 10
93.82614201213374
 20
163.8496025523536
 30
0.0
 10
93.82614201213374
 20
163.8496025523536
 30
0.0
 10
94.0908976001752
 20
163.8496025523536
 30
0.0
 10
94.0908976001752
 20
163.8496025523536
 30
0.0
  0
SPLINE
  5
E9
330
3C
100
AcDbEntity
  8
Capa 1
 62
   250
370
    13
100
AcDbSpline
210
0.0
220
0.0
230
1.0
 70
    27
 71
     3
 72
    11
 73
     7
 74
     0
 42
0.0000000001
 43
0.0000000001
 40
0.0
 40
0.0
 40
0.0
 40
0.0
 40
1.0
 40
1.0
 40
1.0
 40
2.0
 40
2.0
 40
2.0
 40
2.0
 10
94.0908976001752
 20
164.2120265974019
 30
0.0
 10
94.0908976001752
 20
164.2120265974019
 30
0.0
 10
93.82614201213374
 20
164.2120265974019
 30
0.0
 10
93.82614201213374
 20
164.2120265974019
 30
0.0
 10
93.82614201213374
 20
164.2120265974019
 30
0.0
 10
94.0908976001752
 20
164.2120265974019
 30
0.0
 10
94.0908976001752
 20
164.2120265974019
 30
0.0
  0
SPLINE
  5
EA
330
3C
100
AcDbEntity
  8
Capa 1
 62
   250
370
    13
100
AcDbSpline
210
0.0
220
0.0
230
1.0
 70
    27
 71
     3
 72
    11
 73
     7
 74
     0
 42
0.0000000001
 43
0.0000000001
 40
0.0
 40
0.0
 40
0.0
 40
0.0
 40
1.0
 40
1.0
 40
1.0
 40
2.0
 40
2.0
 40
2.0
 40
2.0
 10
93.82614201213374
 20
163.8496025523536
 30
0.0
 10
93.82614201213374
 20
163.8496025523536
 30
0.0
 10
93.82614201213374
 20
164.2120265974019
 30
0.0
 10
93.82614201213374
 20
164.2120265974019
 30
0.0
 10
93.82614201213374
 20
164.2120265974019
 30
0.0
 10
93.82614201213374
 20
163.8496025523536
 30
0.0
 10
93.82614201213374
 20
163.8496025523536
 30
0.0
  0
SPLINE
  5
EB
330
3C
100
AcDbEntity
  8
Capa 1
 62
   250
370
    13
100
AcDbSpline
210
0.0
220
0.0
230
1.0
 70
    27
 71
     3
 72
    11
 73
     7
 74
     0
 42
0.0000000001
 43
0.0000000001
 40
0.0
 40
0.0
 40
0.0
 40
0.0
 40
1.0
 40
1.0
 40
1.0
 40
2.0
 40
2.0
 40
2.0
 40
2.0
 10
94.69723440557917
 20
163.2661756319265
 30
0.0
 10
94.69723440557917
 20
163.2661756319265
 30
0.0
 10
94.69723440557917
 20
164.8807196310889
 30
0.0
 10
94.69723440557917
 20
164.8807196310889
 30
0.0
 10
94.69723440557917
 20
164.8807196310889
 30
0.0
 10
94.69723440557917
 20
163.2661756319265
 30
0.0
 10
94.69723440557917
 20
163.2661756319265
 30
0.0
  0
SPLINE
  5
EC
330
3C
100
AcDbEntity
  8
Capa 1
 62
   250
370
    13
100
AcDbSpline
210
0.0
220
0.0
230
1.0
 70
    27
 71
     3
 72
    11
 73
     7
 74
     0
 42
0.0000000001
 43
0.0000000001
 40
0.0
 40
0.0
 40
0.0
 40
0.0
 40
1.0
 40
1.0
 40
1.0
 40
2.0
 40
2.0
 40
2.0
 40
2.0
 10
95.00315888466935
 20
163.2661756319265
 30
0.0
 10
95.00315888466935
 20
163.2661756319265
 30
0.0
 10
95.00315888466935
 20
164.5556748720555
 30
0.0
 10
95.00315888466935
 20
164.5556748720555
 30
0.0
 10
95.00315888466935
 20
164.5556748720555
 30
0.0
 10
95.00315888466935
 20
163.2661756319265
 30
0.0
 10
95.00315888466935
 20
163.2661756319265
 30
0.0
  0
SPLINE
  5
ED
330
3C
100
AcDbEntity
  8
Capa 1
 62
   250
370
    13
100
AcDbSpline
210
0.0
220
0.0
230
1.0
 70
    27
 71
     3
 72
    11
 73
     7
 74
     0
 42
0.0000000001
 43
0.0000000001
 40
0.0
 40
0.0
 40
0.0
 40
0.0
 40
1.0
 40
1.0
 40
1.0
 40
2.0
 40
2.0
 40
2.0
 40
2.0
 10
101.5515963830322
 20
164.8807196310889
 30
0.0
 10
101.5515963830322
 20
164.8807196310889
 30
0.0
 10
101.5515963830322
 20
164.5556748720555
 30
0.0
 10
101.5515963830322
 20
164.5556748720555
 30
0.0
 10
101.5515963830322
 20
164.5556748720555
 30
0.0
 10
101.5515963830322
 20
164.8807196310889
 30
0.0
 10
101.5515963830322
 20
164.8807196310889
 30
0.0
  0
SPLINE
  5
EE
330
3C
100
AcDbEntity
  8
Capa 1
 62
   250
370
    13
100
AcDbSpline
210
0.0
220
0.0
230
1.0
 70
    27
 71
     3
 72
    11
 73
     7
 74
     0
 42
0.0000000001
 43
0.0000000001
 40
0.0
 40
0.0
 40
0.0
 40
0.0
 40
1.0
 40
1.0
 40
1.0
 40
2.0
 40
2.0
 40
2.0
 40
2.0
 10
101.5605536312939
 20
150.8402329809531
 30
0.0
 10
101.5605536312939
 20
150.8402329809531
 30
0.0
 10
102.1727470990228
 20
150.8402329809531
 30
0.0
 10
102.1727470990228
 20
150.8402329809531
 30
0.0
 10
102.1727470990228
 20
150.8402329809531
 30
0.0
 10
101.5605536312939
 20
150.8402329809531
 30
0.0
 10
101.5605536312939
 20
150.8402329809531
 30
0.0
  0
SPLINE
  5
EF
330
3C
100
AcDbEntity
  8
Capa 1
 62
   250
370
    13
100
AcDbSpline
210
0.0
220
0.0
230
1.0
 70
     8
 71
     3
 72
    11
 73
     7
 74
     0
 42
0.0000000001
 43
0.0000000001
 40
0.0
 40
0.0
 40
0.0
 40
0.0
 40
1.0
 40
1.0
 40
1.0
 40
2.0
 40
2.0
 40
2.0
 40
2.0
 10
125.1162217569154
 20
151.023856570317
 30
0.0
 10
125.1162217569154
 20
151.0157605959266
 30
0.0
 10
125.1196668524006
 20
151.0078368763105
 30
0.0
 10
125.125179005177
 20
151.0021524687599
 30
0.0
 10
125.1306911579534
 20
150.9964680612092
 30
0.0
 10
125.138959387118
 20
150.9931952204982
 30
0.0
 10
125.1472276162826
 20
150.9931952204982
 30
0.0
  0
SPLINE
  5
F0
330
3C
100
AcDbEntity
  8
Capa 1
 62
   250
370
    13
100
AcDbSpline
210
0.0
220
0.0
230
1.0
 70
     8
 71
     3
 72
    11
 73
     7
 74
     0
 42
0.0000000001
 43
0.0000000001
 40
0.0
 40
0.0
 40
0.0
 40
0.0
 40
1.0
 40
1.0
 40
1.0
 40
2.0
 40
2.0
 40
2.0
 40
2.0
 10
138.5259114237019
 20
164.3720512826917
 30
0.0
 10
138.5259114237019
 20
164.3801472570821
 30
0.0
 10
138.5224663282166
 20
164.3880709766981
 30
0.0
 10
138.5169541754402
 20
164.3937553842488
 30
0.0
 10
138.5107530035668
 20
164.3994397917995
 30
0.0
 10
138.5031737934992
 20
164.4025403777362
 30
0.0
 10
138.4949055643346
 20
164.4025403777362
 30
0.0
  0
SPLINE
  5
F2
330
3C
100
AcDbEntity
  8
Capa 1
 62
   250
370
    13
100
AcDbSpline
210
0.0
220
0.0
230
1.0
 70
    27
 71
     3
 72
    11
 73
     7
 74
     0
 42
0.0000000001
 43
0.0000000001
 40
0.0
 40
0.0
 40
0.0
 40
0.0
 40
1.0
 40
1.0
 40
1.0
 40
2.0
 40
2.0
 40
2.0
 40
2.0
 10
125.1162217569154
 20
163.0188177760856
 30
0.0
 10
125.1162217569154
 20
163.0188177760856
 30
0.0
 10
125.1162217569154
 20
151.023856570317
 30
0.0
 10
125.1162217569154
 20
151.023856570317
 30
0.0
 10
125.1162217569154
 20
151.023856570317
 30
0.0
 10
125.1162217569154
 20
163.0188177760856
 30
0.0
 10
125.1162217569154
 20
163.0188177760856
 30
0.0
  0
SPLINE
  5
F4
330
3C
100
AcDbEntity
  8
Capa 1
 62
   250
370
    13
100
AcDbSpline
210
0.0
220
0.0
230
1.0
 70
    27
 71
     3
 72
    11
 73
     7
 74
     0
 42
0.0000000001
 43
0.0000000001
 40
0.0
 40
0.0
 40
0.0
 40
0.0
 40
1.0
 40
1.0
 40
1.0
 40
2.0
 40
2.0
 40
2.0
 40
2.0
 10
138.5259114237019
 20
164.3720512826917
 30
0.0
 10
138.5259114237019
 20
164.3720512826917
 30
0.0
 10
138.5259114237019
 20
152.3770900769231
 30
0.0
 10
138.5259114237019
 20
152.3770900769231
 30
0.0
 10
138.5259114237019
 20
152.3770900769231
 30
0.0
 10
138.5259114237019
 20
164.3720512826917
 30
0.0
 10
138.5259114237019
 20
164.3720512826917
 30
0.0
  0
SPLINE
  5
F6
330
3C
100
AcDbEntity
  8
Capa 1
 62
   250
370
    13
100
AcDbSpline
210
0.0
220
0.0
230
1.0
 70
    27
 71
     3
 72
    11
 73
     7
 74
     0
 42
0.0000000001
 43
0.0000000001
 40
0.0
 40
0.0
 40
0.0
 40
0.0
 40
1.0
 40
1.0
 40
1.0
 40
2.0
 40
2.0
 40
2.0
 40
2.0
 10
137.1416720577285
 20
150.9931952204982
 30
0.0
 10
137.1416720577285
 20
150.9931952204982
 30
0.0
 10
125.1472276162826
 20
150.9931952204982
 30
0.0
 10
125.1472276162826
 20
150.9931952204982
 30
0.0
 10
125.1472276162826
 20
150.9931952204982
 30
0.0
 10
137.1416720577285
 20
150.9931952204982
 30
0.0
 10
137.1416720577285
 20
150.9931952204982
 30
0.0
  0
SPLINE
  5
F8
330
3C
100
AcDbEntity
  8
Capa 1
 62
   250
370
    13
100
AcDbSpline
210
0.0
220
0.0
230
1.0
 70
    27
 71
     3
 72
    11
 73
     7
 74
     0
 42
0.0000000001
 43
0.0000000001
 40
0.0
 40
0.0
 40
0.0
 40
0.0
 40
1.0
 40
1.0
 40
1.0
 40
2.0
 40
2.0
 40
2.0
 40
2.0
 10
138.4949055643346
 20
164.4025403777362
 30
0.0
 10
138.4949055643346
 20
164.4025403777362
 30
0.0
 10
126.5004611228888
 20
164.4025403777362
 30
0.0
 10
126.5004611228888
 20
164.4025403777362
 30
0.0
 10
126.5004611228888
 20
164.4025403777362
 30
0.0
 10
138.4949055643346
 20
164.4025403777362
 30
0.0
 10
138.4949055643346
 20
164.4025403777362
 30
0.0
  0
SPLINE
  5
F9
330
3C
100
AcDbEntity
  8
Capa 1
 62
   250
370
    13
100
AcDbSpline
210
0.0
220
0.0
230
1.0
 70
     8
 71
     3
 72
    11
 73
     7
 74
     0
 42
0.0000000001
 43
0.0000000001
 40
0.0
 40
0.0
 40
0.0
 40
0.0
 40
1.0
 40
1.0
 40
1.0
 40
2.0
 40
2.0
 40
2.0
 40
2.0
 10
124.4733669393678
 20
150.4268215227232
 30
0.0
 10
124.4733669393678
 20
150.4064954593602
 30
0.0
 10
124.4816351685324
 20
150.3870306698685
 30
0.0
 10
124.4961045695704
 20
150.3727335236048
 30
0.0
 10
124.5098849515114
 20
150.358436377341
 30
0.0
 10
124.5298665053259
 20
150.3503404029506
 30
0.0
 10
124.5498480591403
 20
150.3503404029506
 30
0.0
  0
SPLINE
  5
FA
330
3C
100
AcDbEntity
  8
Capa 1
 62
   250
370
    13
100
AcDbSpline
210
0.0
220
0.0
230
1.0
 70
     8
 71
     3
 72
    11
 73
     7
 74
     0
 42
0.0000000001
 43
0.0000000001
 40
0.0
 40
0.0
 40
0.0
 40
0.0
 40
1.0
 40
1.0
 40
1.0
 40
2.0
 40
2.0
 40
2.0
 40
2.0
 10
124.5498480591403
 20
165.0455674500581
 30
0.0
 10
124.5298665053259
 20
165.0455674500581
 30
0.0
 10
124.5098849515114
 20
165.0374714756677
 30
0.0
 10
124.4961045695704
 20
165.0231743294039
 30
0.0
 10
124.4816351685324
 20
165.0088771831402
 30
0.0
 10
124.4733669393678
 20
164.9892401388742
 30
0.0
 10
124.4733669393678
 20
164.9689140755113
 30
0.0
  0
SPLINE
  5
FB
330
3C
100
AcDbEntity
  8
Capa 1
 62
   250
370
    13
100
AcDbSpline
210
0.0
220
0.0
230
1.0
 70
     8
 71
     3
 72
     8
 73
     4
 74
     0
 42
0.0000000001
 43
0.0000000001
 40
0.0
 40
0.0
 40
0.0
 40
0.0
 40
1.0
 40
1.0
 40
1.0
 40
1.0
 10
139.0922851214769
 20
150.3503404029506
 30
0.0
 10
139.134315286397
 20
150.3503404029506
 30
0.0
 10
139.1687662412495
 20
150.3846191030289
 30
0.0
 10
139.1687662412495
 20
150.4268215227232
 30
0.0
  0
SPLINE
  5
FC
330
3C
100
AcDbEntity
  8
Capa 1
 62
   250
370
    13
100
AcDbSpline
210
0.0
220
0.0
230
1.0
 70
     8
 71
     3
 72
    11
 73
     7
 74
     0
 42
0.0000000001
 43
0.0000000001
 40
0.0
 40
0.0
 40
0.0
 40
0.0
 40
1.0
 40
1.0
 40
1.0
 40
2.0
 40
2.0
 40
2.0
 40
2.0
 10
139.1687662412495
 20
164.9689140755113
 30
0.0
 10
139.1687662412495
 20
164.9892401388742
 30
0.0
 10
139.1604980120849
 20
165.0088771831402
 30
0.0
 10
139.1460286110468
 20
165.0231743294039
 30
0.0
 10
139.1322482291058
 20
165.0374714756677
 30
0.0
 10
139.1122666752914
 20
165.0455674500581
 30
0.0
 10
139.0922851214769
 20
165.0455674500581
 30
0.0
  0
SPLINE
  5
FE
330
3C
100
AcDbEntity
  8
Capa 1
 62
   250
370
    13
100
AcDbSpline
210
0.0
220
0.0
230
1.0
 70
    27
 71
     3
 72
    11
 73
     7
 74
     0
 42
0.0000000001
 43
0.0000000001
 40
0.0
 40
0.0
 40
0.0
 40
0.0
 40
1.0
 40
1.0
 40
1.0
 40
2.0
 40
2.0
 40
2.0
 40
2.0
 10
124.4733669393678
 20
164.9689140755113
 30
0.0
 10
124.4733669393678
 20
164.9689140755113
 30
0.0
 10
124.4733669393678
 20
150.4268215227232
 30
0.0
 10
124.4733669393678
 20
150.4268215227232
 30
0.0
 10
124.4733669393678
 20
150.4268215227232
 30
0.0
 10
124.4733669393678
 20
164.9689140755113
 30
0.0
 10
124.4733669393678
 20
164.9689140755113
 30
0.0
  0
SPLINE
  5
100
330
3C
100
AcDbEntity
  8
Capa 1
 62
   250
370
    13
100
AcDbSpline
210
0.0
220
0.0
230
1.0
 70
    27
 71
     3
 72
    11
 73
     7
 74
     0
 42
0.0000000001
 43
0.0000000001
 40
0.0
 40
0.0
 40
0.0
 40
0.0
 40
1.0
 40
1.0
 40
1.0
 40
2.0
 40
2.0
 40
2.0
 40
2.0
 10
139.1687662412495
 20
164.9689140755113
 30
0.0
 10
139.1687662412495
 20
164.9689140755113
 30
0.0
 10
139.1687662412495
 20
150.4268215227232
 30
0.0
 10
139.1687662412495
 20
150.4268215227232
 30
0.0
 10
139.1687662412495
 20
150.4268215227232
 30
0.0
 10
139.1687662412495
 20
164.9689140755113
 30
0.0
 10
139.1687662412495
 20
164.9689140755113
 30
0.0
  0
SPLINE
  5
102
330
3C
100
AcDbEntity
  8
Capa 1
 62
   250
370
    13
100
AcDbSpline
210
0.0
220
0.0
230
1.0
 70
    27
 71
     3
 72
    11
 73
     7
 74
     0
 42
0.0000000001
 43
0.0000000001
 40
0.0
 40
0.0
 40
0.0
 40
0.0
 40
1.0
 40
1.0
 40
1.0
 40
2.0
 40
2.0
 40
2.0
 40
2.0
 10
139.0922851214769
 20
150.3503404029506
 30
0.0
 10
139.0922851214769
 20
150.3503404029506
 30
0.0
 10
124.5498480591403
 20
150.3503404029506
 30
0.0
 10
124.5498480591403
 20
150.3503404029506
 30
0.0
 10
124.5498480591403
 20
150.3503404029506
 30
0.0
 10
139.0922851214769
 20
150.3503404029506
 30
0.0
 10
139.0922851214769
 20
150.3503404029506
 30
0.0
  0
SPLINE
  5
104
330
3C
100
AcDbEntity
  8
Capa 1
 62
   250
370
    13
100
AcDbSpline
210
0.0
220
0.0
230
1.0
 70
    27
 71
     3
 72
    11
 73
     7
 74
     0
 42
0.0000000001
 43
0.0000000001
 40
0.0
 40
0.0
 40
0.0
 40
0.0
 40
1.0
 40
1.0
 40
1.0
 40
2.0
 40
2.0
 40
2.0
 40
2.0
 10
139.0922851214769
 20
165.0455674500581
 30
0.0
 10
139.0922851214769
 20
165.0455674500581
 30
0.0
 10
124.5498480591403
 20
165.0455674500581
 30
0.0
 10
124.5498480591403
 20
165.0455674500581
 30
0.0
 10
124.5498480591403
 20
165.0455674500581
 30
0.0
 10
139.0922851214769
 20
165.0455674500581
 30
0.0
 10
139.0922851214769
 20
165.0455674500581
 30
0.0
  0
SPLINE
  5
105
330
3C
100
AcDbEntity
  8
Capa 1
 62
   250
370
    13
100
AcDbSpline
210
0.0
220
0.0
230
1.0
 70
    11
 71
     3
 72
    20
 73
    16
 74
     0
 42
0.0000000001
 43
0.0000000001
 40
0.0
 40
0.0
 40
0.0
 40
0.0
 40
1.0
 40
1.0
 40
1.0
 40
2.0
 40
2.0
 40
2.0
 40
3.0
 40
3.0
 40
3.0
 40
4.0
 40
4.0
 40
4.0
 40
5.0
 40
5.0
 40
5.0
 40
5.0
 10
125.9182399858816
 20
163.9128200545079
 30
0.0
 10
125.9182399858816
 20
164.0854193383189
 30
0.0
 10
125.7790581282775
 20
164.2251179602458
 30
0.0
 10
125.6061143349179
 20
164.2251179602458
 30
0.0
 10
125.4338595606554
 20
164.2251179602458
 30
0.0
 10
125.2939886839543
 20
164.0854193383189
 30
0.0
 10
125.2939886839543
 20
163.9128200545079
 30
0.0
 10
125.2939886839543
 20
163.7402207706969
 30
0.0
 10
125.4338595606554
 20
163.6003498939957
 30
0.0
 10
125.6061143349179
 20
163.6003498939957
 30
0.0
 10
125.7790581282775
 20
163.6003498939957
 30
0.0
 10
125.9182399858816
 20
163.7402207706969
 30
0.0
 10
125.9182399858816
 20
163.9128200545079
 30
0.0
 10
125.9182399858816
 20
163.9128200545079
 30
0.0
 10
125.9182399858816
 20
163.9128200545079
 30
0.0
 10
125.9182399858816
 20
163.9128200545079
 30
0.0
  0
SPLINE
  5
106
330
3C
100
AcDbEntity
  8
Capa 1
 62
   250
370
    13
100
AcDbSpline
210
0.0
220
0.0
230
1.0
 70
    11
 71
     3
 72
    20
 73
    16
 74
     0
 42
0.0000000001
 43
0.0000000001
 40
0.0
 40
0.0
 40
0.0
 40
0.0
 40
1.0
 40
1.0
 40
1.0
 40
2.0
 40
2.0
 40
2.0
 40
3.0
 40
3.0
 40
3.0
 40
4.0
 40
4.0
 40
4.0
 40
5.0
 40
5.0
 40
5.0
 40
5.0
 10
126.5004611228888
 20
163.9128200545079
 30
0.0
 10
126.5004611228888
 20
164.4066744923185
 30
0.0
 10
126.1001410275027
 20
164.8068223329302
 30
0.0
 10
125.6061143349179
 20
164.8068223329302
 30
0.0
 10
125.1120876423331
 20
164.8068223329302
 30
0.0
 10
124.7124565660441
 20
164.4066744923185
 30
0.0
 10
124.7124565660441
 20
163.9128200545079
 30
0.0
 10
124.7124565660441
 20
163.4189656166974
 30
0.0
 10
125.1120876423331
 20
163.0188177760856
 30
0.0
 10
125.6061143349179
 20
163.0188177760856
 30
0.0
 10
126.1001410275027
 20
163.0188177760856
 30
0.0
 10
126.5004611228888
 20
163.4189656166974
 30
0.0
 10
126.5004611228888
 20
163.9128200545079
 30
0.0
 10
126.5004611228888
 20
163.9128200545079
 30
0.0
 10
126.5004611228888
 20
163.9128200545079
 30
0.0
 10
126.5004611228888
 20
163.9128200545079
 30
0.0
  0
SPLINE
  5
108
330
3C
100
AcDbEntity
  8
Capa 1
 62
   250
370
    13
100
AcDbSpline
210
0.0
220
0.0
230
1.0
 70
    27
 71
     3
 72
    11
 73
     7
 74
     0
 42
0.0000000001
 43
0.0000000001
 40
0.0
 40
0.0
 40
0.0
 40
0.0
 40
1.0
 40
1.0
 40
1.0
 40
2.0
 40
2.0
 40
2.0
 40
2.0
 10
125.6061143349179
 20
163.0188177760856
 30
0.0
 10
125.6061143349179
 20
163.0188177760856
 30
0.0
 10
124.4733669393678
 20
163.0188177760856
 30
0.0
 10
124.4733669393678
 20
163.0188177760856
 30
0.0
 10
124.4733669393678
 20
163.0188177760856
 30
0.0
 10
125.6061143349179
 20
163.0188177760856
 30
0.0
 10
125.6061143349179
 20
163.0188177760856
 30
0.0
  0
SPLINE
  5
10A
330
3C
100
AcDbEntity
  8
Capa 1
 62
   250
370
    13
100
AcDbSpline
210
0.0
220
0.0
230
1.0
 70
    27
 71
     3
 72
    11
 73
     7
 74
     0
 42
0.0000000001
 43
0.0000000001
 40
0.0
 40
0.0
 40
0.0
 40
0.0
 40
1.0
 40
1.0
 40
1.0
 40
2.0
 40
2.0
 40
2.0
 40
2.0
 10
126.5004611228888
 20
163.9128200545079
 30
0.0
 10
126.5004611228888
 20
163.9128200545079
 30
0.0
 10
126.5004611228888
 20
165.0455674500581
 30
0.0
 10
126.5004611228888
 20
165.0455674500581
 30
0.0
 10
126.5004611228888
 20
165.0455674500581
 30
0.0
 10
126.5004611228888
 20
163.9128200545079
 30
0.0
 10
126.5004611228888
 20
163.9128200545079
 30
0.0
  0
SPLINE
  5
10C
330
3C
100
AcDbEntity
  8
Capa 1
 62
   250
370
    13
100
AcDbSpline
210
0.0
220
0.0
230
1.0
 70
    27
 71
     3
 72
    11
 73
     7
 74
     0
 42
0.0000000001
 43
0.0000000001
 40
0.0
 40
0.0
 40
0.0
 40
0.0
 40
1.0
 40
1.0
 40
1.0
 40
2.0
 40
2.0
 40
2.0
 40
2.0
 10
137.1416720577285
 20
151.4830877985008
 30
0.0
 10
137.1416720577285
 20
151.4830877985008
 30
0.0
 10
137.1416720577285
 20
150.3503404029506
 30
0.0
 10
137.1416720577285
 20
150.3503404029506
 30
0.0
 10
137.1416720577285
 20
150.3503404029506
 30
0.0
 10
137.1416720577285
 20
151.4830877985008
 30
0.0
 10
137.1416720577285
 20
151.4830877985008
 30
0.0
  0
SPLINE
  5
10D
330
3C
100
AcDbEntity
  8
Capa 1
 62
   250
370
    13
100
AcDbSpline
210
0.0
220
0.0
230
1.0
 70
    11
 71
     3
 72
    20
 73
    16
 74
     0
 42
0.0000000001
 43
0.0000000001
 40
0.0
 40
0.0
 40
0.0
 40
0.0
 40
1.0
 40
1.0
 40
1.0
 40
2.0
 40
2.0
 40
2.0
 40
3.0
 40
3.0
 40
3.0
 40
4.0
 40
4.0
 40
4.0
 40
5.0
 40
5.0
 40
5.0
 40
5.0
 10
138.348144496663
 20
151.4830877985008
 30
0.0
 10
138.348144496663
 20
151.6556870823118
 30
0.0
 10
138.2082736199618
 20
151.7955579590129
 30
0.0
 10
138.0360188456993
 20
151.7955579590129
 30
0.0
 10
137.8630750523398
 20
151.7955579590129
 30
0.0
 10
137.7232041756386
 20
151.6556870823118
 30
0.0
 10
137.7232041756386
 20
151.4830877985008
 30
0.0
 10
137.7232041756386
 20
151.3104885146898
 30
0.0
 10
137.8630750523398
 20
151.1706176379886
 30
0.0
 10
138.0360188456993
 20
151.1706176379886
 30
0.0
 10
138.2082736199618
 20
151.1706176379886
 30
0.0
 10
138.348144496663
 20
151.3104885146898
 30
0.0
 10
138.348144496663
 20
151.4830877985008
 30
0.0
 10
138.348144496663
 20
151.4830877985008
 30
0.0
 10
138.348144496663
 20
151.4830877985008
 30
0.0
 10
138.348144496663
 20
151.4830877985008
 30
0.0
  0
SPLINE
  5
10E
330
3C
100
AcDbEntity
  8
Capa 1
 62
   250
370
    13
100
AcDbSpline
210
0.0
220
0.0
230
1.0
 70
    11
 71
     3
 72
    20
 73
    16
 74
     0
 42
0.0000000001
 43
0.0000000001
 40
0.0
 40
0.0
 40
0.0
 40
0.0
 40
1.0
 40
1.0
 40
1.0
 40
2.0
 40
2.0
 40
2.0
 40
3.0
 40
3.0
 40
3.0
 40
4.0
 40
4.0
 40
4.0
 40
5.0
 40
5.0
 40
5.0
 40
5.0
 10
138.9296766145731
 20
151.4830877985008
 30
0.0
 10
138.9296766145731
 20
151.9767699815371
 30
0.0
 10
138.5293565191871
 20
152.3770900769231
 30
0.0
 10
138.0360188456993
 20
152.3770900769231
 30
0.0
 10
137.5419921531145
 20
152.3770900769231
 30
0.0
 10
137.1416720577285
 20
151.9767699815371
 30
0.0
 10
137.1416720577285
 20
151.4830877985008
 30
0.0
 10
137.1416720577285
 20
150.9892333606902
 30
0.0
 10
137.5419921531145
 20
150.5890855200784
 30
0.0
 10
138.0360188456993
 20
150.5890855200784
 30
0.0
 10
138.5293565191871
 20
150.5890855200784
 30
0.0
 10
138.9296766145731
 20
150.9892333606902
 30
0.0
 10
138.9296766145731
 20
151.4830877985008
 30
0.0
 10
138.9296766145731
 20
151.4830877985008
 30
0.0
 10
138.9296766145731
 20
151.4830877985008
 30
0.0
 10
138.9296766145731
 20
151.4830877985008
 30
0.0
  0
SPLINE
  5
110
330
3C
100
AcDbEntity
  8
Capa 1
 62
   250
370
    13
100
AcDbSpline
210
0.0
220
0.0
230
1.0
 70
    27
 71
     3
 72
    11
 73
     7
 74
     0
 42
0.0000000001
 43
0.0000000001
 40
0.0
 40
0.0
 40
0.0
 40
0.0
 40
1.0
 40
1.0
 40
1.0
 40
2.0
 40
2.0
 40
2.0
 40
2.0
 10
138.0360188456993
 20
152.3770900769231
 30
0.0
 10
138.0360188456993
 20
152.3770900769231
 30
0.0
 10
139.1687662412495
 20
152.3770900769231
 30
0.0
 10
139.1687662412495
 20
152.3770900769231
 30
0.0
 10
139.1687662412495
 20
152.3770900769231
 30
0.0
 10
138.0360188456993
 20
152.3770900769231
 30
0.0
 10
138.0360188456993
 20
152.3770900769231
 30
0.0
  0
SPLINE
  5
111
330
3C
100
AcDbEntity
  8
Capa 1
 62
   250
370
    13
100
AcDbSpline
210
0.0
220
0.0
230
1.0
 70
    11
 71
     3
 72
    20
 73
    16
 74
     0
 42
0.0000000001
 43
0.0000000001
 40
0.0
 40
0.0
 40
0.0
 40
0.0
 40
1.0
 40
1.0
 40
1.0
 40
2.0
 40
2.0
 40
2.0
 40
3.0
 40
3.0
 40
3.0
 40
4.0
 40
4.0
 40
4.0
 40
5.0
 40
5.0
 40
5.0
 40
5.0
 10
130.3865288302506
 20
160.1690347906869
 30
0.0
 10
130.3865288302506
 20
160.5175061990199
 30
0.0
 10
130.1040310004601
 20
160.7998317740362
 30
0.0
 10
129.7553873373528
 20
160.7998317740362
 30
0.0
 10
129.4074326933426
 20
160.7998317740362
 30
0.0
 10
129.1249348635521
 20
160.5175061990199
 30
0.0
 10
129.1249348635521
 20
160.1690347906869
 30
0.0
 10
129.1249348635521
 20
159.8207356371282
 30
0.0
 10
129.4074326933426
 20
159.5384100621119
 30
0.0
 10
129.7553873373528
 20
159.5384100621119
 30
0.0
 10
130.1040310004601
 20
159.5384100621119
 30
0.0
 10
130.3865288302506
 20
159.8207356371282
 30
0.0
 10
130.3865288302506
 20
160.1690347906869
 30
0.0
 10
130.3865288302506
 20
160.1690347906869
 30
0.0
 10
130.3865288302506
 20
160.1690347906869
 30
0.0
 10
130.3865288302506
 20
160.1690347906869
 30
0.0
  0
POLYLINE
  5
112
330
3C
100
AcDbEntity
  8
Capa 1
 62
   250
370
    13
100
AcDb2dPolyline
 66
     1
 10
0.0
 20
0.0
 30
0.0
  0
VERTEX
  5
113
330
112
100
AcDbEntity
  8
Capa 1
 62
   250
370
    13
100
AcDbVertex
100
AcDb2dVertex
 10
129.0119357316359
 20
161.0239352353517
 30
0.0
  0
VERTEX
  5
114
330
112
100
AcDbEntity
  8
Capa 1
 62
   250
370
    13
100
AcDbVertex
100
AcDb2dVertex
 10
130.4823024847405
 20
161.0239352353517
 30
0.0
  0
VERTEX
  5
115
330
112
100
AcDbEntity
  8
Capa 1
 62
   250
370
    13
100
AcDbVertex
100
AcDb2dVertex
 10
130.4823024847405
 20
159.3904432110205
 30
0.0
  0
VERTEX
  5
116
330
112
100
AcDbEntity
  8
Capa 1
 62
   250
370
    13
100
AcDbVertex
100
AcDb2dVertex
 10
129.0119357316359
 20
159.3904432110205
 30
0.0
  0
VERTEX
  5
117
330
112
100
AcDbEntity
  8
Capa 1
 62
   250
370
    13
100
AcDbVertex
100
AcDb2dVertex
 10
129.0119357316359
 20
161.0239352353517
 30
0.0
  0
VERTEX
  5
118
330
112
100
AcDbEntity
  8
Capa 1
 62
   250
370
    13
100
AcDbVertex
100
AcDb2dVertex
 10
129.0119357316359
 20
161.0239352353517
 30
0.0
  0
SEQEND
  5
119
330
112
100
AcDbEntity
  8
Capa 1
370
    13
  0
SPLINE
  5
11B
330
3C
100
AcDbEntity
  8
Capa 1
 62
   250
370
    13
100
AcDbSpline
210
0.0
220
0.0
230
1.0
 70
    27
 71
     3
 72
    11
 73
     7
 74
     0
 42
0.0000000001
 43
0.0000000001
 40
0.0
 40
0.0
 40
0.0
 40
0.0
 40
1.0
 40
1.0
 40
1.0
 40
2.0
 40
2.0
 40
2.0
 40
2.0
 10
130.0854274848398
 20
160.7066419411601
 30
0.0
 10
130.0854274848398
 20
160.7066419411601
 30
0.0
 10
129.2179524416539
 20
159.8393391527485
 30
0.0
 10
129.2179524416539
 20
159.8393391527485
 30
0.0
 10
129.2179524416539
 20
159.8393391527485
 30
0.0
 10
130.0854274848398
 20
160.7066419411601
 30
0.0
 10
130.0854274848398
 20
160.7066419411601
 30
0.0
  0
SPLINE
  5
11D
330
3C
100
AcDbEntity
  8
Capa 1
 62
   250
370
    13
100
AcDbSpline
210
0.0
220
0.0
230
1.0
 70
    27
 71
     3
 72
    11
 73
     7
 74
     0
 42
0.0000000001
 43
0.0000000001
 40
0.0
 40
0.0
 40
0.0
 40
0.0
 40
1.0
 40
1.0
 40
1.0
 40
2.0
 40
2.0
 40
2.0
 40
2.0
 10
130.2935112521488
 20
160.4989026833996
 30
0.0
 10
130.2935112521488
 20
160.4989026833996
 30
0.0
 10
129.426036208963
 20
159.6314276402137
 30
0.0
 10
129.426036208963
 20
159.6314276402137
 30
0.0
 10
129.426036208963
 20
159.6314276402137
 30
0.0
 10
130.2935112521488
 20
160.4989026833996
 30
0.0
 10
130.2935112521488
 20
160.4989026833996
 30
0.0
  0
SPLINE
  5
11F
330
3C
100
AcDbEntity
  8
Capa 1
 62
   250
370
    13
100
AcDbSpline
210
0.0
220
0.0
230
1.0
 70
    27
 71
     3
 72
    11
 73
     7
 74
     0
 42
0.0000000001
 43
0.0000000001
 40
0.0
 40
0.0
 40
0.0
 40
0.0
 40
1.0
 40
1.0
 40
1.0
 40
2.0
 40
2.0
 40
2.0
 40
2.0
 10
133.3486219284684
 20
154.8970051696091
 30
0.0
 10
133.3486219284684
 20
154.8970051696091
 30
0.0
 10
134.2160969716543
 20
155.764480212795
 30
0.0
 10
134.2160969716543
 20
155.764480212795
 30
0.0
 10
134.2160969716543
 20
155.764480212795
 30
0.0
 10
133.3486219284684
 20
154.8970051696091
 30
0.0
 10
133.3486219284684
 20
154.8970051696091
 30
0.0
  0
SPLINE
  5
121
330
3C
100
AcDbEntity
  8
Capa 1
 62
   250
370
    13
100
AcDbSpline
210
0.0
220
0.0
230
1.0
 70
    27
 71
     3
 72
    11
 73
     7
 74
     0
 42
0.0000000001
 43
0.0000000001
 40
0.0
 40
0.0
 40
0.0
 40
0.0
 40
1.0
 40
1.0
 40
1.0
 40
2.0
 40
2.0
 40
2.0
 40
2.0
 10
133.5567056957775
 20
154.6892659118485
 30
0.0
 10
133.5567056957775
 20
154.6892659118485
 30
0.0
 10
134.4241807389634
 20
155.5565687002602
 30
0.0
 10
134.4241807389634
 20
155.5565687002602
 30
0.0
 10
134.4241807389634
 20
155.5565687002602
 30
0.0
 10
133.5567056957775
 20
154.6892659118485
 30
0.0
 10
133.5567056957775
 20
154.6892659118485
 30
0.0
  0
POLYLINE
  5
122
330
3C
100
AcDbEntity
  8
Capa 1
 62
   250
370
    13
100
AcDb2dPolyline
 66
     1
 10
0.0
 20
0.0
 30
0.0
  0
VERTEX
  5
123
330
122
100
AcDbEntity
  8
Capa 1
 62
   250
370
    13
100
AcDbVertex
100
AcDb2dVertex
 10
134.6295084298843
 20
154.371972617657
 30
0.0
  0
VERTEX
  5
124
330
122
100
AcDbEntity
  8
Capa 1
 62
   250
370
    13
100
AcDbVertex
100
AcDb2dVertex
 10
133.1591416767797
 20
154.371972617657
 30
0.0
  0
VERTEX
  5
125
330
122
100
AcDbEntity
  8
Capa 1
 62
   250
370
    13
100
AcDbVertex
100
AcDb2dVertex
 10
133.1591416767797
 20
156.0054646419882
 30
0.0
  0
VERTEX
  5
126
330
122
100
AcDbEntity
  8
Capa 1
 62
   250
370
    13
100
AcDbVertex
100
AcDb2dVertex
 10
134.6295084298843
 20
156.0054646419882
 30
0.0
  0
VERTEX
  5
127
330
122
100
AcDbEntity
  8
Capa 1
 62
   250
370
    13
100
AcDbVertex
100
AcDb2dVertex
 10
134.6295084298843
 20
154.371972617657
 30
0.0
  0
VERTEX
  5
128
330
122
100
AcDbEntity
  8
Capa 1
 62
   250
370
    13
100
AcDbVertex
100
AcDb2dVertex
 10
134.6295084298843
 20
154.371972617657
 30
0.0
  0
SEQEND
  5
129
330
122
100
AcDbEntity
  8
Capa 1
370
    13
  0
SPLINE
  5
12A
330
3C
100
AcDbEntity
  8
Capa 1
 62
   250
370
    13
100
AcDbSpline
210
0.0
220
0.0
230
1.0
 70
    11
 71
     3
 72
    20
 73
    16
 74
     0
 42
0.0000000001
 43
0.0000000001
 40
0.0
 40
0.0
 40
0.0
 40
0.0
 40
1.0
 40
1.0
 40
1.0
 40
2.0
 40
2.0
 40
2.0
 40
3.0
 40
3.0
 40
3.0
 40
4.0
 40
4.0
 40
4.0
 40
5.0
 40
5.0
 40
5.0
 40
5.0
 10
134.5171983170652
 20
155.2268730623218
 30
0.0
 10
134.5171983170652
 20
155.5751722158805
 30
0.0
 10
134.2347004872747
 20
155.8574977908967
 30
0.0
 10
133.8867458432644
 20
155.8574977908967
 30
0.0
 10
133.5381021801572
 20
155.8574977908967
 30
0.0
 10
133.2556043503667
 20
155.5751722158805
 30
0.0
 10
133.2556043503667
 20
155.2268730623218
 30
0.0
 10
133.2556043503667
 20
154.8784016539887
 30
0.0
 10
133.5381021801572
 20
154.5960760789725
 30
0.0
 10
133.8867458432644
 20
154.5960760789725
 30
0.0
 10
134.2347004872747
 20
154.5960760789725
 30
0.0
 10
134.5171983170652
 20
154.8784016539887
 30
0.0
 10
134.5171983170652
 20
155.2268730623218
 30
0.0
 10
134.5171983170652
 20
155.2268730623218
 30
0.0
 10
134.5171983170652
 20
155.2268730623218
 30
0.0
 10
134.5171983170652
 20
155.2268730623218
 30
0.0
  0
SPLINE
  5
12B
330
3C
100
AcDbEntity
  8
Capa 1
 62
   250
370
    13
100
AcDbSpline
210
0.0
220
0.0
230
1.0
 70
    27
 71
     3
 72
    11
 73
     7
 74
     0
 42
0.0000000001
 43
0.0000000001
 40
0.0
 40
0.0
 40
0.0
 40
0.0
 40
1.0
 40
1.0
 40
1.0
 40
2.0
 40
2.0
 40
2.0
 40
2.0
 10
94.46486271509907
 20
154.371972617657
 30
0.0
 10
94.46486271509907
 20
154.371972617657
 30
0.0
 10
94.49156220510976
 20
154.5226955451367
 30
0.0
 10
94.49156220510976
 20
154.5226955451367
 30
0.0
 10
94.49156220510976
 20
154.5226955451367
 30
0.0
 10
94.46486271509907
 20
154.371972617657
 30
0.0
 10
94.46486271509907
 20
154.371972617657
 30
0.0
  0
SPLINE
  5
12C
330
3C
100
AcDbEntity
  8
Capa 1
 62
   250
370
    13
100
AcDbSpline
210
0.0
220
0.0
230
1.0
 70
    27
 71
     3
 72
    11
 73
     7
 74
     0
 42
0.0000000001
 43
0.0000000001
 40
0.0
 40
0.0
 40
0.0
 40
0.0
 40
1.0
 40
1.0
 40
1.0
 40
2.0
 40
2.0
 40
2.0
 40
2.0
 10
94.46486271509907
 20
156.0816012522122
 30
0.0
 10
94.46486271509907
 20
156.0816012522122
 30
0.0
 10
94.49156220510976
 20
155.9308783247326
 30
0.0
 10
94.49156220510976
 20
155.9308783247326
 30
0.0
 10
94.49156220510976
 20
155.9308783247326
 30
0.0
 10
94.46486271509907
 20
156.0816012522122
 30
0.0
 10
94.46486271509907
 20
156.0816012522122
 30
0.0
  0
SPLINE
  5
12D
330
3C
100
AcDbEntity
  8
Capa 1
 62
   250
370
    13
100
AcDbSpline
210
0.0
220
0.0
230
1.0
 70
     8
 71
     3
 72
     8
 73
     4
 74
     0
 42
0.0000000001
 43
0.0000000001
 40
0.0
 40
0.0
 40
0.0
 40
0.0
 40
1.0
 40
1.0
 40
1.0
 40
1.0
 10
93.3891316498298
 20
155.2268730623218
 30
0.0
 10
93.3891316498298
 20
155.0447997659263
 30
0.0
 10
93.42788897403886
 20
154.8649657815963
 30
0.0
 10
93.50264754606879
 20
154.6990844339815
 30
0.0
  0
SPLINE
  5
12E
330
3C
100
AcDbEntity
  8
Capa 1
 62
   250
370
    13
100
AcDbSpline
210
0.0
220
0.0
230
1.0
 70
    27
 71
     3
 72
    11
 73
     7
 74
     0
 42
0.0000000001
 43
0.0000000001
 40
0.0
 40
0.0
 40
0.0
 40
0.0
 40
1.0
 40
1.0
 40
1.0
 40
2.0
 40
2.0
 40
2.0
 40
2.0
 10
93.51005450136208
 20
155.2268730623218
 30
0.0
 10
93.51005450136208
 20
155.2268730623218
 30
0.0
 10
93.51005450136208
 20
154.6882323832029
 30
0.0
 10
93.51005450136208
 20
154.6882323832029
 30
0.0
 10
93.51005450136208
 20
154.6882323832029
 30
0.0
 10
93.51005450136208
 20
155.2268730623218
 30
0.0
 10
93.51005450136208
 20
155.2268730623218
 30
0.0
  0
SPLINE
  5
12F
330
3C
100
AcDbEntity
  8
Capa 1
 62
   250
370
    13
100
AcDbSpline
210
0.0
220
0.0
230
1.0
 70
    27
 71
     3
 72
    11
 73
     7
 74
     0
 42
0.0000000001
 43
0.0000000001
 40
0.0
 40
0.0
 40
0.0
 40
0.0
 40
1.0
 40
1.0
 40
1.0
 40
2.0
 40
2.0
 40
2.0
 40
2.0
 10
93.52727997878833
 20
154.6785861158442
 30
0.0
 10
93.52727997878833
 20
154.6785861158442
 30
0.0
 10
93.72106659983362
 20
154.6324218363419
 30
0.0
 10
93.72106659983362
 20
154.6324218363419
 30
0.0
 10
93.72106659983362
 20
154.6324218363419
 30
0.0
 10
93.52727997878833
 20
154.6785861158442
 30
0.0
 10
93.52727997878833
 20
154.6785861158442
 30
0.0
  0
SPLINE
  5
130
330
3C
100
AcDbEntity
  8
Capa 1
 62
   250
370
    13
100
AcDbSpline
210
0.0
220
0.0
230
1.0
 70
     8
 71
     3
 72
     8
 73
     4
 74
     0
 42
0.0000000001
 43
0.0000000001
 40
0.0
 40
0.0
 40
0.0
 40
0.0
 40
1.0
 40
1.0
 40
1.0
 40
1.0
 10
93.50264754606879
 20
154.6990844339815
 30
0.0
 10
93.50712617019961
 20
154.6887491475257
 30
0.0
 10
93.51625567323552
 20
154.6811699374582
 30
0.0
 10
93.52727997878833
 20
154.6785861158442
 30
0.0
  0
SPLINE
  5
131
330
3C
100
AcDbEntity
  8
Capa 1
 62
   250
370
    13
100
AcDbSpline
210
0.0
220
0.0
230
1.0
 70
     8
 71
     3
 72
     8
 73
     4
 74
     0
 42
0.0000000001
 43
0.0000000001
 40
0.0
 40
0.0
 40
0.0
 40
0.0
 40
1.0
 40
1.0
 40
1.0
 40
1.0
 10
93.84870738756213
 20
154.6093396965907
 30
0.0
 10
93.84870738756213
 20
154.5350978888836
 30
0.0
 10
93.90193411280924
 20
154.4713636224065
 30
0.0
 10
93.97497013709653
 20
154.4584445143368
 30
0.0
  0
SPLINE
  5
132
330
3C
100
AcDbEntity
  8
Capa 1
 62
   250
370
    13
100
AcDbSpline
210
0.0
220
0.0
230
1.0
 70
    27
 71
     3
 72
    11
 73
     7
 74
     0
 42
0.0000000001
 43
0.0000000001
 40
0.0
 40
0.0
 40
0.0
 40
0.0
 40
1.0
 40
1.0
 40
1.0
 40
2.0
 40
2.0
 40
2.0
 40
2.0
 10
93.79978703167158
 20
154.6477525112513
 30
0.0
 10
93.79978703167158
 20
154.6477525112513
 30
0.0
 10
93.82338593574555
 20
154.664633479129
 30
0.0
 10
93.82338593574555
 20
154.664633479129
 30
0.0
 10
93.82338593574555
 20
154.664633479129
 30
0.0
 10
93.79978703167158
 20
154.6477525112513
 30
0.0
 10
93.79978703167158
 20
154.6477525112513
 30
0.0
  0
SPLINE
  5
133
330
3C
100
AcDbEntity
  8
Capa 1
 62
   250
370
    13
100
AcDbSpline
210
0.0
220
0.0
230
1.0
 70
     8
 71
     3
 72
     8
 73
     4
 74
     0
 42
0.0000000001
 43
0.0000000001
 40
0.0
 40
0.0
 40
0.0
 40
0.0
 40
1.0
 40
1.0
 40
1.0
 40
1.0
 10
93.82338593574555
 20
154.664633479129
 30
0.0
 10
93.83906112020344
 20
154.6760022942303
 30
0.0
 10
93.84870738756213
 20
154.6942613003021
 30
0.0
 10
93.84870738756213
 20
154.7138983445681
 30
0.0
  0
SPLINE
  5
134
330
3C
100
AcDbEntity
  8
Capa 1
 62
   250
370
    13
100
AcDbSpline
210
0.0
220
0.0
230
1.0
 70
     8
 71
     3
 72
     8
 73
     4
 74
     0
 42
0.0000000001
 43
0.0000000001
 40
0.0
 40
0.0
 40
0.0
 40
0.0
 40
1.0
 40
1.0
 40
1.0
 40
1.0
 10
93.72106659983362
 20
154.6324218363419
 30
0.0
 10
93.7482828541671
 20
154.6260484096942
 30
0.0
 10
93.77704940146894
 20
154.6315605624706
 30
0.0
 10
93.79978703167158
 20
154.6477525112513
 30
0.0
  0
SPLINE
  5
135
330
3C
100
AcDbEntity
  8
Capa 1
 62
   250
370
    13
100
AcDbSpline
210
0.0
220
0.0
230
1.0
 70
     8
 71
     3
 72
     8
 73
     4
 74
     0
 42
0.0000000001
 43
0.0000000001
 40
0.0
 40
0.0
 40
0.0
 40
0.0
 40
1.0
 40
1.0
 40
1.0
 40
1.0
 10
93.97497013709653
 20
155.9951293555325
 30
0.0
 10
93.90193411280924
 20
155.9822102474628
 30
0.0
 10
93.84870738756213
 20
155.9186482357599
 30
0.0
 10
93.84870738756213
 20
155.8444064280528
 30
0.0
  0
SPLINE
  5
136
330
3C
100
AcDbEntity
  8
Capa 1
 62
   250
370
    13
100
AcDbSpline
210
0.0
220
0.0
230
1.0
 70
    27
 71
     3
 72
    11
 73
     7
 74
     0
 42
0.0000000001
 43
0.0000000001
 40
0.0
 40
0.0
 40
0.0
 40
0.0
 40
1.0
 40
1.0
 40
1.0
 40
2.0
 40
2.0
 40
2.0
 40
2.0
 10
93.52727997878833
 20
155.774987754025
 30
0.0
 10
93.52727997878833
 20
155.774987754025
 30
0.0
 10
93.72106659983362
 20
155.8211520335274
 30
0.0
 10
93.72106659983362
 20
155.8211520335274
 30
0.0
 10
93.72106659983362
 20
155.8211520335274
 30
0.0
 10
93.52727997878833
 20
155.774987754025
 30
0.0
 10
93.52727997878833
 20
155.774987754025
 30
0.0
  0
SPLINE
  5
137
330
3C
100
AcDbEntity
  8
Capa 1
 62
   250
370
    13
100
AcDbSpline
210
0.0
220
0.0
230
1.0
 70
     8
 71
     3
 72
     8
 73
     4
 74
     0
 42
0.0000000001
 43
0.0000000001
 40
0.0
 40
0.0
 40
0.0
 40
0.0
 40
1.0
 40
1.0
 40
1.0
 40
1.0
 10
93.52727997878833
 20
155.774987754025
 30
0.0
 10
93.51625567323552
 20
155.7724039324111
 30
0.0
 10
93.50712617019961
 20
155.7649969771178
 30
0.0
 10
93.50264754606879
 20
155.754661690662
 30
0.0
  0
SPLINE
  5
138
330
3C
100
AcDbEntity
  8
Capa 1
 62
   250
370
    13
100
AcDbSpline
210
0.0
220
0.0
230
1.0
 70
    27
 71
     3
 72
    11
 73
     7
 74
     0
 42
0.0000000001
 43
0.0000000001
 40
0.0
 40
0.0
 40
0.0
 40
0.0
 40
1.0
 40
1.0
 40
1.0
 40
2.0
 40
2.0
 40
2.0
 40
2.0
 10
93.79978703167158
 20
155.805821358618
 30
0.0
 10
93.79978703167158
 20
155.805821358618
 30
0.0
 10
93.82338593574555
 20
155.7889403907403
 30
0.0
 10
93.82338593574555
 20
155.7889403907403
 30
0.0
 10
93.82338593574555
 20
155.7889403907403
 30
0.0
 10
93.79978703167158
 20
155.805821358618
 30
0.0
 10
93.79978703167158
 20
155.805821358618
 30
0.0
  0
SPLINE
  5
139
330
3C
100
AcDbEntity
  8
Capa 1
 62
   250
370
    13
100
AcDbSpline
210
0.0
220
0.0
230
1.0
 70
     8
 71
     3
 72
     8
 73
     4
 74
     0
 42
0.0000000001
 43
0.0000000001
 40
0.0
 40
0.0
 40
0.0
 40
0.0
 40
1.0
 40
1.0
 40
1.0
 40
1.0
 10
93.84870738756213
 20
155.7398477800755
 30
0.0
 10
93.84870738756213
 20
155.7593125695671
 30
0.0
 10
93.83906112020344
 20
155.7775715756389
 30
0.0
 10
93.82338593574555
 20
155.7889403907403
 30
0.0
  0
SPLINE
  5
13A
330
3C
100
AcDbEntity
  8
Capa 1
 62
   250
370
    13
100
AcDbSpline
210
0.0
220
0.0
230
1.0
 70
     8
 71
     3
 72
     8
 73
     4
 74
     0
 42
0.0000000001
 43
0.0000000001
 40
0.0
 40
0.0
 40
0.0
 40
0.0
 40
1.0
 40
1.0
 40
1.0
 40
1.0
 10
93.79978703167158
 20
155.805821358618
 30
0.0
 10
93.77704940146894
 20
155.8220133073987
 30
0.0
 10
93.7482828541671
 20
155.8276977149493
 30
0.0
 10
93.72106659983362
 20
155.8211520335274
 30
0.0
  0
SPLINE
  5
13B
330
3C
100
AcDbEntity
  8
Capa 1
 62
   250
370
    13
100
AcDbSpline
210
0.0
220
0.0
230
1.0
 70
    27
 71
     3
 72
    11
 73
     7
 74
     0
 42
0.0000000001
 43
0.0000000001
 40
0.0
 40
0.0
 40
0.0
 40
0.0
 40
1.0
 40
1.0
 40
1.0
 40
2.0
 40
2.0
 40
2.0
 40
2.0
 10
94.00166962710722
 20
154.6093396965907
 30
0.0
 10
94.00166962710722
 20
154.6093396965907
 30
0.0
 10
94.00166962710722
 20
155.8444064280528
 30
0.0
 10
94.00166962710722
 20
155.8444064280528
 30
0.0
 10
94.00166962710722
 20
155.8444064280528
 30
0.0
 10
94.00166962710722
 20
154.6093396965907
 30
0.0
 10
94.00166962710722
 20
154.6093396965907
 30
0.0
  0
SPLINE
  5
13C
330
3C
100
AcDbEntity
  8
Capa 1
 62
   250
370
    13
100
AcDbSpline
210
0.0
220
0.0
230
1.0
 70
    27
 71
     3
 72
    11
 73
     7
 74
     0
 42
0.0000000001
 43
0.0000000001
 40
0.0
 40
0.0
 40
0.0
 40
0.0
 40
1.0
 40
1.0
 40
1.0
 40
2.0
 40
2.0
 40
2.0
 40
2.0
 10
93.84870738756213
 20
154.6093396965907
 30
0.0
 10
93.84870738756213
 20
154.6093396965907
 30
0.0
 10
93.84870738756213
 20
155.8390665300506
 30
0.0
 10
93.84870738756213
 20
155.8390665300506
 30
0.0
 10
93.84870738756213
 20
155.8390665300506
 30
0.0
 10
93.84870738756213
 20
154.6093396965907
 30
0.0
 10
93.84870738756213
 20
154.6093396965907
 30
0.0
  0
SPLINE
  5
13D
330
3C
100
AcDbEntity
  8
Capa 1
 62
   250
370
    13
100
AcDbSpline
210
0.0
220
0.0
230
1.0
 70
    27
 71
     3
 72
    11
 73
     7
 74
     0
 42
0.0000000001
 43
0.0000000001
 40
0.0
 40
0.0
 40
0.0
 40
0.0
 40
1.0
 40
1.0
 40
1.0
 40
2.0
 40
2.0
 40
2.0
 40
2.0
 10
93.84870738756213
 20
155.7398477800755
 30
0.0
 10
93.84870738756213
 20
155.7398477800755
 30
0.0
 10
93.84870738756213
 20
154.7138983445681
 30
0.0
 10
93.84870738756213
 20
154.7138983445681
 30
0.0
 10
93.84870738756213
 20
154.7138983445681
 30
0.0
 10
93.84870738756213
 20
155.7398477800755
 30
0.0
 10
93.84870738756213
 20
155.7398477800755
 30
0.0
  0
SPLINE
  5
13E
330
3C
100
AcDbEntity
  8
Capa 1
 62
   250
370
    13
100
AcDbSpline
210
0.0
220
0.0
230
1.0
 70
    27
 71
     3
 72
    11
 73
     7
 74
     0
 42
0.0000000001
 43
0.0000000001
 40
0.0
 40
0.0
 40
0.0
 40
0.0
 40
1.0
 40
1.0
 40
1.0
 40
2.0
 40
2.0
 40
2.0
 40
2.0
 10
93.76395803862499
 20
155.8216687978502
 30
0.0
 10
93.76395803862499
 20
155.8216687978502
 30
0.0
 10
93.76395803862499
 20
154.6319050720191
 30
0.0
 10
93.76395803862499
 20
154.6319050720191
 30
0.0
 10
93.76395803862499
 20
154.6319050720191
 30
0.0
 10
93.76395803862499
 20
155.8216687978502
 30
0.0
 10
93.76395803862499
 20
155.8216687978502
 30
0.0
  0
SPLINE
  5
13F
330
3C
100
AcDbEntity
  8
Capa 1
 62
   250
370
    13
100
AcDbSpline
210
0.0
220
0.0
230
1.0
 70
     8
 71
     3
 72
     8
 73
     4
 74
     0
 42
0.0000000001
 43
0.0000000001
 40
0.0
 40
0.0
 40
0.0
 40
0.0
 40
1.0
 40
1.0
 40
1.0
 40
1.0
 10
93.50264754606879
 20
155.754661690662
 30
0.0
 10
93.42788897403886
 20
155.588608088273
 30
0.0
 10
93.3891316498298
 20
155.408774103943
 30
0.0
 10
93.3891316498298
 20
155.2268730623218
 30
0.0
  0
SPLINE
  5
140
330
3C
100
AcDbEntity
  8
Capa 1
 62
   250
370
    13
100
AcDbSpline
210
0.0
220
0.0
230
1.0
 70
    27
 71
     3
 72
    11
 73
     7
 74
     0
 42
0.0000000001
 43
0.0000000001
 40
0.0
 40
0.0
 40
0.0
 40
0.0
 40
1.0
 40
1.0
 40
1.0
 40
2.0
 40
2.0
 40
2.0
 40
2.0
 10
93.51005450136208
 20
155.7653414866663
 30
0.0
 10
93.51005450136208
 20
155.7653414866663
 30
0.0
 10
93.51005450136208
 20
155.2268730623218
 30
0.0
 10
93.51005450136208
 20
155.2268730623218
 30
0.0
 10
93.51005450136208
 20
155.2268730623218
 30
0.0
 10
93.51005450136208
 20
155.7653414866663
 30
0.0
 10
93.51005450136208
 20
155.7653414866663
 30
0.0
  0
SPLINE
  5
141
330
3C
100
AcDbEntity
  8
Capa 1
 62
   250
370
    13
100
AcDbSpline
210
0.0
220
0.0
230
1.0
 70
    27
 71
     3
 72
    11
 73
     7
 74
     0
 42
0.0000000001
 43
0.0000000001
 40
0.0
 40
0.0
 40
0.0
 40
0.0
 40
1.0
 40
1.0
 40
1.0
 40
2.0
 40
2.0
 40
2.0
 40
2.0
 10
94.00166962710722
 20
154.6093396965907
 30
0.0
 10
94.00166962710722
 20
154.6093396965907
 30
0.0
 10
94.49156220510976
 20
154.5226955451367
 30
0.0
 10
94.49156220510976
 20
154.5226955451367
 30
0.0
 10
94.49156220510976
 20
154.5226955451367
 30
0.0
 10
94.00166962710722
 20
154.6093396965907
 30
0.0
 10
94.00166962710722
 20
154.6093396965907
 30
0.0
  0
SPLINE
  5
142
330
3C
100
AcDbEntity
  8
Capa 1
 62
   250
370
    13
100
AcDbSpline
210
0.0
220
0.0
230
1.0
 70
    27
 71
     3
 72
    11
 73
     7
 74
     0
 42
0.0000000001
 43
0.0000000001
 40
0.0
 40
0.0
 40
0.0
 40
0.0
 40
1.0
 40
1.0
 40
1.0
 40
2.0
 40
2.0
 40
2.0
 40
2.0
 10
93.97497013709653
 20
154.4584445143368
 30
0.0
 10
93.97497013709653
 20
154.4584445143368
 30
0.0
 10
94.46486271509907
 20
154.371972617657
 30
0.0
 10
94.46486271509907
 20
154.371972617657
 30
0.0
 10
94.46486271509907
 20
154.371972617657
 30
0.0
 10
93.97497013709653
 20
154.4584445143368
 30
0.0
 10
93.97497013709653
 20
154.4584445143368
 30
0.0
  0
SPLINE
  5
143
330
3C
100
AcDbEntity
  8
Capa 1
 62
   250
370
    13
100
AcDbSpline
210
0.0
220
0.0
230
1.0
 70
    27
 71
     3
 72
    11
 73
     7
 74
     0
 42
0.0000000001
 43
0.0000000001
 40
0.0
 40
0.0
 40
0.0
 40
0.0
 40
1.0
 40
1.0
 40
1.0
 40
2.0
 40
2.0
 40
2.0
 40
2.0
 10
94.00166962710722
 20
154.6145073398186
 30
0.0
 10
94.00166962710722
 20
154.6145073398186
 30
0.0
 10
95.36403263674927
 20
154.6145073398186
 30
0.0
 10
95.36403263674927
 20
154.6145073398186
 30
0.0
 10
95.36403263674927
 20
154.6145073398186
 30
0.0
 10
94.00166962710722
 20
154.6145073398186
 30
0.0
 10
94.00166962710722
 20
154.6145073398186
 30
0.0
  0
SPLINE
  5
144
330
3C
100
AcDbEntity
  8
Capa 1
 62
   250
370
    13
100
AcDbSpline
210
0.0
220
0.0
230
1.0
 70
    27
 71
     3
 72
    11
 73
     7
 74
     0
 42
0.0000000001
 43
0.0000000001
 40
0.0
 40
0.0
 40
0.0
 40
0.0
 40
1.0
 40
1.0
 40
1.0
 40
2.0
 40
2.0
 40
2.0
 40
2.0
 10
94.00166962710722
 20
155.8444064280528
 30
0.0
 10
94.00166962710722
 20
155.8444064280528
 30
0.0
 10
94.49156220510976
 20
155.9308783247326
 30
0.0
 10
94.49156220510976
 20
155.9308783247326
 30
0.0
 10
94.49156220510976
 20
155.9308783247326
 30
0.0
 10
94.00166962710722
 20
155.8444064280528
 30
0.0
 10
94.00166962710722
 20
155.8444064280528
 30
0.0
  0
SPLINE
  5
145
330
3C
100
AcDbEntity
  8
Capa 1
 62
   250
370
    13
100
AcDbSpline
210
0.0
220
0.0
230
1.0
 70
    27
 71
     3
 72
    11
 73
     7
 74
     0
 42
0.0000000001
 43
0.0000000001
 40
0.0
 40
0.0
 40
0.0
 40
0.0
 40
1.0
 40
1.0
 40
1.0
 40
2.0
 40
2.0
 40
2.0
 40
2.0
 10
93.97497013709653
 20
155.9951293555325
 30
0.0
 10
93.97497013709653
 20
155.9951293555325
 30
0.0
 10
94.46486271509907
 20
156.0816012522122
 30
0.0
 10
94.46486271509907
 20
156.0816012522122
 30
0.0
 10
94.46486271509907
 20
156.0816012522122
 30
0.0
 10
93.97497013709653
 20
155.9951293555325
 30
0.0
 10
93.97497013709653
 20
155.9951293555325
 30
0.0
  0
SPLINE
  5
146
330
3C
100
AcDbEntity
  8
Capa 1
 62
   250
370
    13
100
AcDbSpline
210
0.0
220
0.0
230
1.0
 70
    27
 71
     3
 72
    11
 73
     7
 74
     0
 42
0.0000000001
 43
0.0000000001
 40
0.0
 40
0.0
 40
0.0
 40
0.0
 40
1.0
 40
1.0
 40
1.0
 40
2.0
 40
2.0
 40
2.0
 40
2.0
 10
94.00166962710722
 20
155.8390665300506
 30
0.0
 10
94.00166962710722
 20
155.8390665300506
 30
0.0
 10
95.36403263674927
 20
155.8390665300506
 30
0.0
 10
95.36403263674927
 20
155.8390665300506
 30
0.0
 10
95.36403263674927
 20
155.8390665300506
 30
0.0
 10
94.00166962710722
 20
155.8390665300506
 30
0.0
 10
94.00166962710722
 20
155.8390665300506
 30
0.0
  0
SPLINE
  5
147
330
3C
100
AcDbEntity
  8
Capa 1
 62
   250
370
     9
100
AcDbSpline
210
0.0
220
0.0
230
1.0
 70
    27
 71
     3
 72
    11
 73
     7
 74
     0
 42
0.0000000001
 43
0.0000000001
 40
0.0
 40
0.0
 40
0.0
 40
0.0
 40
1.0
 40
1.0
 40
1.0
 40
2.0
 40
2.0
 40
2.0
 40
2.0
 10
88.91774221952404
 20
149.1855536193876
 30
0.0
 10
88.91774221952404
 20
149.1855536193876
 30
0.0
 10
88.91774221952404
 20
146.111322663125
 30
0.0
 10
88.91774221952404
 20
146.111322663125
 30
0.0
 10
88.91774221952404
 20
146.111322663125
 30
0.0
 10
88.91774221952404
 20
149.1855536193876
 30
0.0
 10
88.91774221952404
 20
149.1855536193876
 30
0.0
  0
SPLINE
  5
148
330
3C
100
AcDbEntity
  8
Capa 1
 62
   250
370
     9
100
AcDbSpline
210
0.0
220
0.0
230
1.0
 70
    27
 71
     3
 72
    11
 73
     7
 74
     0
 42
0.0000000001
 43
0.0000000001
 40
0.0
 40
0.0
 40
0.0
 40
0.0
 40
1.0
 40
1.0
 40
1.0
 40
2.0
 40
2.0
 40
2.0
 40
2.0
 10
74.22234291764234
 20
149.1855536193876
 30
0.0
 10
74.22234291764234
 20
149.1855536193876
 30
0.0
 10
74.22234291764234
 20
146.111322663125
 30
0.0
 10
74.22234291764234
 20
146.111322663125
 30
0.0
 10
74.22234291764234
 20
146.111322663125
 30
0.0
 10
74.22234291764234
 20
149.1855536193876
 30
0.0
 10
74.22234291764234
 20
149.1855536193876
 30
0.0
  0
MTEXT
  5
149
330
3C
100
AcDbEntity
  8
Capa 1
 62
   250
100
AcDbMText
 10
81.10150958258922
 20
146.0789387655636
 30
0.0
 40
1.156525289829192
 41
0.0
 71
     7
 72
     1
  1
\fArial|b0|i0|c0|p34;\W1;a
 73
     1
 44
1.0
  0
SPLINE
  5
14A
330
3C
100
AcDbEntity
  8
Capa 1
 62
   250
370
    13
100
AcDbSpline
210
0.0
220
0.0
230
1.0
 70
    11
 71
     3
 72
    20
 73
    16
 74
     0
 42
0.0000000001
 43
0.0000000001
 40
0.0
 40
0.0
 40
0.0
 40
0.0
 40
1.0
 40
1.0
 40
1.0
 40
2.0
 40
2.0
 40
2.0
 40
3.0
 40
3.0
 40
3.0
 40
4.0
 40
4.0
 40
4.0
 40
5.0
 40
5.0
 40
5.0
 40
5.0
 10
88.92583819391437
 20
150.4268215227232
 30
0.0
 10
88.92583819391437
 20
150.431300146854
 30
0.0
 10
88.9220485888806
 20
150.4350897518878
 30
0.0
 10
88.91774221952404
 20
150.4350897518878
 30
0.0
 10
88.91309134061895
 20
150.4350897518878
 30
0.0
 10
88.90947399035944
 20
150.431300146854
 30
0.0
 10
88.90947399035944
 20
150.4268215227232
 30
0.0
 10
88.90947399035944
 20
150.4223428985923
 30
0.0
 10
88.91309134061895
 20
150.4187255483328
 30
0.0
 10
88.91774221952404
 20
150.4187255483328
 30
0.0
 10
88.9220485888806
 20
150.4187255483328
 30
0.0
 10
88.92583819391437
 20
150.4223428985923
 30
0.0
 10
88.92583819391437
 20
150.4268215227232
 30
0.0
 10
88.92583819391437
 20
150.4268215227232
 30
0.0
 10
88.92583819391437
 20
150.4268215227232
 30
0.0
 10
88.92583819391437
 20
150.4268215227232
 30
0.0
  0
HATCH
  5
14B
330
3C
100
AcDbEntity
  8
Capa 1
 62
   250
100
AcDbHatch
 10
0.0
 20
0.0
 30
0.0
210
0.0
220
0.0
230
1.0
  2
SOLID
 70
     1
 71
     0
 91
        1
 92
        1
 93
        1
 72
     4
 94
        3
 73
     0
 74
     1
 95
       20
 96
       16
 40
0.0
 40
0.0
 40
0.0
 40
0.0
 40
1.0
 40
1.0
 40
1.0
 40
2.0
 40
2.0
 40
2.0
 40
3.0
 40
3.0
 40
3.0
 40
4.0
 40
4.0
 40
4.0
 40
5.0
 40
5.0
 40
5.0
 40
5.0
 10
88.92583819391437
 20
150.4268215227232
 10
88.92583819391437
 20
150.431300146854
 10
88.9220485888806
 20
150.4350897518878
 10
88.91774221952404
 20
150.4350897518878
 10
88.91309134061895
 20
150.4350897518878
 10
88.90947399035944
 20
150.431300146854
 10
88.90947399035944
 20
150.4268215227232
 10
88.90947399035944
 20
150.4223428985923
 10
88.91309134061895
 20
150.4187255483328
 10
88.91774221952404
 20
150.4187255483328
 10
88.9220485888806
 20
150.4187255483328
 10
88.92583819391437
 20
150.4223428985923
 10
88.92583819391437
 20
150.4268215227232
 10
88.92583819391437
 20
150.4268215227232
 10
88.92583819391437
 20
150.4268215227232
 10
88.92583819391437
 20
150.4268215227232
 97
        0
 75
     0
 76
     1
 98
        0
  0
SPLINE
  5
14C
330
3C
100
AcDbEntity
  8
Capa 1
 62
   250
370
    13
100
AcDbSpline
210
0.0
220
0.0
230
1.0
 70
    11
 71
     3
 72
    20
 73
    16
 74
     0
 42
0.0000000001
 43
0.0000000001
 40
0.0
 40
0.0
 40
0.0
 40
0.0
 40
1.0
 40
1.0
 40
1.0
 40
2.0
 40
2.0
 40
2.0
 40
3.0
 40
3.0
 40
3.0
 40
4.0
 40
4.0
 40
4.0
 40
5.0
 40
5.0
 40
5.0
 40
5.0
 10
74.23061114680694
 20
150.4268215227232
 30
0.0
 10
74.23061114680694
 20
150.431300146854
 30
0.0
 10
74.22699379654742
 20
150.4350897518878
 30
0.0
 10
74.22234291764234
 20
150.4350897518878
 30
0.0
 10
74.21786429351151
 20
150.4350897518878
 30
0.0
 10
74.214246943252
 20
150.431300146854
 30
0.0
 10
74.214246943252
 20
150.4268215227232
 30
0.0
 10
74.214246943252
 20
150.4223428985923
 30
0.0
 10
74.21786429351151
 20
150.4187255483328
 30
0.0
 10
74.22234291764234
 20
150.4187255483328
 30
0.0
 10
74.22699379654742
 20
150.4187255483328
 30
0.0
 10
74.23061114680694
 20
150.4223428985923
 30
0.0
 10
74.23061114680694
 20
150.4268215227232
 30
0.0
 10
74.23061114680694
 20
150.4268215227232
 30
0.0
 10
74.23061114680694
 20
150.4268215227232
 30
0.0
 10
74.23061114680694
 20
150.4268215227232
 30
0.0
  0
HATCH
  5
14D
330
3C
100
AcDbEntity
  8
Capa 1
 62
   250
100
AcDbHatch
 10
0.0
 20
0.0
 30
0.0
210
0.0
220
0.0
230
1.0
  2
SOLID
 70
     1
 71
     0
 91
        1
 92
        1
 93
        1
 72
     4
 94
        3
 73
     0
 74
     1
 95
       20
 96
       16
 40
0.0
 40
0.0
 40
0.0
 40
0.0
 40
1.0
 40
1.0
 40
1.0
 40
2.0
 40
2.0
 40
2.0
 40
3.0
 40
3.0
 40
3.0
 40
4.0
 40
4.0
 40
4.0
 40
5.0
 40
5.0
 40
5.0
 40
5.0
 10
74.23061114680694
 20
150.4268215227232
 10
74.23061114680694
 20
150.431300146854
 10
74.22699379654742
 20
150.4350897518878
 10
74.22234291764234
 20
150.4350897518878
 10
74.21786429351151
 20
150.4350897518878
 10
74.214246943252
 20
150.431300146854
 10
74.214246943252
 20
150.4268215227232
 10
74.214246943252
 20
150.4223428985923
 10
74.21786429351151
 20
150.4187255483328
 10
74.22234291764234
 20
150.4187255483328
 10
74.22699379654742
 20
150.4187255483328
 10
74.23061114680694
 20
150.4223428985923
 10
74.23061114680694
 20
150.4268215227232
 10
74.23061114680694
 20
150.4268215227232
 10
74.23061114680694
 20
150.4268215227232
 10
74.23061114680694
 20
150.4268215227232
 97
        0
 75
     0
 76
     1
 98
        0
  0
SPLINE
  5
14E
330
3C
100
AcDbEntity
  8
Capa 1
 62
   250
370
     9
100
AcDbSpline
210
0.0
220
0.0
230
1.0
 70
    11
 71
     3
 72
    20
 73
    16
 74
     0
 42
0.0000000001
 43
0.0000000001
 40
0.0
 40
0.0
 40
0.0
 40
0.0
 40
1.0
 40
1.0
 40
1.0
 40
2.0
 40
2.0
 40
2.0
 40
3.0
 40
3.0
 40
3.0
 40
4.0
 40
4.0
 40
4.0
 40
5.0
 40
5.0
 40
5.0
 40
5.0
 10
74.23061114680694
 20
146.5192219685785
 30
0.0
 10
74.23061114680694
 20
146.5240451022579
 30
0.0
 10
74.22699379654742
 20
146.5274901977431
 30
0.0
 10
74.22234291764234
 20
146.5274901977431
 30
0.0
 10
74.21786429351151
 20
146.5274901977431
 30
0.0
 10
74.214246943252
 20
146.5240451022579
 30
0.0
 10
74.214246943252
 20
146.5192219685785
 30
0.0
 10
74.214246943252
 20
146.5150878539962
 30
0.0
 10
74.21786429351151
 20
146.5109537394139
 30
0.0
 10
74.22234291764234
 20
146.5109537394139
 30
0.0
 10
74.22699379654742
 20
146.5109537394139
 30
0.0
 10
74.23061114680694
 20
146.5150878539962
 30
0.0
 10
74.23061114680694
 20
146.5192219685785
 30
0.0
 10
74.23061114680694
 20
146.5192219685785
 30
0.0
 10
74.23061114680694
 20
146.5192219685785
 30
0.0
 10
74.23061114680694
 20
146.5192219685785
 30
0.0
  0
HATCH
  5
14F
330
3C
100
AcDbEntity
  8
Capa 1
 62
   250
100
AcDbHatch
 10
0.0
 20
0.0
 30
0.0
210
0.0
220
0.0
230
1.0
  2
SOLID
 70
     1
 71
     0
 91
        1
 92
        1
 93
        1
 72
     4
 94
        3
 73
     0
 74
     1
 95
       20
 96
       16
 40
0.0
 40
0.0
 40
0.0
 40
0.0
 40
1.0
 40
1.0
 40
1.0
 40
2.0
 40
2.0
 40
2.0
 40
3.0
 40
3.0
 40
3.0
 40
4.0
 40
4.0
 40
4.0
 40
5.0
 40
5.0
 40
5.0
 40
5.0
 10
74.23061114680694
 20
146.5192219685785
 10
74.23061114680694
 20
146.5240451022579
 10
74.22699379654742
 20
146.5274901977431
 10
74.22234291764234
 20
146.5274901977431
 10
74.21786429351151
 20
146.5274901977431
 10
74.214246943252
 20
146.5240451022579
 10
74.214246943252
 20
146.5192219685785
 10
74.214246943252
 20
146.5150878539962
 10
74.21786429351151
 20
146.5109537394139
 10
74.22234291764234
 20
146.5109537394139
 10
74.22699379654742
 20
146.5109537394139
 10
74.23061114680694
 20
146.5150878539962
 10
74.23061114680694
 20
146.5192219685785
 10
74.23061114680694
 20
146.5192219685785
 10
74.23061114680694
 20
146.5192219685785
 10
74.23061114680694
 20
146.5192219685785
 97
        0
 75
     0
 76
     1
 98
        0
  0
SPLINE
  5
150
330
3C
100
AcDbEntity
  8
Capa 1
 62
   250
370
     9
100
AcDbSpline
210
0.0
220
0.0
230
1.0
 70
    27
 71
     3
 72
    11
 73
     7
 74
     0
 42
0.0000000001
 43
0.0000000001
 40
0.0
 40
0.0
 40
0.0
 40
0.0
 40
1.0
 40
1.0
 40
1.0
 40
2.0
 40
2.0
 40
2.0
 40
2.0
 10
73.19535995348936
 20
150.3503404029506
 30
0.0
 10
73.19535995348936
 20
150.3503404029506
 30
0.0
 10
70.10597057709157
 20
150.3503404029506
 30
0.0
 10
70.10597057709157
 20
150.3503404029506
 30
0.0
 10
70.10597057709157
 20
150.3503404029506
 30
0.0
 10
73.19535995348936
 20
150.3503404029506
 30
0.0
 10
73.19535995348936
 20
150.3503404029506
 30
0.0
  0
SPLINE
  5
151
330
3C
100
AcDbEntity
  8
Capa 1
 62
   250
370
     9
100
AcDbSpline
210
0.0
220
0.0
230
1.0
 70
    27
 71
     3
 72
    11
 73
     7
 74
     0
 42
0.0000000001
 43
0.0000000001
 40
0.0
 40
0.0
 40
0.0
 40
0.0
 40
1.0
 40
1.0
 40
1.0
 40
2.0
 40
2.0
 40
2.0
 40
2.0
 10
73.19535995348936
 20
165.0455674500581
 30
0.0
 10
73.19535995348936
 20
165.0455674500581
 30
0.0
 10
70.10597057709157
 20
165.0455674500581
 30
0.0
 10
70.10597057709157
 20
165.0455674500581
 30
0.0
 10
70.10597057709157
 20
165.0455674500581
 30
0.0
 10
73.19535995348936
 20
165.0455674500581
 30
0.0
 10
73.19535995348936
 20
165.0455674500581
 30
0.0
  0
MTEXT
  5
152
330
3C
100
AcDbEntity
  8
Capa 1
 62
   250
100
AcDbMText
 10
70.95673690717402
 20
157.2312296156401
 30
0.0
 40
1.156525289829192
 41
0.0
 71
     7
 72
     1
  1
\fArial|b0|i0|c0|p34;\W1.00032;a
 11
3.524223830973416E-5
 21
0.9999999993789923
 31
0.0
 73
     1
 44
1.0
  0
SPLINE
  5
153
330
3C
100
AcDbEntity
  8
Capa 1
 62
   250
370
    13
100
AcDbSpline
210
0.0
220
0.0
230
1.0
 70
    11
 71
     3
 72
    20
 73
    16
 74
     0
 42
0.0000000001
 43
0.0000000001
 40
0.0
 40
0.0
 40
0.0
 40
0.0
 40
1.0
 40
1.0
 40
1.0
 40
2.0
 40
2.0
 40
2.0
 40
3.0
 40
3.0
 40
3.0
 40
4.0
 40
4.0
 40
4.0
 40
5.0
 40
5.0
 40
5.0
 40
5.0
 10
74.30709226657947
 20
150.3503404029506
 30
0.0
 10
74.30709226657947
 20
150.3548190270814
 30
0.0
 10
74.30347491631997
 20
150.358436377341
 30
0.0
 10
74.29899629218914
 20
150.358436377341
 30
0.0
 10
74.29434541328406
 20
150.358436377341
 30
0.0
 10
74.2909003177988
 20
150.3548190270814
 30
0.0
 10
74.2909003177988
 20
150.3503404029506
 30
0.0
 10
74.2909003177988
 20
150.3458617788198
 30
0.0
 10
74.29434541328406
 20
150.3422444285603
 30
0.0
 10
74.29899629218914
 20
150.3422444285603
 30
0.0
 10
74.30347491631997
 20
150.3422444285603
 30
0.0
 10
74.30709226657947
 20
150.3458617788198
 30
0.0
 10
74.30709226657947
 20
150.3503404029506
 30
0.0
 10
74.30709226657947
 20
150.3503404029506
 30
0.0
 10
74.30709226657947
 20
150.3503404029506
 30
0.0
 10
74.30709226657947
 20
150.3503404029506
 30
0.0
  0
HATCH
  5
154
330
3C
100
AcDbEntity
  8
Capa 1
 62
   250
100
AcDbHatch
 10
0.0
 20
0.0
 30
0.0
210
0.0
220
0.0
230
1.0
  2
SOLID
 70
     1
 71
     0
 91
        1
 92
        1
 93
        1
 72
     4
 94
        3
 73
     0
 74
     1
 95
       20
 96
       16
 40
0.0
 40
0.0
 40
0.0
 40
0.0
 40
1.0
 40
1.0
 40
1.0
 40
2.0
 40
2.0
 40
2.0
 40
3.0
 40
3.0
 40
3.0
 40
4.0
 40
4.0
 40
4.0
 40
5.0
 40
5.0
 40
5.0
 40
5.0
 10
74.30709226657947
 20
150.3503404029506
 10
74.30709226657947
 20
150.3548190270814
 10
74.30347491631997
 20
150.358436377341
 10
74.29899629218914
 20
150.358436377341
 10
74.29434541328406
 20
150.358436377341
 10
74.2909003177988
 20
150.3548190270814
 10
74.2909003177988
 20
150.3503404029506
 10
74.2909003177988
 20
150.3458617788198
 10
74.29434541328406
 20
150.3422444285603
 10
74.29899629218914
 20
150.3422444285603
 10
74.30347491631997
 20
150.3422444285603
 10
74.30709226657947
 20
150.3458617788198
 10
74.30709226657947
 20
150.3503404029506
 10
74.30709226657947
 20
150.3503404029506
 10
74.30709226657947
 20
150.3503404029506
 10
74.30709226657947
 20
150.3503404029506
 97
        0
 75
     0
 76
     1
 98
        0
  0
SPLINE
  5
155
330
3C
100
AcDbEntity
  8
Capa 1
 62
   250
370
    13
100
AcDbSpline
210
0.0
220
0.0
230
1.0
 70
    11
 71
     3
 72
    20
 73
    16
 74
     0
 42
0.0000000001
 43
0.0000000001
 40
0.0
 40
0.0
 40
0.0
 40
0.0
 40
1.0
 40
1.0
 40
1.0
 40
2.0
 40
2.0
 40
2.0
 40
3.0
 40
3.0
 40
3.0
 40
4.0
 40
4.0
 40
4.0
 40
5.0
 40
5.0
 40
5.0
 40
5.0
 10
74.30709226657947
 20
165.0455674500581
 30
0.0
 10
74.30709226657947
 20
165.0500460741889
 30
0.0
 10
74.30347491631997
 20
165.0536634244484
 30
0.0
 10
74.29899629218914
 20
165.0536634244484
 30
0.0
 10
74.29434541328406
 20
165.0536634244484
 30
0.0
 10
74.2909003177988
 20
165.0500460741889
 30
0.0
 10
74.2909003177988
 20
165.0455674500581
 30
0.0
 10
74.2909003177988
 20
165.0410888259272
 30
0.0
 10
74.29434541328406
 20
165.0374714756677
 30
0.0
 10
74.29899629218914
 20
165.0374714756677
 30
0.0
 10
74.30347491631997
 20
165.0374714756677
 30
0.0
 10
74.30709226657947
 20
165.0410888259272
 30
0.0
 10
74.30709226657947
 20
165.0455674500581
 30
0.0
 10
74.30709226657947
 20
165.0455674500581
 30
0.0
 10
74.30709226657947
 20
165.0455674500581
 30
0.0
 10
74.30709226657947
 20
165.0455674500581
 30
0.0
  0
HATCH
  5
156
330
3C
100
AcDbEntity
  8
Capa 1
 62
   250
100
AcDbHatch
 10
0.0
 20
0.0
 30
0.0
210
0.0
220
0.0
230
1.0
  2
SOLID
 70
     1
 71
     0
 91
        1
 92
        1
 93
        1
 72
     4
 94
        3
 73
     0
 74
     1
 95
       20
 96
       16
 40
0.0
 40
0.0
 40
0.0
 40
0.0
 40
1.0
 40
1.0
 40
1.0
 40
2.0
 40
2.0
 40
2.0
 40
3.0
 40
3.0
 40
3.0
 40
4.0
 40
4.0
 40
4.0
 40
5.0
 40
5.0
 40
5.0
 40
5.0
 10
74.30709226657947
 20
165.0455674500581
 10
74.30709226657947
 20
165.0500460741889
 10
74.30347491631997
 20
165.0536634244484
 10
74.29899629218914
 20
165.0536634244484
 10
74.29434541328406
 20
165.0536634244484
 10
74.2909003177988
 20
165.0500460741889
 10
74.2909003177988
 20
165.0455674500581
 10
74.2909003177988
 20
165.0410888259272
 10
74.29434541328406
 20
165.0374714756677
 10
74.29899629218914
 20
165.0374714756677
 10
74.30347491631997
 20
165.0374714756677
 10
74.30709226657947
 20
165.0410888259272
 10
74.30709226657947
 20
165.0455674500581
 10
74.30709226657947
 20
165.0455674500581
 10
74.30709226657947
 20
165.0455674500581
 10
74.30709226657947
 20
165.0455674500581
 97
        0
 75
     0
 76
     1
 98
        0
  0
SPLINE
  5
158
330
3C
100
AcDbEntity
  8
Capa 1
 62
   250
370
     9
100
AcDbSpline
210
0.0
220
0.0
230
1.0
 70
    27
 71
     3
 72
    11
 73
     7
 74
     0
 42
0.0000000001
 43
0.0000000001
 40
0.0
 40
0.0
 40
0.0
 40
0.0
 40
1.0
 40
1.0
 40
1.0
 40
2.0
 40
2.0
 40
2.0
 40
2.0
 10
128.5247992300216
 20
159.140157024017
 30
0.0
 10
128.5247992300216
 20
159.140157024017
 30
0.0
 10
125.6977538748256
 20
156.777682795007
 30
0.0
 10
125.6977538748256
 20
156.777682795007
 30
0.0
 10
125.6977538748256
 20
156.777682795007
 30
0.0
 10
128.5247992300216
 20
159.140157024017
 30
0.0
 10
128.5247992300216
 20
159.140157024017
 30
0.0
  0
SPLINE
  5
15A
330
3C
100
AcDbEntity
  8
Capa 1
 62
   250
370
     9
100
AcDbSpline
210
0.0
220
0.0
230
1.0
 70
    27
 71
     3
 72
    11
 73
     7
 74
     0
 42
0.0000000001
 43
0.0000000001
 40
0.0
 40
0.0
 40
0.0
 40
0.0
 40
1.0
 40
1.0
 40
1.0
 40
2.0
 40
2.0
 40
2.0
 40
2.0
 10
132.6775173279417
 20
154.2165988112722
 30
0.0
 10
132.6775173279417
 20
154.2165988112722
 30
0.0
 10
129.8284233616401
 20
151.8353488118676
 30
0.0
 10
129.8284233616401
 20
151.8353488118676
 30
0.0
 10
129.8284233616401
 20
151.8353488118676
 30
0.0
 10
132.6775173279417
 20
154.2165988112722
 30
0.0
 10
132.6775173279417
 20
154.2165988112722
 30
0.0
  0
MTEXT
  5
15B
330
3C
100
AcDbEntity
  8
Capa 1
 62
   250
100
AcDbMText
 10
127.0055121210264
 20
154.9051011439994
 30
0.0
 40
1.156556174571921
 41
0.0
 71
     7
 72
     1
  1
\fArial|b0|i0|c0|p34;\W1;36
 11
0.6413080339333039
 21
-0.76728352361601
 31
0.0
 73
     1
 44
1.0
  0
SPLINE
  5
15C
330
3C
100
AcDbEntity
  8
Capa 1
 62
   250
370
    13
100
AcDbSpline
210
0.0
220
0.0
230
1.0
 70
    11
 71
     3
 72
    20
 73
    16
 74
     0
 42
0.0000000001
 43
0.0000000001
 40
0.0
 40
0.0
 40
0.0
 40
0.0
 40
1.0
 40
1.0
 40
1.0
 40
2.0
 40
2.0
 40
2.0
 40
3.0
 40
3.0
 40
3.0
 40
4.0
 40
4.0
 40
4.0
 40
5.0
 40
5.0
 40
5.0
 40
5.0
 10
129.7636555665174
 20
160.1690347906869
 30
0.0
 10
129.7636555665174
 20
160.173685669592
 30
0.0
 10
129.7602104710322
 20
160.1773030198515
 30
0.0
 10
129.7553873373528
 20
160.1773030198515
 30
0.0
 10
129.7512532227705
 20
160.1773030198515
 30
0.0
 10
129.7471191081882
 20
160.173685669592
 30
0.0
 10
129.7471191081882
 20
160.1690347906869
 30
0.0
 10
129.7471191081882
 20
160.1645561665561
 30
0.0
 10
129.7512532227705
 20
160.1609388162966
 30
0.0
 10
129.7553873373528
 20
160.1609388162966
 30
0.0
 10
129.7602104710322
 20
160.1609388162966
 30
0.0
 10
129.7636555665174
 20
160.1645561665561
 30
0.0
 10
129.7636555665174
 20
160.1690347906869
 30
0.0
 10
129.7636555665174
 20
160.1690347906869
 30
0.0
 10
129.7636555665174
 20
160.1690347906869
 30
0.0
 10
129.7636555665174
 20
160.1690347906869
 30
0.0
  0
HATCH
  5
15D
330
3C
100
AcDbEntity
  8
Capa 1
 62
   250
100
AcDbHatch
 10
0.0
 20
0.0
 30
0.0
210
0.0
220
0.0
230
1.0
  2
SOLID
 70
     1
 71
     0
 91
        1
 92
        1
 93
        1
 72
     4
 94
        3
 73
     0
 74
     1
 95
       20
 96
       16
 40
0.0
 40
0.0
 40
0.0
 40
0.0
 40
1.0
 40
1.0
 40
1.0
 40
2.0
 40
2.0
 40
2.0
 40
3.0
 40
3.0
 40
3.0
 40
4.0
 40
4.0
 40
4.0
 40
5.0
 40
5.0
 40
5.0
 40
5.0
 10
129.7636555665174
 20
160.1690347906869
 10
129.7636555665174
 20
160.173685669592
 10
129.7602104710322
 20
160.1773030198515
 10
129.7553873373528
 20
160.1773030198515
 10
129.7512532227705
 20
160.1773030198515
 10
129.7471191081882
 20
160.173685669592
 10
129.7471191081882
 20
160.1690347906869
 10
129.7471191081882
 20
160.1645561665561
 10
129.7512532227705
 20
160.1609388162966
 10
129.7553873373528
 20
160.1609388162966
 10
129.7602104710322
 20
160.1609388162966
 10
129.7636555665174
 20
160.1645561665561
 10
129.7636555665174
 20
160.1690347906869
 10
129.7636555665174
 20
160.1690347906869
 10
129.7636555665174
 20
160.1690347906869
 10
129.7636555665174
 20
160.1690347906869
 97
        0
 75
     0
 76
     1
 98
        0
  0
SPLINE
  5
15E
330
3C
100
AcDbEntity
  8
Capa 1
 62
   250
370
    13
100
AcDbSpline
210
0.0
220
0.0
230
1.0
 70
    11
 71
     3
 72
    20
 73
    16
 74
     0
 42
0.0000000001
 43
0.0000000001
 40
0.0
 40
0.0
 40
0.0
 40
0.0
 40
1.0
 40
1.0
 40
1.0
 40
2.0
 40
2.0
 40
2.0
 40
3.0
 40
3.0
 40
3.0
 40
4.0
 40
4.0
 40
4.0
 40
5.0
 40
5.0
 40
5.0
 40
5.0
 10
133.894325053332
 20
155.2268730623218
 30
0.0
 10
133.894325053332
 20
155.2313516864526
 30
0.0
 10
133.8908799578467
 20
155.2349690367121
 30
0.0
 10
133.8867458432644
 20
155.2349690367121
 30
0.0
 10
133.8819227095851
 20
155.2349690367121
 30
0.0
 10
133.8784776140998
 20
155.2313516864526
 30
0.0
 10
133.8784776140998
 20
155.2268730623218
 30
0.0
 10
133.8784776140998
 20
155.2223944381909
 30
0.0
 10
133.8819227095851
 20
155.2186048331572
 30
0.0
 10
133.8867458432644
 20
155.2186048331572
 30
0.0
 10
133.8908799578467
 20
155.2186048331572
 30
0.0
 10
133.894325053332
 20
155.2223944381909
 30
0.0
 10
133.894325053332
 20
155.2268730623218
 30
0.0
 10
133.894325053332
 20
155.2268730623218
 30
0.0
 10
133.894325053332
 20
155.2268730623218
 30
0.0
 10
133.894325053332
 20
155.2268730623218
 30
0.0
  0
HATCH
  5
15F
330
3C
100
AcDbEntity
  8
Capa 1
 62
   250
100
AcDbHatch
 10
0.0
 20
0.0
 30
0.0
210
0.0
220
0.0
230
1.0
  2
SOLID
 70
     1
 71
     0
 91
        1
 92
        1
 93
        1
 72
     4
 94
        3
 73
     0
 74
     1
 95
       20
 96
       16
 40
0.0
 40
0.0
 40
0.0
 40
0.0
 40
1.0
 40
1.0
 40
1.0
 40
2.0
 40
2.0
 40
2.0
 40
3.0
 40
3.0
 40
3.0
 40
4.0
 40
4.0
 40
4.0
 40
5.0
 40
5.0
 40
5.0
 40
5.0
 10
133.894325053332
 20
155.2268730623218
 10
133.894325053332
 20
155.2313516864526
 10
133.8908799578467
 20
155.2349690367121
 10
133.8867458432644
 20
155.2349690367121
 10
133.8819227095851
 20
155.2349690367121
 10
133.8784776140998
 20
155.2313516864526
 10
133.8784776140998
 20
155.2268730623218
 10
133.8784776140998
 20
155.2223944381909
 10
133.8819227095851
 20
155.2186048331572
 10
133.8867458432644
 20
155.2186048331572
 10
133.8908799578467
 20
155.2186048331572
 10
133.894325053332
 20
155.2223944381909
 10
133.894325053332
 20
155.2268730623218
 10
133.894325053332
 20
155.2268730623218
 10
133.894325053332
 20
155.2268730623218
 10
133.894325053332
 20
155.2268730623218
 97
        0
 75
     0
 76
     1
 98
        0
  0
SPLINE
  5
160
330
3C
100
AcDbEntity
  8
Capa 1
 62
   250
370
    13
100
AcDbSpline
210
0.0
220
0.0
230
1.0
 70
    11
 71
     3
 72
    20
 73
    16
 74
     0
 42
0.0000000001
 43
0.0000000001
 40
0.0
 40
0.0
 40
0.0
 40
0.0
 40
1.0
 40
1.0
 40
1.0
 40
2.0
 40
2.0
 40
2.0
 40
3.0
 40
3.0
 40
3.0
 40
4.0
 40
4.0
 40
4.0
 40
5.0
 40
5.0
 40
5.0
 40
5.0
 10
130.1501952799624
 20
152.0971760687465
 30
0.0
 10
130.1501952799624
 20
152.1016546928774
 30
0.0
 10
130.1467501844772
 20
152.1052720431369
 30
0.0
 10
130.1419270507978
 20
152.1052720431369
 30
0.0
 10
130.1377929362156
 20
152.1052720431369
 30
0.0
 10
130.1336588216332
 20
152.1016546928774
 30
0.0
 10
130.1336588216332
 20
152.0971760687465
 30
0.0
 10
130.1336588216332
 20
152.0926974446157
 30
0.0
 10
130.1377929362156
 20
152.0890800943562
 30
0.0
 10
130.1419270507978
 20
152.0890800943562
 30
0.0
 10
130.1467501844772
 20
152.0890800943562
 30
0.0
 10
130.1501952799624
 20
152.0926974446157
 30
0.0
 10
130.1501952799624
 20
152.0971760687465
 30
0.0
 10
130.1501952799624
 20
152.0971760687465
 30
0.0
 10
130.1501952799624
 20
152.0971760687465
 30
0.0
 10
130.1501952799624
 20
152.0971760687465
 30
0.0
  0
HATCH
  5
161
330
3C
100
AcDbEntity
  8
Capa 1
 62
   250
100
AcDbHatch
 10
0.0
 20
0.0
 30
0.0
210
0.0
220
0.0
230
1.0
  2
SOLID
 70
     1
 71
     0
 91
        1
 92
        1
 93
        1
 72
     4
 94
        3
 73
     0
 74
     1
 95
       20
 96
       16
 40
0.0
 40
0.0
 40
0.0
 40
0.0
 40
1.0
 40
1.0
 40
1.0
 40
2.0
 40
2.0
 40
2.0
 40
3.0
 40
3.0
 40
3.0
 40
4.0
 40
4.0
 40
4.0
 40
5.0
 40
5.0
 40
5.0
 40
5.0
 10
130.1501952799624
 20
152.0971760687465
 10
130.1501952799624
 20
152.1016546928774
 10
130.1467501844772
 20
152.1052720431369
 10
130.1419270507978
 20
152.1052720431369
 10
130.1377929362156
 20
152.1052720431369
 10
130.1336588216332
 20
152.1016546928774
 10
130.1336588216332
 20
152.0971760687465
 10
130.1336588216332
 20
152.0926974446157
 10
130.1377929362156
 20
152.0890800943562
 10
130.1419270507978
 20
152.0890800943562
 10
130.1467501844772
 20
152.0890800943562
 10
130.1501952799624
 20
152.0926974446157
 10
130.1501952799624
 20
152.0971760687465
 10
130.1501952799624
 20
152.0971760687465
 10
130.1501952799624
 20
152.0971760687465
 10
130.1501952799624
 20
152.0971760687465
 97
        0
 75
     0
 76
     1
 98
        0
  0
SPLINE
  5
162
330
3C
100
AcDbEntity
  8
Capa 1
 62
   250
370
     9
100
AcDbSpline
210
0.0
220
0.0
230
1.0
 70
    27
 71
     3
 72
    11
 73
     7
 74
     0
 42
0.0000000001
 43
0.0000000001
 40
0.0
 40
0.0
 40
0.0
 40
0.0
 40
1.0
 40
1.0
 40
1.0
 40
2.0
 40
2.0
 40
2.0
 40
2.0
 10
138.8621527430622
 20
130.4395833007235
 30
0.0
 10
138.8621527430622
 20
130.4395833007235
 30
0.0
 10
138.8621527430622
 20
127.7551648986168
 30
0.0
 10
138.8621527430622
 20
127.7551648986168
 30
0.0
 10
138.8621527430622
 20
127.7551648986168
 30
0.0
 10
138.8621527430622
 20
130.4395833007235
 30
0.0
 10
138.8621527430622
 20
130.4395833007235
 30
0.0
  0
SPLINE
  5
163
330
3C
100
AcDbEntity
  8
Capa 1
 62
   250
370
     9
100
AcDbSpline
210
0.0
220
0.0
230
1.0
 70
    27
 71
     3
 72
    11
 73
     7
 74
     0
 42
0.0000000001
 43
0.0000000001
 40
0.0
 40
0.0
 40
0.0
 40
0.0
 40
1.0
 40
1.0
 40
1.0
 40
2.0
 40
2.0
 40
2.0
 40
2.0
 10
124.779291418458
 20
130.4395833007235
 30
0.0
 10
124.779291418458
 20
130.4395833007235
 30
0.0
 10
124.779291418458
 20
127.7551648986168
 30
0.0
 10
124.779291418458
 20
127.7551648986168
 30
0.0
 10
124.779291418458
 20
127.7551648986168
 30
0.0
 10
124.779291418458
 20
130.4395833007235
 30
0.0
 10
124.779291418458
 20
130.4395833007235
 30
0.0
  0
MTEXT
  5
164
330
3C
100
AcDbEntity
  8
Capa 1
 62
   250
100
AcDbMText
 10
131.3532226234117
 20
127.7207139437643
 30
0.0
 40
1.156525289829192
 41
0.0
 71
     7
 72
     1
  1
\fArial|b0|i0|c0|p34;\W0.999718;e
 73
     1
 44
1.0
  0
SPLINE
  5
165
330
3C
100
AcDbEntity
  8
Capa 1
 62
   250
370
    13
100
AcDbSpline
210
0.0
220
0.0
230
1.0
 70
    11
 71
     3
 72
    20
 73
    16
 74
     0
 42
0.0000000001
 43
0.0000000001
 40
0.0
 40
0.0
 40
0.0
 40
0.0
 40
1.0
 40
1.0
 40
1.0
 40
2.0
 40
2.0
 40
2.0
 40
3.0
 40
3.0
 40
3.0
 40
4.0
 40
4.0
 40
4.0
 40
5.0
 40
5.0
 40
5.0
 40
5.0
 10
138.8704209722268
 20
132.3006238818554
 30
0.0
 10
138.8704209722268
 20
132.3054470155348
 30
0.0
 10
138.8669758767416
 20
132.30889211102
 30
0.0
 10
138.8621527430622
 20
132.30889211102
 30
0.0
 10
138.85801862848
 20
132.30889211102
 30
0.0
 10
138.8545735329947
 20
132.3054470155348
 30
0.0
 10
138.8545735329947
 20
132.3006238818554
 30
0.0
 10
138.8545735329947
 20
132.2964897672731
 30
0.0
 10
138.85801862848
 20
132.2923556526908
 30
0.0
 10
138.8621527430622
 20
132.2923556526908
 30
0.0
 10
138.8669758767416
 20
132.2923556526908
 30
0.0
 10
138.8704209722268
 20
132.2964897672731
 30
0.0
 10
138.8704209722268
 20
132.3006238818554
 30
0.0
 10
138.8704209722268
 20
132.3006238818554
 30
0.0
 10
138.8704209722268
 20
132.3006238818554
 30
0.0
 10
138.8704209722268
 20
132.3006238818554
 30
0.0
  0
HATCH
  5
166
330
3C
100
AcDbEntity
  8
Capa 1
 62
   250
100
AcDbHatch
 10
0.0
 20
0.0
 30
0.0
210
0.0
220
0.0
230
1.0
  2
SOLID
 70
     1
 71
     0
 91
        1
 92
        1
 93
        1
 72
     4
 94
        3
 73
     0
 74
     1
 95
       20
 96
       16
 40
0.0
 40
0.0
 40
0.0
 40
0.0
 40
1.0
 40
1.0
 40
1.0
 40
2.0
 40
2.0
 40
2.0
 40
3.0
 40
3.0
 40
3.0
 40
4.0
 40
4.0
 40
4.0
 40
5.0
 40
5.0
 40
5.0
 40
5.0
 10
138.8704209722268
 20
132.3006238818554
 10
138.8704209722268
 20
132.3054470155348
 10
138.8669758767416
 20
132.30889211102
 10
138.8621527430622
 20
132.30889211102
 10
138.85801862848
 20
132.30889211102
 10
138.8545735329947
 20
132.3054470155348
 10
138.8545735329947
 20
132.3006238818554
 10
138.8545735329947
 20
132.2964897672731
 10
138.85801862848
 20
132.2923556526908
 10
138.8621527430622
 20
132.2923556526908
 10
138.8669758767416
 20
132.2923556526908
 10
138.8704209722268
 20
132.2964897672731
 10
138.8704209722268
 20
132.3006238818554
 10
138.8704209722268
 20
132.3006238818554
 10
138.8704209722268
 20
132.3006238818554
 10
138.8704209722268
 20
132.3006238818554
 97
        0
 75
     0
 76
     1
 98
        0
  0
SPLINE
  5
167
330
3C
100
AcDbEntity
  8
Capa 1
 62
   250
370
    13
100
AcDbSpline
210
0.0
220
0.0
230
1.0
 70
    11
 71
     3
 72
    20
 73
    16
 74
     0
 42
0.0000000001
 43
0.0000000001
 40
0.0
 40
0.0
 40
0.0
 40
0.0
 40
1.0
 40
1.0
 40
1.0
 40
2.0
 40
2.0
 40
2.0
 40
3.0
 40
3.0
 40
3.0
 40
4.0
 40
4.0
 40
4.0
 40
5.0
 40
5.0
 40
5.0
 40
5.0
 10
124.7875596476226
 20
132.3006238818554
 30
0.0
 10
124.7875596476226
 20
132.3054470155348
 30
0.0
 10
124.7841145521373
 20
132.30889211102
 30
0.0
 10
124.779291418458
 20
132.30889211102
 30
0.0
 10
124.7751573038757
 20
132.30889211102
 30
0.0
 10
124.7710231892934
 20
132.3054470155348
 30
0.0
 10
124.7710231892934
 20
132.3006238818554
 30
0.0
 10
124.7710231892934
 20
132.2964897672731
 30
0.0
 10
124.7751573038757
 20
132.2923556526908
 30
0.0
 10
124.779291418458
 20
132.2923556526908
 30
0.0
 10
124.7841145521373
 20
132.2923556526908
 30
0.0
 10
124.7875596476226
 20
132.2964897672731
 30
0.0
 10
124.7875596476226
 20
132.3006238818554
 30
0.0
 10
124.7875596476226
 20
132.3006238818554
 30
0.0
 10
124.7875596476226
 20
132.3006238818554
 30
0.0
 10
124.7875596476226
 20
132.3006238818554
 30
0.0
  0
HATCH
  5
168
330
3C
100
AcDbEntity
  8
Capa 1
 62
   250
100
AcDbHatch
 10
0.0
 20
0.0
 30
0.0
210
0.0
220
0.0
230
1.0
  2
SOLID
 70
     1
 71
     0
 91
        1
 92
        1
 93
        1
 72
     4
 94
        3
 73
     0
 74
     1
 95
       20
 96
       16
 40
0.0
 40
0.0
 40
0.0
 40
0.0
 40
1.0
 40
1.0
 40
1.0
 40
2.0
 40
2.0
 40
2.0
 40
3.0
 40
3.0
 40
3.0
 40
4.0
 40
4.0
 40
4.0
 40
5.0
 40
5.0
 40
5.0
 40
5.0
 10
124.7875596476226
 20
132.3006238818554
 10
124.7875596476226
 20
132.3054470155348
 10
124.7841145521373
 20
132.30889211102
 10
124.779291418458
 20
132.30889211102
 10
124.7751573038757
 20
132.30889211102
 10
124.7710231892934
 20
132.3054470155348
 10
124.7710231892934
 20
132.3006238818554
 10
124.7710231892934
 20
132.2964897672731
 10
124.7751573038757
 20
132.2923556526908
 10
124.779291418458
 20
132.2923556526908
 10
124.7841145521373
 20
132.2923556526908
 10
124.7875596476226
 20
132.2964897672731
 10
124.7875596476226
 20
132.3006238818554
 10
124.7875596476226
 20
132.3006238818554
 10
124.7875596476226
 20
132.3006238818554
 10
124.7875596476226
 20
132.3006238818554
 97
        0
 75
     0
 76
     1
 98
        0
  0
SPLINE
  5
169
330
3C
100
AcDbEntity
  8
Capa 1
 62
   250
370
     9
100
AcDbSpline
210
0.0
220
0.0
230
1.0
 70
    27
 71
     3
 72
    11
 73
     7
 74
     0
 42
0.0000000001
 43
0.0000000001
 40
0.0
 40
0.0
 40
0.0
 40
0.0
 40
1.0
 40
1.0
 40
1.0
 40
2.0
 40
2.0
 40
2.0
 40
2.0
 10
122.8596842140768
 20
132.3006238818554
 30
0.0
 10
122.8596842140768
 20
132.3006238818554
 30
0.0
 10
120.3571668535913
 20
132.3006238818554
 30
0.0
 10
120.3571668535913
 20
132.3006238818554
 30
0.0
 10
120.3571668535913
 20
132.3006238818554
 30
0.0
 10
122.8596842140768
 20
132.3006238818554
 30
0.0
 10
122.8596842140768
 20
132.3006238818554
 30
0.0
  0
SPLINE
  5
16A
330
3C
100
AcDbEntity
  8
Capa 1
 62
   250
370
     9
100
AcDbSpline
210
0.0
220
0.0
230
1.0
 70
    27
 71
     3
 72
    11
 73
     7
 74
     0
 42
0.0000000001
 43
0.0000000001
 40
0.0
 40
0.0
 40
0.0
 40
0.0
 40
1.0
 40
1.0
 40
1.0
 40
2.0
 40
2.0
 40
2.0
 40
2.0
 10
122.8596842140768
 20
146.3834852064597
 30
0.0
 10
122.8596842140768
 20
146.3834852064597
 30
0.0
 10
120.3571668535913
 20
146.3834852064597
 30
0.0
 10
120.3571668535913
 20
146.3834852064597
 30
0.0
 10
120.3571668535913
 20
146.3834852064597
 30
0.0
 10
122.8596842140768
 20
146.3834852064597
 30
0.0
 10
122.8596842140768
 20
146.3834852064597
 30
0.0
  0
MTEXT
  5
16B
330
3C
100
AcDbEntity
  8
Capa 1
 62
   250
100
AcDbMText
 10
121.2074164193509
 20
138.8766221441003
 30
0.0
 40
1.156525289829192
 41
0.0
 71
     7
 72
     1
  1
\fArial|b0|i0|c0|p34;\W1;e
 11
3.524223830973416E-5
 21
0.9999999993789923
 31
0.0
 73
     1
 44
1.0
  0
SPLINE
  5
16C
330
3C
100
AcDbEntity
  8
Capa 1
 62
   250
370
    13
100
AcDbSpline
210
0.0
220
0.0
230
1.0
 70
    11
 71
     3
 72
    20
 73
    16
 74
     0
 42
0.0000000001
 43
0.0000000001
 40
0.0
 40
0.0
 40
0.0
 40
0.0
 40
1.0
 40
1.0
 40
1.0
 40
2.0
 40
2.0
 40
2.0
 40
3.0
 40
3.0
 40
3.0
 40
4.0
 40
4.0
 40
4.0
 40
5.0
 40
5.0
 40
5.0
 40
5.0
 10
124.7875596476226
 20
132.3006238818554
 30
0.0
 10
124.7875596476226
 20
132.3054470155348
 30
0.0
 10
124.7841145521373
 20
132.30889211102
 30
0.0
 10
124.779291418458
 20
132.30889211102
 30
0.0
 10
124.7751573038757
 20
132.30889211102
 30
0.0
 10
124.7710231892934
 20
132.3054470155348
 30
0.0
 10
124.7710231892934
 20
132.3006238818554
 30
0.0
 10
124.7710231892934
 20
132.2964897672731
 30
0.0
 10
124.7751573038757
 20
132.2923556526908
 30
0.0
 10
124.779291418458
 20
132.2923556526908
 30
0.0
 10
124.7841145521373
 20
132.2923556526908
 30
0.0
 10
124.7875596476226
 20
132.2964897672731
 30
0.0
 10
124.7875596476226
 20
132.3006238818554
 30
0.0
 10
124.7875596476226
 20
132.3006238818554
 30
0.0
 10
124.7875596476226
 20
132.3006238818554
 30
0.0
 10
124.7875596476226
 20
132.3006238818554
 30
0.0
  0
HATCH
  5
16D
330
3C
100
AcDbEntity
  8
Capa 1
 62
   250
100
AcDbHatch
 10
0.0
 20
0.0
 30
0.0
210
0.0
220
0.0
230
1.0
  2
SOLID
 70
     1
 71
     0
 91
        1
 92
        1
 93
        1
 72
     4
 94
        3
 73
     0
 74
     1
 95
       20
 96
       16
 40
0.0
 40
0.0
 40
0.0
 40
0.0
 40
1.0
 40
1.0
 40
1.0
 40
2.0
 40
2.0
 40
2.0
 40
3.0
 40
3.0
 40
3.0
 40
4.0
 40
4.0
 40
4.0
 40
5.0
 40
5.0
 40
5.0
 40
5.0
 10
124.7875596476226
 20
132.3006238818554
 10
124.7875596476226
 20
132.3054470155348
 10
124.7841145521373
 20
132.30889211102
 10
124.779291418458
 20
132.30889211102
 10
124.7751573038757
 20
132.30889211102
 10
124.7710231892934
 20
132.3054470155348
 10
124.7710231892934
 20
132.3006238818554
 10
124.7710231892934
 20
132.2964897672731
 10
124.7751573038757
 20
132.2923556526908
 10
124.779291418458
 20
132.2923556526908
 10
124.7841145521373
 20
132.2923556526908
 10
124.7875596476226
 20
132.2964897672731
 10
124.7875596476226
 20
132.3006238818554
 10
124.7875596476226
 20
132.3006238818554
 10
124.7875596476226
 20
132.3006238818554
 10
124.7875596476226
 20
132.3006238818554
 97
        0
 75
     0
 76
     1
 98
        0
  0
SPLINE
  5
16E
330
3C
100
AcDbEntity
  8
Capa 1
 62
   250
370
    13
100
AcDbSpline
210
0.0
220
0.0
230
1.0
 70
    11
 71
     3
 72
    20
 73
    16
 74
     0
 42
0.0000000001
 43
0.0000000001
 40
0.0
 40
0.0
 40
0.0
 40
0.0
 40
1.0
 40
1.0
 40
1.0
 40
2.0
 40
2.0
 40
2.0
 40
3.0
 40
3.0
 40
3.0
 40
4.0
 40
4.0
 40
4.0
 40
5.0
 40
5.0
 40
5.0
 40
5.0
 10
124.7875596476226
 20
146.3834852064597
 30
0.0
 10
124.7875596476226
 20
146.388308340139
 30
0.0
 10
124.7841145521373
 20
146.3917534356243
 30
0.0
 10
124.779291418458
 20
146.3917534356243
 30
0.0
 10
124.7751573038757
 20
146.3917534356243
 30
0.0
 10
124.7710231892934
 20
146.388308340139
 30
0.0
 10
124.7710231892934
 20
146.3834852064597
 30
0.0
 10
124.7710231892934
 20
146.3793510918774
 30
0.0
 10
124.7751573038757
 20
146.3752169772951
 30
0.0
 10
124.779291418458
 20
146.3752169772951
 30
0.0
 10
124.7841145521373
 20
146.3752169772951
 30
0.0
 10
124.7875596476226
 20
146.3793510918774
 30
0.0
 10
124.7875596476226
 20
146.3834852064597
 30
0.0
 10
124.7875596476226
 20
146.3834852064597
 30
0.0
 10
124.7875596476226
 20
146.3834852064597
 30
0.0
 10
124.7875596476226
 20
146.3834852064597
 30
0.0
  0
HATCH
  5
16F
330
3C
100
AcDbEntity
  8
Capa 1
 62
   250
100
AcDbHatch
 10
0.0
 20
0.0
 30
0.0
210
0.0
220
0.0
230
1.0
  2
SOLID
 70
     1
 71
     0
 91
        1
 92
        1
 93
        1
 72
     4
 94
        3
 73
     0
 74
     1
 95
       20
 96
       16
 40
0.0
 40
0.0
 40
0.0
 40
0.0
 40
1.0
 40
1.0
 40
1.0
 40
2.0
 40
2.0
 40
2.0
 40
3.0
 40
3.0
 40
3.0
 40
4.0
 40
4.0
 40
4.0
 40
5.0
 40
5.0
 40
5.0
 40
5.0
 10
124.7875596476226
 20
146.3834852064597
 10
124.7875596476226
 20
146.388308340139
 10
124.7841145521373
 20
146.3917534356243
 10
124.779291418458
 20
146.3917534356243
 10
124.7751573038757
 20
146.3917534356243
 10
124.7710231892934
 20
146.388308340139
 10
124.7710231892934
 20
146.3834852064597
 10
124.7710231892934
 20
146.3793510918774
 10
124.7751573038757
 20
146.3752169772951
 10
124.779291418458
 20
146.3752169772951
 10
124.7841145521373
 20
146.3752169772951
 10
124.7875596476226
 20
146.3793510918774
 10
124.7875596476226
 20
146.3834852064597
 10
124.7875596476226
 20
146.3834852064597
 10
124.7875596476226
 20
146.3834852064597
 10
124.7875596476226
 20
146.3834852064597
 97
        0
 75
     0
 76
     1
 98
        0
  0
SPLINE
  5
170
330
3C
100
AcDbEntity
  8
Capa 1
 62
   250
370
     9
100
AcDbSpline
210
0.0
220
0.0
230
1.0
 70
    27
 71
     3
 72
    11
 73
     7
 74
     0
 42
0.0000000001
 43
0.0000000001
 40
0.0
 40
0.0
 40
0.0
 40
0.0
 40
1.0
 40
1.0
 40
1.0
 40
2.0
 40
2.0
 40
2.0
 40
2.0
 10
103.562154108224
 20
164.5556748720555
 30
0.0
 10
103.562154108224
 20
164.5556748720555
 30
0.0
 10
106.8206976729476
 20
164.5556748720555
 30
0.0
 10
106.8206976729476
 20
164.5556748720555
 30
0.0
 10
106.8206976729476
 20
164.5556748720555
 30
0.0
 10
103.562154108224
 20
164.5556748720555
 30
0.0
 10
103.562154108224
 20
164.5556748720555
 30
0.0
  0
SPLINE
  5
171
330
3C
100
AcDbEntity
  8
Capa 1
 62
   250
370
     9
100
AcDbSpline
210
0.0
220
0.0
230
1.0
 70
    27
 71
     3
 72
    11
 73
     7
 74
     0
 42
0.0000000001
 43
0.0000000001
 40
0.0
 40
0.0
 40
0.0
 40
0.0
 40
1.0
 40
1.0
 40
1.0
 40
2.0
 40
2.0
 40
2.0
 40
2.0
 10
103.562154108224
 20
150.8402329809531
 30
0.0
 10
103.562154108224
 20
150.8402329809531
 30
0.0
 10
106.8206976729476
 20
150.8402329809531
 30
0.0
 10
106.8206976729476
 20
150.8402329809531
 30
0.0
 10
106.8206976729476
 20
150.8402329809531
 30
0.0
 10
103.562154108224
 20
150.8402329809531
 30
0.0
 10
103.562154108224
 20
150.8402329809531
 30
0.0
  0
MTEXT
  5
172
330
3C
100
AcDbEntity
  8
Capa 1
 62
   250
100
AcDbMText
 10
107.1521158586286
 20
157.7398979640373
 30
0.0
 40
1.156525289829192
 41
0.0
 71
     7
 72
     1
  1
\fArial|b0|i0|c0|p34;\W1;b
 11
3.524223830973416E-5
 21
0.9999999993789923
 31
0.0
 73
     1
 44
1.0
  0
SPLINE
  5
173
330
3C
100
AcDbEntity
  8
Capa 1
 62
   250
370
    13
100
AcDbSpline
210
0.0
220
0.0
230
1.0
 70
    11
 71
     3
 72
    20
 73
    16
 74
     0
 42
0.0000000001
 43
0.0000000001
 40
0.0
 40
0.0
 40
0.0
 40
0.0
 40
1.0
 40
1.0
 40
1.0
 40
2.0
 40
2.0
 40
2.0
 40
3.0
 40
3.0
 40
3.0
 40
4.0
 40
4.0
 40
4.0
 40
5.0
 40
5.0
 40
5.0
 40
5.0
 10
102.1808430734131
 20
164.5556748720555
 30
0.0
 10
102.1808430734131
 20
164.5601534961864
 30
0.0
 10
102.1773979779279
 20
164.5639431012201
 30
0.0
 10
102.1727470990228
 20
164.5639431012201
 30
0.0
 10
102.168268474892
 20
164.5639431012201
 30
0.0
 10
102.1646511246325
 20
164.5601534961864
 30
0.0
 10
102.1646511246325
 20
164.5556748720555
 30
0.0
 10
102.1646511246325
 20
164.5511962479247
 30
0.0
 10
102.168268474892
 20
164.5475788976652
 30
0.0
 10
102.1727470990228
 20
164.5475788976652
 30
0.0
 10
102.1773979779279
 20
164.5475788976652
 30
0.0
 10
102.1808430734131
 20
164.5511962479247
 30
0.0
 10
102.1808430734131
 20
164.5556748720555
 30
0.0
 10
102.1808430734131
 20
164.5556748720555
 30
0.0
 10
102.1808430734131
 20
164.5556748720555
 30
0.0
 10
102.1808430734131
 20
164.5556748720555
 30
0.0
  0
HATCH
  5
174
330
3C
100
AcDbEntity
  8
Capa 1
 62
   250
100
AcDbHatch
 10
0.0
 20
0.0
 30
0.0
210
0.0
220
0.0
230
1.0
  2
SOLID
 70
     1
 71
     0
 91
        1
 92
        1
 93
        1
 72
     4
 94
        3
 73
     0
 74
     1
 95
       20
 96
       16
 40
0.0
 40
0.0
 40
0.0
 40
0.0
 40
1.0
 40
1.0
 40
1.0
 40
2.0
 40
2.0
 40
2.0
 40
3.0
 40
3.0
 40
3.0
 40
4.0
 40
4.0
 40
4.0
 40
5.0
 40
5.0
 40
5.0
 40
5.0
 10
102.1808430734131
 20
164.5556748720555
 10
102.1808430734131
 20
164.5601534961864
 10
102.1773979779279
 20
164.5639431012201
 10
102.1727470990228
 20
164.5639431012201
 10
102.168268474892
 20
164.5639431012201
 10
102.1646511246325
 20
164.5601534961864
 10
102.1646511246325
 20
164.5556748720555
 10
102.1646511246325
 20
164.5511962479247
 10
102.168268474892
 20
164.5475788976652
 10
102.1727470990228
 20
164.5475788976652
 10
102.1773979779279
 20
164.5475788976652
 10
102.1808430734131
 20
164.5511962479247
 10
102.1808430734131
 20
164.5556748720555
 10
102.1808430734131
 20
164.5556748720555
 10
102.1808430734131
 20
164.5556748720555
 10
102.1808430734131
 20
164.5556748720555
 97
        0
 75
     0
 76
     1
 98
        0
  0
SPLINE
  5
175
330
3C
100
AcDbEntity
  8
Capa 1
 62
   250
370
    13
100
AcDbSpline
210
0.0
220
0.0
230
1.0
 70
    11
 71
     3
 72
    20
 73
    16
 74
     0
 42
0.0000000001
 43
0.0000000001
 40
0.0
 40
0.0
 40
0.0
 40
0.0
 40
1.0
 40
1.0
 40
1.0
 40
2.0
 40
2.0
 40
2.0
 40
3.0
 40
3.0
 40
3.0
 40
4.0
 40
4.0
 40
4.0
 40
5.0
 40
5.0
 40
5.0
 40
5.0
 10
102.1808430734131
 20
150.8402329809531
 30
0.0
 10
102.1808430734131
 20
150.844711605084
 30
0.0
 10
102.1773979779279
 20
150.8483289553435
 30
0.0
 10
102.1727470990228
 20
150.8483289553435
 30
0.0
 10
102.168268474892
 20
150.8483289553435
 30
0.0
 10
102.1646511246325
 20
150.844711605084
 30
0.0
 10
102.1646511246325
 20
150.8402329809531
 30
0.0
 10
102.1646511246325
 20
150.8357543568223
 30
0.0
 10
102.168268474892
 20
150.8319647517885
 30
0.0
 10
102.1727470990228
 20
150.8319647517885
 30
0.0
 10
102.1773979779279
 20
150.8319647517885
 30
0.0
 10
102.1808430734131
 20
150.8357543568223
 30
0.0
 10
102.1808430734131
 20
150.8402329809531
 30
0.0
 10
102.1808430734131
 20
150.8402329809531
 30
0.0
 10
102.1808430734131
 20
150.8402329809531
 30
0.0
 10
102.1808430734131
 20
150.8402329809531
 30
0.0
  0
HATCH
  5
176
330
3C
100
AcDbEntity
  8
Capa 1
 62
   250
100
AcDbHatch
 10
0.0
 20
0.0
 30
0.0
210
0.0
220
0.0
230
1.0
  2
SOLID
 70
     1
 71
     0
 91
        1
 92
        1
 93
        1
 72
     4
 94
        3
 73
     0
 74
     1
 95
       20
 96
       16
 40
0.0
 40
0.0
 40
0.0
 40
0.0
 40
1.0
 40
1.0
 40
1.0
 40
2.0
 40
2.0
 40
2.0
 40
3.0
 40
3.0
 40
3.0
 40
4.0
 40
4.0
 40
4.0
 40
5.0
 40
5.0
 40
5.0
 40
5.0
 10
102.1808430734131
 20
150.8402329809531
 10
102.1808430734131
 20
150.844711605084
 10
102.1773979779279
 20
150.8483289553435
 10
102.1727470990228
 20
150.8483289553435
 10
102.168268474892
 20
150.8483289553435
 10
102.1646511246325
 20
150.844711605084
 10
102.1646511246325
 20
150.8402329809531
 10
102.1646511246325
 20
150.8357543568223
 10
102.168268474892
 20
150.8319647517885
 10
102.1727470990228
 20
150.8319647517885
 10
102.1773979779279
 20
150.8319647517885
 10
102.1808430734131
 20
150.8357543568223
 10
102.1808430734131
 20
150.8402329809531
 10
102.1808430734131
 20
150.8402329809531
 10
102.1808430734131
 20
150.8402329809531
 10
102.1808430734131
 20
150.8402329809531
 97
        0
 75
     0
 76
     1
 98
        0
  0
SPLINE
  5
177
330
3C
100
AcDbEntity
  8
Capa 1
 62
   250
370
     9
100
AcDbSpline
210
0.0
220
0.0
230
1.0
 70
    27
 71
     3
 72
    11
 73
     7
 74
     0
 42
0.0000000001
 43
0.0000000001
 40
0.0
 40
0.0
 40
0.0
 40
0.0
 40
1.0
 40
1.0
 40
1.0
 40
2.0
 40
2.0
 40
2.0
 40
2.0
 10
95.36403263674927
 20
151.0889688749882
 30
0.0
 10
95.36403263674927
 20
151.0889688749882
 30
0.0
 10
95.36403263674927
 20
146.111322663125
 30
0.0
 10
95.36403263674927
 20
146.111322663125
 30
0.0
 10
95.36403263674927
 20
146.111322663125
 30
0.0
 10
95.36403263674927
 20
151.0889688749882
 30
0.0
 10
95.36403263674927
 20
151.0889688749882
 30
0.0
  0
MTEXT
  5
178
330
3C
100
AcDbEntity
  8
Capa 1
 62
   250
100
AcDbMText
 10
98.3187187796738
 20
146.0789387655636
 30
0.0
 40
1.156525289829192
 41
0.0
 71
     7
 72
     1
  1
\fArial|b0|i0|c0|p34;\W1.00014;c
 73
     1
 44
1.0
  0
SPLINE
  5
179
330
3C
100
AcDbEntity
  8
Capa 1
 62
   250
370
    13
100
AcDbSpline
210
0.0
220
0.0
230
1.0
 70
    11
 71
     3
 72
    20
 73
    16
 74
     0
 42
0.0000000001
 43
0.0000000001
 40
0.0
 40
0.0
 40
0.0
 40
0.0
 40
1.0
 40
1.0
 40
1.0
 40
2.0
 40
2.0
 40
2.0
 40
3.0
 40
3.0
 40
3.0
 40
4.0
 40
4.0
 40
4.0
 40
5.0
 40
5.0
 40
5.0
 40
5.0
 10
95.37212861113962
 20
152.1297322210822
 30
0.0
 10
95.37212861113962
 20
152.134210845213
 30
0.0
 10
95.3685112608801
 20
152.1378281954725
 30
0.0
 10
95.36403263674927
 20
152.1378281954725
 30
0.0
 10
95.35955401261845
 20
152.1378281954725
 30
0.0
 10
95.35576440758467
 20
152.134210845213
 30
0.0
 10
95.35576440758467
 20
152.1297322210822
 30
0.0
 10
95.35576440758467
 20
152.1252535969513
 30
0.0
 10
95.35955401261845
 20
152.1214639919176
 30
0.0
 10
95.36403263674927
 20
152.1214639919176
 30
0.0
 10
95.3685112608801
 20
152.1214639919176
 30
0.0
 10
95.37212861113962
 20
152.1252535969513
 30
0.0
 10
95.37212861113962
 20
152.1297322210822
 30
0.0
 10
95.37212861113962
 20
152.1297322210822
 30
0.0
 10
95.37212861113962
 20
152.1297322210822
 30
0.0
 10
95.37212861113962
 20
152.1297322210822
 30
0.0
  0
HATCH
  5
17A
330
3C
100
AcDbEntity
  8
Capa 1
 62
   250
100
AcDbHatch
 10
0.0
 20
0.0
 30
0.0
210
0.0
220
0.0
230
1.0
  2
SOLID
 70
     1
 71
     0
 91
        1
 92
        1
 93
        1
 72
     4
 94
        3
 73
     0
 74
     1
 95
       20
 96
       16
 40
0.0
 40
0.0
 40
0.0
 40
0.0
 40
1.0
 40
1.0
 40
1.0
 40
2.0
 40
2.0
 40
2.0
 40
3.0
 40
3.0
 40
3.0
 40
4.0
 40
4.0
 40
4.0
 40
5.0
 40
5.0
 40
5.0
 40
5.0
 10
95.37212861113962
 20
152.1297322210822
 10
95.37212861113962
 20
152.134210845213
 10
95.3685112608801
 20
152.1378281954725
 10
95.36403263674927
 20
152.1378281954725
 10
95.35955401261845
 20
152.1378281954725
 10
95.35576440758467
 20
152.134210845213
 10
95.35576440758467
 20
152.1297322210822
 10
95.35576440758467
 20
152.1252535969513
 10
95.35955401261845
 20
152.1214639919176
 10
95.36403263674927
 20
152.1214639919176
 10
95.3685112608801
 20
152.1214639919176
 10
95.37212861113962
 20
152.1252535969513
 10
95.37212861113962
 20
152.1297322210822
 10
95.37212861113962
 20
152.1297322210822
 10
95.37212861113962
 20
152.1297322210822
 10
95.37212861113962
 20
152.1297322210822
 97
        0
 75
     0
 76
     1
 98
        0
  0
SPLINE
  5
17B
330
3C
100
AcDbEntity
  8
Capa 1
 62
   250
370
    13
100
AcDbSpline
210
0.0
220
0.0
230
1.0
 70
    11
 71
     3
 72
    20
 73
    16
 74
     0
 42
0.0000000001
 43
0.0000000001
 40
0.0
 40
0.0
 40
0.0
 40
0.0
 40
1.0
 40
1.0
 40
1.0
 40
2.0
 40
2.0
 40
2.0
 40
3.0
 40
3.0
 40
3.0
 40
4.0
 40
4.0
 40
4.0
 40
5.0
 40
5.0
 40
5.0
 40
5.0
 10
102.1808430734131
 20
150.3503404029506
 30
0.0
 10
102.1808430734131
 20
150.3548190270814
 30
0.0
 10
102.1773979779279
 20
150.358436377341
 30
0.0
 10
102.1727470990228
 20
150.358436377341
 30
0.0
 10
102.168268474892
 20
150.358436377341
 30
0.0
 10
102.1646511246325
 20
150.3548190270814
 30
0.0
 10
102.1646511246325
 20
150.3503404029506
 30
0.0
 10
102.1646511246325
 20
150.3458617788198
 30
0.0
 10
102.168268474892
 20
150.3422444285603
 30
0.0
 10
102.1727470990228
 20
150.3422444285603
 30
0.0
 10
102.1773979779279
 20
150.3422444285603
 30
0.0
 10
102.1808430734131
 20
150.3458617788198
 30
0.0
 10
102.1808430734131
 20
150.3503404029506
 30
0.0
 10
102.1808430734131
 20
150.3503404029506
 30
0.0
 10
102.1808430734131
 20
150.3503404029506
 30
0.0
 10
102.1808430734131
 20
150.3503404029506
 30
0.0
  0
HATCH
  5
17C
330
3C
100
AcDbEntity
  8
Capa 1
 62
   250
100
AcDbHatch
 10
0.0
 20
0.0
 30
0.0
210
0.0
220
0.0
230
1.0
  2
SOLID
 70
     1
 71
     0
 91
        1
 92
        1
 93
        1
 72
     4
 94
        3
 73
     0
 74
     1
 95
       20
 96
       16
 40
0.0
 40
0.0
 40
0.0
 40
0.0
 40
1.0
 40
1.0
 40
1.0
 40
2.0
 40
2.0
 40
2.0
 40
3.0
 40
3.0
 40
3.0
 40
4.0
 40
4.0
 40
4.0
 40
5.0
 40
5.0
 40
5.0
 40
5.0
 10
102.1808430734131
 20
150.3503404029506
 10
102.1808430734131
 20
150.3548190270814
 10
102.1773979779279
 20
150.358436377341
 10
102.1727470990228
 20
150.358436377341
 10
102.168268474892
 20
150.358436377341
 10
102.1646511246325
 20
150.3548190270814
 10
102.1646511246325
 20
150.3503404029506
 10
102.1646511246325
 20
150.3458617788198
 10
102.168268474892
 20
150.3422444285603
 10
102.1727470990228
 20
150.3422444285603
 10
102.1773979779279
 20
150.3422444285603
 10
102.1808430734131
 20
150.3458617788198
 10
102.1808430734131
 20
150.3503404029506
 10
102.1808430734131
 20
150.3503404029506
 10
102.1808430734131
 20
150.3503404029506
 10
102.1808430734131
 20
150.3503404029506
 97
        0
 75
     0
 76
     1
 98
        0
  0
SPLINE
  5
17D
330
3C
100
AcDbEntity
  8
Capa 1
 62
   250
370
     9
100
AcDbSpline
210
0.0
220
0.0
230
1.0
 70
    11
 71
     3
 72
    20
 73
    16
 74
     0
 42
0.0000000001
 43
0.0000000001
 40
0.0
 40
0.0
 40
0.0
 40
0.0
 40
1.0
 40
1.0
 40
1.0
 40
2.0
 40
2.0
 40
2.0
 40
3.0
 40
3.0
 40
3.0
 40
4.0
 40
4.0
 40
4.0
 40
5.0
 40
5.0
 40
5.0
 40
5.0
 10
102.1808430734131
 20
146.5192219685785
 30
0.0
 10
102.1808430734131
 20
146.5240451022579
 30
0.0
 10
102.1773979779279
 20
146.5274901977431
 30
0.0
 10
102.1727470990228
 20
146.5274901977431
 30
0.0
 10
102.168268474892
 20
146.5274901977431
 30
0.0
 10
102.1646511246325
 20
146.5240451022579
 30
0.0
 10
102.1646511246325
 20
146.5192219685785
 30
0.0
 10
102.1646511246325
 20
146.5150878539962
 30
0.0
 10
102.168268474892
 20
146.5109537394139
 30
0.0
 10
102.1727470990228
 20
146.5109537394139
 30
0.0
 10
102.1773979779279
 20
146.5109537394139
 30
0.0
 10
102.1808430734131
 20
146.5150878539962
 30
0.0
 10
102.1808430734131
 20
146.5192219685785
 30
0.0
 10
102.1808430734131
 20
146.5192219685785
 30
0.0
 10
102.1808430734131
 20
146.5192219685785
 30
0.0
 10
102.1808430734131
 20
146.5192219685785
 30
0.0
  0
HATCH
  5
17E
330
3C
100
AcDbEntity
  8
Capa 1
 62
   250
100
AcDbHatch
 10
0.0
 20
0.0
 30
0.0
210
0.0
220
0.0
230
1.0
  2
SOLID
 70
     1
 71
     0
 91
        1
 92
        1
 93
        1
 72
     4
 94
        3
 73
     0
 74
     1
 95
       20
 96
       16
 40
0.0
 40
0.0
 40
0.0
 40
0.0
 40
1.0
 40
1.0
 40
1.0
 40
2.0
 40
2.0
 40
2.0
 40
3.0
 40
3.0
 40
3.0
 40
4.0
 40
4.0
 40
4.0
 40
5.0
 40
5.0
 40
5.0
 40
5.0
 10
102.1808430734131
 20
146.5192219685785
 10
102.1808430734131
 20
146.5240451022579
 10
102.1773979779279
 20
146.5274901977431
 10
102.1727470990228
 20
146.5274901977431
 10
102.168268474892
 20
146.5274901977431
 10
102.1646511246325
 20
146.5240451022579
 10
102.1646511246325
 20
146.5192219685785
 10
102.1646511246325
 20
146.5150878539962
 10
102.168268474892
 20
146.5109537394139
 10
102.1727470990228
 20
146.5109537394139
 10
102.1773979779279
 20
146.5109537394139
 10
102.1808430734131
 20
146.5150878539962
 10
102.1808430734131
 20
146.5192219685785
 10
102.1808430734131
 20
146.5192219685785
 10
102.1808430734131
 20
146.5192219685785
 10
102.1808430734131
 20
146.5192219685785
 97
        0
 75
     0
 76
     1
 98
        0
  0
SPLINE
  5
17F
330
3C
100
AcDbEntity
  8
Capa 1
 62
   250
370
     9
100
AcDbSpline
210
0.0
220
0.0
230
1.0
 70
    27
 71
     3
 72
    11
 73
     7
 74
     0
 42
0.0000000001
 43
0.0000000001
 40
0.0
 40
0.0
 40
0.0
 40
0.0
 40
1.0
 40
1.0
 40
1.0
 40
2.0
 40
2.0
 40
2.0
 40
2.0
 10
102.1727470990228
 20
149.538159142303
 30
0.0
 10
102.1727470990228
 20
149.538159142303
 30
0.0
 10
102.1727470990228
 20
146.111322663125
 30
0.0
 10
102.1727470990228
 20
146.111322663125
 30
0.0
 10
102.1727470990228
 20
146.111322663125
 30
0.0
 10
102.1727470990228
 20
149.538159142303
 30
0.0
 10
102.1727470990228
 20
149.538159142303
 30
0.0
  0
SPLINE
  5
180
330
3C
100
AcDbEntity
  8
Capa 1
 62
   250
370
     9
100
AcDbSpline
210
0.0
220
0.0
230
1.0
 70
    27
 71
     3
 72
    11
 73
     7
 74
     0
 42
0.0000000001
 43
0.0000000001
 40
0.0
 40
0.0
 40
0.0
 40
0.0
 40
1.0
 40
1.0
 40
1.0
 40
2.0
 40
2.0
 40
2.0
 40
2.0
 10
103.0453897854366
 20
149.5774332308348
 30
0.0
 10
103.0453897854366
 20
149.5774332308348
 30
0.0
 10
103.0453897854366
 20
146.111322663125
 30
0.0
 10
103.0453897854366
 20
146.111322663125
 30
0.0
 10
103.0453897854366
 20
146.111322663125
 30
0.0
 10
103.0453897854366
 20
149.5774332308348
 30
0.0
 10
103.0453897854366
 20
149.5774332308348
 30
0.0
  0
MTEXT
  5
181
330
3C
100
AcDbEntity
  8
Capa 1
 62
   250
100
AcDbMText
 10
102.1799817995418
 20
144.6843641131345
 30
0.0
 40
1.156525289829192
 41
0.0
 71
     7
 72
     1
  1
\fArial|b0|i0|c0|p34;\W0.999859;d
 73
     1
 44
1.0
  0
SPLINE
  5
182
330
3C
100
AcDbEntity
  8
Capa 1
 62
   250
370
    13
100
AcDbSpline
210
0.0
220
0.0
230
1.0
 70
    11
 71
     3
 72
    20
 73
    16
 74
     0
 42
0.0000000001
 43
0.0000000001
 40
0.0
 40
0.0
 40
0.0
 40
0.0
 40
1.0
 40
1.0
 40
1.0
 40
2.0
 40
2.0
 40
2.0
 40
3.0
 40
3.0
 40
3.0
 40
4.0
 40
4.0
 40
4.0
 40
5.0
 40
5.0
 40
5.0
 40
5.0
 10
102.1808430734131
 20
150.3503404029506
 30
0.0
 10
102.1808430734131
 20
150.3548190270814
 30
0.0
 10
102.1773979779279
 20
150.358436377341
 30
0.0
 10
102.1727470990228
 20
150.358436377341
 30
0.0
 10
102.168268474892
 20
150.358436377341
 30
0.0
 10
102.1646511246325
 20
150.3548190270814
 30
0.0
 10
102.1646511246325
 20
150.3503404029506
 30
0.0
 10
102.1646511246325
 20
150.3458617788198
 30
0.0
 10
102.168268474892
 20
150.3422444285603
 30
0.0
 10
102.1727470990228
 20
150.3422444285603
 30
0.0
 10
102.1773979779279
 20
150.3422444285603
 30
0.0
 10
102.1808430734131
 20
150.3458617788198
 30
0.0
 10
102.1808430734131
 20
150.3503404029506
 30
0.0
 10
102.1808430734131
 20
150.3503404029506
 30
0.0
 10
102.1808430734131
 20
150.3503404029506
 30
0.0
 10
102.1808430734131
 20
150.3503404029506
 30
0.0
  0
HATCH
  5
183
330
3C
100
AcDbEntity
  8
Capa 1
 62
   250
100
AcDbHatch
 10
0.0
 20
0.0
 30
0.0
210
0.0
220
0.0
230
1.0
  2
SOLID
 70
     1
 71
     0
 91
        1
 92
        1
 93
        1
 72
     4
 94
        3
 73
     0
 74
     1
 95
       20
 96
       16
 40
0.0
 40
0.0
 40
0.0
 40
0.0
 40
1.0
 40
1.0
 40
1.0
 40
2.0
 40
2.0
 40
2.0
 40
3.0
 40
3.0
 40
3.0
 40
4.0
 40
4.0
 40
4.0
 40
5.0
 40
5.0
 40
5.0
 40
5.0
 10
102.1808430734131
 20
150.3503404029506
 10
102.1808430734131
 20
150.3548190270814
 10
102.1773979779279
 20
150.358436377341
 10
102.1727470990228
 20
150.358436377341
 10
102.168268474892
 20
150.358436377341
 10
102.1646511246325
 20
150.3548190270814
 10
102.1646511246325
 20
150.3503404029506
 10
102.1646511246325
 20
150.3458617788198
 10
102.168268474892
 20
150.3422444285603
 10
102.1727470990228
 20
150.3422444285603
 10
102.1773979779279
 20
150.3422444285603
 10
102.1808430734131
 20
150.3458617788198
 10
102.1808430734131
 20
150.3503404029506
 10
102.1808430734131
 20
150.3503404029506
 10
102.1808430734131
 20
150.3503404029506
 10
102.1808430734131
 20
150.3503404029506
 97
        0
 75
     0
 76
     1
 98
        0
  0
SPLINE
  5
184
330
3C
100
AcDbEntity
  8
Capa 1
 62
   250
370
    13
100
AcDbSpline
210
0.0
220
0.0
230
1.0
 70
    11
 71
     3
 72
    20
 73
    16
 74
     0
 42
0.0000000001
 43
0.0000000001
 40
0.0
 40
0.0
 40
0.0
 40
0.0
 40
1.0
 40
1.0
 40
1.0
 40
2.0
 40
2.0
 40
2.0
 40
3.0
 40
3.0
 40
3.0
 40
4.0
 40
4.0
 40
4.0
 40
5.0
 40
5.0
 40
5.0
 40
5.0
 10
103.0534857598269
 20
150.3961601729044
 30
0.0
 10
103.0534857598269
 20
150.4008110518095
 30
0.0
 10
103.0498684095674
 20
150.404428402069
 30
0.0
 10
103.0453897854366
 20
150.404428402069
 30
0.0
 10
103.0409111613057
 20
150.404428402069
 30
0.0
 10
103.0372938110462
 20
150.4008110518095
 30
0.0
 10
103.0372938110462
 20
150.3961601729044
 30
0.0
 10
103.0372938110462
 20
150.3916815487736
 30
0.0
 10
103.0409111613057
 20
150.3878919437398
 30
0.0
 10
103.0453897854366
 20
150.3878919437398
 30
0.0
 10
103.0498684095674
 20
150.3878919437398
 30
0.0
 10
103.0534857598269
 20
150.3916815487736
 30
0.0
 10
103.0534857598269
 20
150.3961601729044
 30
0.0
 10
103.0534857598269
 20
150.3961601729044
 30
0.0
 10
103.0534857598269
 20
150.3961601729044
 30
0.0
 10
103.0534857598269
 20
150.3961601729044
 30
0.0
  0
HATCH
  5
185
330
3C
100
AcDbEntity
  8
Capa 1
 62
   250
100
AcDbHatch
 10
0.0
 20
0.0
 30
0.0
210
0.0
220
0.0
230
1.0
  2
SOLID
 70
     1
 71
     0
 91
        1
 92
        1
 93
        1
 72
     4
 94
        3
 73
     0
 74
     1
 95
       20
 96
       16
 40
0.0
 40
0.0
 40
0.0
 40
0.0
 40
1.0
 40
1.0
 40
1.0
 40
2.0
 40
2.0
 40
2.0
 40
3.0
 40
3.0
 40
3.0
 40
4.0
 40
4.0
 40
4.0
 40
5.0
 40
5.0
 40
5.0
 40
5.0
 10
103.0534857598269
 20
150.3961601729044
 10
103.0534857598269
 20
150.4008110518095
 10
103.0498684095674
 20
150.404428402069
 10
103.0453897854366
 20
150.404428402069
 10
103.0409111613057
 20
150.404428402069
 10
103.0372938110462
 20
150.4008110518095
 10
103.0372938110462
 20
150.3961601729044
 10
103.0372938110462
 20
150.3916815487736
 10
103.0409111613057
 20
150.3878919437398
 10
103.0453897854366
 20
150.3878919437398
 10
103.0498684095674
 20
150.3878919437398
 10
103.0534857598269
 20
150.3916815487736
 10
103.0534857598269
 20
150.3961601729044
 10
103.0534857598269
 20
150.3961601729044
 10
103.0534857598269
 20
150.3961601729044
 10
103.0534857598269
 20
150.3961601729044
 97
        0
 75
     0
 76
     1
 98
        0
  0
SPLINE
  5
186
330
3C
100
AcDbEntity
  8
Capa 1
 62
   250
370
     9
100
AcDbSpline
210
0.0
220
0.0
230
1.0
 70
    11
 71
     3
 72
    20
 73
    16
 74
     0
 42
0.0000000001
 43
0.0000000001
 40
0.0
 40
0.0
 40
0.0
 40
0.0
 40
1.0
 40
1.0
 40
1.0
 40
2.0
 40
2.0
 40
2.0
 40
3.0
 40
3.0
 40
3.0
 40
4.0
 40
4.0
 40
4.0
 40
5.0
 40
5.0
 40
5.0
 40
5.0
 10
103.0534857598269
 20
146.5192219685785
 30
0.0
 10
103.0534857598269
 20
146.5240451022579
 30
0.0
 10
103.0498684095674
 20
146.5274901977431
 30
0.0
 10
103.0453897854366
 20
146.5274901977431
 30
0.0
 10
103.0409111613057
 20
146.5274901977431
 30
0.0
 10
103.0372938110462
 20
146.5240451022579
 30
0.0
 10
103.0372938110462
 20
146.5192219685785
 30
0.0
 10
103.0372938110462
 20
146.5150878539962
 30
0.0
 10
103.0409111613057
 20
146.5109537394139
 30
0.0
 10
103.0453897854366
 20
146.5109537394139
 30
0.0
 10
103.0498684095674
 20
146.5109537394139
 30
0.0
 10
103.0534857598269
 20
146.5150878539962
 30
0.0
 10
103.0534857598269
 20
146.5192219685785
 30
0.0
 10
103.0534857598269
 20
146.5192219685785
 30
0.0
 10
103.0534857598269
 20
146.5192219685785
 30
0.0
 10
103.0534857598269
 20
146.5192219685785
 30
0.0
  0
HATCH
  5
187
330
3C
100
AcDbEntity
  8
Capa 1
 62
   250
100
AcDbHatch
 10
0.0
 20
0.0
 30
0.0
210
0.0
220
0.0
230
1.0
  2
SOLID
 70
     1
 71
     0
 91
        1
 92
        1
 93
        1
 72
     4
 94
        3
 73
     0
 74
     1
 95
       20
 96
       16
 40
0.0
 40
0.0
 40
0.0
 40
0.0
 40
1.0
 40
1.0
 40
1.0
 40
2.0
 40
2.0
 40
2.0
 40
3.0
 40
3.0
 40
3.0
 40
4.0
 40
4.0
 40
4.0
 40
5.0
 40
5.0
 40
5.0
 40
5.0
 10
103.0534857598269
 20
146.5192219685785
 10
103.0534857598269
 20
146.5240451022579
 10
103.0498684095674
 20
146.5274901977431
 10
103.0453897854366
 20
146.5274901977431
 10
103.0409111613057
 20
146.5274901977431
 10
103.0372938110462
 20
146.5240451022579
 10
103.0372938110462
 20
146.5192219685785
 10
103.0372938110462
 20
146.5150878539962
 10
103.0409111613057
 20
146.5109537394139
 10
103.0453897854366
 20
146.5109537394139
 10
103.0498684095674
 20
146.5109537394139
 10
103.0534857598269
 20
146.5150878539962
 10
103.0534857598269
 20
146.5192219685785
 10
103.0534857598269
 20
146.5192219685785
 10
103.0534857598269
 20
146.5192219685785
 10
103.0534857598269
 20
146.5192219685785
 97
        0
 75
     0
 76
     1
 98
        0
  0
SPLINE
  5
188
330
3C
100
AcDbEntity
  8
Capa 1
 62
   250
370
     9
100
AcDbSpline
210
0.0
220
0.0
230
1.0
 70
    27
 71
     3
 72
    11
 73
     7
 74
     0
 42
0.0000000001
 43
0.0000000001
 40
0.0
 40
0.0
 40
0.0
 40
0.0
 40
1.0
 40
1.0
 40
1.0
 40
2.0
 40
2.0
 40
2.0
 40
2.0
 10
95.36403263674927
 20
165.4119533549144
 30
0.0
 10
95.36403263674927
 20
165.4119533549144
 30
0.0
 10
95.36403263674927
 20
167.2542181656517
 30
0.0
 10
95.36403263674927
 20
167.2542181656517
 30
0.0
 10
95.36403263674927
 20
167.2542181656517
 30
0.0
 10
95.36403263674927
 20
165.4119533549144
 30
0.0
 10
95.36403263674927
 20
165.4119533549144
 30
0.0
  0
SPLINE
  5
189
330
3C
100
AcDbEntity
  8
Capa 1
 62
   250
370
     9
100
AcDbSpline
210
0.0
220
0.0
230
1.0
 70
    27
 71
     3
 72
    11
 73
     7
 74
     0
 42
0.0000000001
 43
0.0000000001
 40
0.0
 40
0.0
 40
0.0
 40
0.0
 40
1.0
 40
1.0
 40
1.0
 40
2.0
 40
2.0
 40
2.0
 40
2.0
 10
93.82614201213374
 20
165.0633096918071
 30
0.0
 10
93.82614201213374
 20
165.0633096918071
 30
0.0
 10
93.82614201213374
 20
167.2542181656517
 30
0.0
 10
93.82614201213374
 20
167.2542181656517
 30
0.0
 10
93.82614201213374
 20
167.2542181656517
 30
0.0
 10
93.82614201213374
 20
165.0633096918071
 30
0.0
 10
93.82614201213374
 20
165.0633096918071
 30
0.0
  0
MTEXT
  5
18A
330
3C
100
AcDbEntity
  8
Capa 1
 62
   250
100
AcDbMText
 10
93.45424395450102
 20
167.5212130657586
 30
0.0
 40
1.156525289829192
 41
0.0
 71
     7
 72
     1
  1
\fArial|b0|i0|c0|p34;\W0.999824;13
 73
     1
 44
1.0
  0
SPLINE
  5
18B
330
3C
100
AcDbEntity
  8
Capa 1
 62
   250
370
    13
100
AcDbSpline
210
0.0
220
0.0
230
1.0
 70
    11
 71
     3
 72
    20
 73
    16
 74
     0
 42
0.0000000001
 43
0.0000000001
 40
0.0
 40
0.0
 40
0.0
 40
0.0
 40
1.0
 40
1.0
 40
1.0
 40
2.0
 40
2.0
 40
2.0
 40
3.0
 40
3.0
 40
3.0
 40
4.0
 40
4.0
 40
4.0
 40
5.0
 40
5.0
 40
5.0
 40
5.0
 10
95.37212861113962
 20
164.5556748720555
 30
0.0
 10
95.37212861113962
 20
164.5601534961864
 30
0.0
 10
95.3685112608801
 20
164.5639431012201
 30
0.0
 10
95.36403263674927
 20
164.5639431012201
 30
0.0
 10
95.35955401261845
 20
164.5639431012201
 30
0.0
 10
95.35576440758467
 20
164.5601534961864
 30
0.0
 10
95.35576440758467
 20
164.5556748720555
 30
0.0
 10
95.35576440758467
 20
164.5511962479247
 30
0.0
 10
95.35955401261845
 20
164.5475788976652
 30
0.0
 10
95.36403263674927
 20
164.5475788976652
 30
0.0
 10
95.3685112608801
 20
164.5475788976652
 30
0.0
 10
95.37212861113962
 20
164.5511962479247
 30
0.0
 10
95.37212861113962
 20
164.5556748720555
 30
0.0
 10
95.37212861113962
 20
164.5556748720555
 30
0.0
 10
95.37212861113962
 20
164.5556748720555
 30
0.0
 10
95.37212861113962
 20
164.5556748720555
 30
0.0
  0
HATCH
  5
18C
330
3C
100
AcDbEntity
  8
Capa 1
 62
   250
100
AcDbHatch
 10
0.0
 20
0.0
 30
0.0
210
0.0
220
0.0
230
1.0
  2
SOLID
 70
     1
 71
     0
 91
        1
 92
        1
 93
        1
 72
     4
 94
        3
 73
     0
 74
     1
 95
       20
 96
       16
 40
0.0
 40
0.0
 40
0.0
 40
0.0
 40
1.0
 40
1.0
 40
1.0
 40
2.0
 40
2.0
 40
2.0
 40
3.0
 40
3.0
 40
3.0
 40
4.0
 40
4.0
 40
4.0
 40
5.0
 40
5.0
 40
5.0
 40
5.0
 10
95.37212861113962
 20
164.5556748720555
 10
95.37212861113962
 20
164.5601534961864
 10
95.3685112608801
 20
164.5639431012201
 10
95.36403263674927
 20
164.5639431012201
 10
95.35955401261845
 20
164.5639431012201
 10
95.35576440758467
 20
164.5601534961864
 10
95.35576440758467
 20
164.5556748720555
 10
95.35576440758467
 20
164.5511962479247
 10
95.35955401261845
 20
164.5475788976652
 10
95.36403263674927
 20
164.5475788976652
 10
95.3685112608801
 20
164.5475788976652
 10
95.37212861113962
 20
164.5511962479247
 10
95.37212861113962
 20
164.5556748720555
 10
95.37212861113962
 20
164.5556748720555
 10
95.37212861113962
 20
164.5556748720555
 10
95.37212861113962
 20
164.5556748720555
 97
        0
 75
     0
 76
     1
 98
        0
  0
SPLINE
  5
18D
330
3C
100
AcDbEntity
  8
Capa 1
 62
   250
370
    13
100
AcDbSpline
210
0.0
220
0.0
230
1.0
 70
    11
 71
     3
 72
    20
 73
    16
 74
     0
 42
0.0000000001
 43
0.0000000001
 40
0.0
 40
0.0
 40
0.0
 40
0.0
 40
1.0
 40
1.0
 40
1.0
 40
2.0
 40
2.0
 40
2.0
 40
3.0
 40
3.0
 40
3.0
 40
4.0
 40
4.0
 40
4.0
 40
5.0
 40
5.0
 40
5.0
 40
5.0
 10
93.83423798652409
 20
164.2120265974019
 30
0.0
 10
93.83423798652409
 20
164.216677476307
 30
0.0
 10
93.83062063626457
 20
164.2202948265665
 30
0.0
 10
93.82614201213374
 20
164.2202948265665
 30
0.0
 10
93.82166338800292
 20
164.2202948265665
 30
0.0
 10
93.81787378296914
 20
164.216677476307
 30
0.0
 10
93.81787378296914
 20
164.2120265974019
 30
0.0
 10
93.81787378296914
 20
164.207547973271
 30
0.0
 10
93.82166338800292
 20
164.2039306230115
 30
0.0
 10
93.82614201213374
 20
164.2039306230115
 30
0.0
 10
93.83062063626457
 20
164.2039306230115
 30
0.0
 10
93.83423798652409
 20
164.207547973271
 30
0.0
 10
93.83423798652409
 20
164.2120265974019
 30
0.0
 10
93.83423798652409
 20
164.2120265974019
 30
0.0
 10
93.83423798652409
 20
164.2120265974019
 30
0.0
 10
93.83423798652409
 20
164.2120265974019
 30
0.0
  0
HATCH
  5
18E
330
3C
100
AcDbEntity
  8
Capa 1
 62
   250
100
AcDbHatch
 10
0.0
 20
0.0
 30
0.0
210
0.0
220
0.0
230
1.0
  2
SOLID
 70
     1
 71
     0
 91
        1
 92
        1
 93
        1
 72
     4
 94
        3
 73
     0
 74
     1
 95
       20
 96
       16
 40
0.0
 40
0.0
 40
0.0
 40
0.0
 40
1.0
 40
1.0
 40
1.0
 40
2.0
 40
2.0
 40
2.0
 40
3.0
 40
3.0
 40
3.0
 40
4.0
 40
4.0
 40
4.0
 40
5.0
 40
5.0
 40
5.0
 40
5.0
 10
93.83423798652409
 20
164.2120265974019
 10
93.83423798652409
 20
164.216677476307
 10
93.83062063626457
 20
164.2202948265665
 10
93.82614201213374
 20
164.2202948265665
 10
93.82166338800292
 20
164.2202948265665
 10
93.81787378296914
 20
164.216677476307
 10
93.81787378296914
 20
164.2120265974019
 10
93.81787378296914
 20
164.207547973271
 10
93.82166338800292
 20
164.2039306230115
 10
93.82614201213374
 20
164.2039306230115
 10
93.83062063626457
 20
164.2039306230115
 10
93.83423798652409
 20
164.207547973271
 10
93.83423798652409
 20
164.2120265974019
 10
93.83423798652409
 20
164.2120265974019
 10
93.83423798652409
 20
164.2120265974019
 10
93.83423798652409
 20
164.2120265974019
 97
        0
 75
     0
 76
     1
 98
        0
  0
SPLINE
  5
190
330
3C
100
AcDbEntity
  8
Capa 1
 62
   250
370
    13
100
AcDbSpline
210
0.0
220
0.0
230
1.0
 70
    27
 71
     3
 72
    11
 73
     7
 74
     0
 42
0.0000000001
 43
0.0000000001
 40
0.0
 40
0.0
 40
0.0
 40
0.0
 40
1.0
 40
1.0
 40
1.0
 40
2.0
 40
2.0
 40
2.0
 40
2.0
 10
118.4292914200455
 20
150.5151882219198
 30
0.0
 10
118.4292914200455
 20
150.5151882219198
 30
0.0
 10
114.6265950234267
 20
150.5151882219198
 30
0.0
 10
114.6265950234267
 20
150.5151882219198
 30
0.0
 10
114.6265950234267
 20
150.5151882219198
 30
0.0
 10
118.4292914200455
 20
150.5151882219198
 30
0.0
 10
118.4292914200455
 20
150.5151882219198
 30
0.0
  0
SPLINE
  5
192
330
3C
100
AcDbEntity
  8
Capa 1
 62
   250
370
    13
100
AcDbSpline
210
0.0
220
0.0
230
1.0
 70
    27
 71
     3
 72
    11
 73
     7
 74
     0
 42
0.0000000001
 43
0.0000000001
 40
0.0
 40
0.0
 40
0.0
 40
0.0
 40
1.0
 40
1.0
 40
1.0
 40
2.0
 40
2.0
 40
2.0
 40
2.0
 10
118.1302571319258
 20
152.13489986431
 30
0.0
 10
118.1302571319258
 20
152.13489986431
 30
0.0
 10
114.6265950234267
 20
152.13489986431
 30
0.0
 10
114.6265950234267
 20
152.13489986431
 30
0.0
 10
114.6265950234267
 20
152.13489986431
 30
0.0
 10
118.1302571319258
 20
152.13489986431
 30
0.0
 10
118.1302571319258
 20
152.13489986431
 30
0.0
  0
SPLINE
  5
194
330
3C
100
AcDbEntity
  8
Capa 1
 62
   250
370
    13
100
AcDbSpline
210
0.0
220
0.0
230
1.0
 70
    27
 71
     3
 72
    11
 73
     7
 74
     0
 42
0.0000000001
 43
0.0000000001
 40
0.0
 40
0.0
 40
0.0
 40
0.0
 40
1.0
 40
1.0
 40
1.0
 40
2.0
 40
2.0
 40
2.0
 40
2.0
 10
114.0877820895336
 20
150.8779567765166
 30
0.0
 10
114.0877820895336
 20
150.8779567765166
 30
0.0
 10
114.5859428967007
 20
150.8779567765166
 30
0.0
 10
114.5859428967007
 20
150.8779567765166
 30
0.0
 10
114.5859428967007
 20
150.8779567765166
 30
0.0
 10
114.0877820895336
 20
150.8779567765166
 30
0.0
 10
114.0877820895336
 20
150.8779567765166
 30
0.0
  0
SPLINE
  5
196
330
3C
100
AcDbEntity
  8
Capa 1
 62
   250
370
    13
100
AcDbSpline
210
0.0
220
0.0
230
1.0
 70
    27
 71
     3
 72
    11
 73
     7
 74
     0
 42
0.0000000001
 43
0.0000000001
 40
0.0
 40
0.0
 40
0.0
 40
0.0
 40
1.0
 40
1.0
 40
1.0
 40
2.0
 40
2.0
 40
2.0
 40
2.0
 10
114.0877820895336
 20
151.2166096627167
 30
0.0
 10
114.0877820895336
 20
151.2166096627167
 30
0.0
 10
114.5859428967007
 20
151.2166096627167
 30
0.0
 10
114.5859428967007
 20
151.2166096627167
 30
0.0
 10
114.5859428967007
 20
151.2166096627167
 30
0.0
 10
114.0877820895336
 20
151.2166096627167
 30
0.0
 10
114.0877820895336
 20
151.2166096627167
 30
0.0
  0
SPLINE
  5
198
330
3C
100
AcDbEntity
  8
Capa 1
 62
   250
370
    13
100
AcDbSpline
210
0.0
220
0.0
230
1.0
 70
    27
 71
     3
 72
    11
 73
     7
 74
     0
 42
0.0000000001
 43
0.0000000001
 40
0.0
 40
0.0
 40
0.0
 40
0.0
 40
1.0
 40
1.0
 40
1.0
 40
2.0
 40
2.0
 40
2.0
 40
2.0
 10
114.0877820895336
 20
151.0314357803845
 30
0.0
 10
114.0877820895336
 20
151.0314357803845
 30
0.0
 10
114.5859428967007
 20
151.0314357803845
 30
0.0
 10
114.5859428967007
 20
151.0314357803845
 30
0.0
 10
114.5859428967007
 20
151.0314357803845
 30
0.0
 10
114.0877820895336
 20
151.0314357803845
 30
0.0
 10
114.0877820895336
 20
151.0314357803845
 30
0.0
  0
SPLINE
  5
19A
330
3C
100
AcDbEntity
  8
Capa 1
 62
   250
370
    13
100
AcDbSpline
210
0.0
220
0.0
230
1.0
 70
    27
 71
     3
 72
    11
 73
     7
 74
     0
 42
0.0000000001
 43
0.0000000001
 40
0.0
 40
0.0
 40
0.0
 40
0.0
 40
1.0
 40
1.0
 40
1.0
 40
2.0
 40
2.0
 40
2.0
 40
2.0
 10
114.0877820895336
 20
151.7042629286538
 30
0.0
 10
114.0877820895336
 20
151.7042629286538
 30
0.0
 10
114.5859428967007
 20
151.7042629286538
 30
0.0
 10
114.5859428967007
 20
151.7042629286538
 30
0.0
 10
114.5859428967007
 20
151.7042629286538
 30
0.0
 10
114.0877820895336
 20
151.7042629286538
 30
0.0
 10
114.0877820895336
 20
151.7042629286538
 30
0.0
  0
SPLINE
  5
19C
330
3C
100
AcDbEntity
  8
Capa 1
 62
   250
370
    13
100
AcDbSpline
210
0.0
220
0.0
230
1.0
 70
    27
 71
     3
 72
    11
 73
     7
 74
     0
 42
0.0000000001
 43
0.0000000001
 40
0.0
 40
0.0
 40
0.0
 40
0.0
 40
1.0
 40
1.0
 40
1.0
 40
2.0
 40
2.0
 40
2.0
 40
2.0
 10
114.0877820895336
 20
151.5189167915474
 30
0.0
 10
114.0877820895336
 20
151.5189167915474
 30
0.0
 10
114.5859428967007
 20
151.5189167915474
 30
0.0
 10
114.5859428967007
 20
151.5189167915474
 30
0.0
 10
114.5859428967007
 20
151.5189167915474
 30
0.0
 10
114.0877820895336
 20
151.5189167915474
 30
0.0
 10
114.0877820895336
 20
151.5189167915474
 30
0.0
  0
SPLINE
  5
19E
330
3C
100
AcDbEntity
  8
Capa 1
 62
   250
370
    13
100
AcDbSpline
210
0.0
220
0.0
230
1.0
 70
    27
 71
     3
 72
    11
 73
     7
 74
     0
 42
0.0000000001
 43
0.0000000001
 40
0.0
 40
0.0
 40
0.0
 40
0.0
 40
1.0
 40
1.0
 40
1.0
 40
2.0
 40
2.0
 40
2.0
 40
2.0
 10
114.0877820895336
 20
151.8577419325217
 30
0.0
 10
114.0877820895336
 20
151.8577419325217
 30
0.0
 10
114.5859428967007
 20
151.8577419325217
 30
0.0
 10
114.5859428967007
 20
151.8577419325217
 30
0.0
 10
114.5859428967007
 20
151.8577419325217
 30
0.0
 10
114.0877820895336
 20
151.8577419325217
 30
0.0
 10
114.0877820895336
 20
151.8577419325217
 30
0.0
  0
SPLINE
  5
1A0
330
3C
100
AcDbEntity
  8
Capa 1
 62
   250
370
    13
100
AcDbSpline
210
0.0
220
0.0
230
1.0
 70
    27
 71
     3
 72
    11
 73
     7
 74
     0
 42
0.0000000001
 43
0.0000000001
 40
0.0
 40
0.0
 40
0.0
 40
0.0
 40
1.0
 40
1.0
 40
1.0
 40
2.0
 40
2.0
 40
2.0
 40
2.0
 10
114.0181911607316
 20
150.8002698733243
 30
0.0
 10
114.0181911607316
 20
150.8002698733243
 30
0.0
 10
114.6265950234267
 20
150.8002698733243
 30
0.0
 10
114.6265950234267
 20
150.8002698733243
 30
0.0
 10
114.6265950234267
 20
150.8002698733243
 30
0.0
 10
114.0181911607316
 20
150.8002698733243
 30
0.0
 10
114.0181911607316
 20
150.8002698733243
 30
0.0
  0
SPLINE
  5
1A2
330
3C
100
AcDbEntity
  8
Capa 1
 62
   250
370
    13
100
AcDbSpline
210
0.0
220
0.0
230
1.0
 70
    27
 71
     3
 72
    11
 73
     7
 74
     0
 42
0.0000000001
 43
0.0000000001
 40
0.0
 40
0.0
 40
0.0
 40
0.0
 40
1.0
 40
1.0
 40
1.0
 40
2.0
 40
2.0
 40
2.0
 40
2.0
 10
114.0181911607316
 20
151.9350843261655
 30
0.0
 10
114.0181911607316
 20
151.9350843261655
 30
0.0
 10
114.6265950234267
 20
151.9350843261655
 30
0.0
 10
114.6265950234267
 20
151.9350843261655
 30
0.0
 10
114.6265950234267
 20
151.9350843261655
 30
0.0
 10
114.0181911607316
 20
151.9350843261655
 30
0.0
 10
114.0181911607316
 20
151.9350843261655
 30
0.0
  0
SPLINE
  5
1A4
330
3C
100
AcDbEntity
  8
Capa 1
 62
   250
370
    13
100
AcDbSpline
210
0.0
220
0.0
230
1.0
 70
    27
 71
     3
 72
    11
 73
     7
 74
     0
 42
0.0000000001
 43
0.0000000001
 40
0.0
 40
0.0
 40
0.0
 40
0.0
 40
1.0
 40
1.0
 40
1.0
 40
2.0
 40
2.0
 40
2.0
 40
2.0
 10
114.0181911607316
 20
151.9350843261655
 30
0.0
 10
114.0181911607316
 20
151.9350843261655
 30
0.0
 10
114.0181911607316
 20
150.8002698733243
 30
0.0
 10
114.0181911607316
 20
150.8002698733243
 30
0.0
 10
114.0181911607316
 20
150.8002698733243
 30
0.0
 10
114.0181911607316
 20
151.9350843261655
 30
0.0
 10
114.0181911607316
 20
151.9350843261655
 30
0.0
  0
SPLINE
  5
1A6
330
3C
100
AcDbEntity
  8
Capa 1
 62
   250
370
    13
100
AcDbSpline
210
0.0
220
0.0
230
1.0
 70
    27
 71
     3
 72
    11
 73
     7
 74
     0
 42
0.0000000001
 43
0.0000000001
 40
0.0
 40
0.0
 40
0.0
 40
0.0
 40
1.0
 40
1.0
 40
1.0
 40
2.0
 40
2.0
 40
2.0
 40
2.0
 10
114.0181911607316
 20
151.5495781413661
 30
0.0
 10
114.0181911607316
 20
151.5495781413661
 30
0.0
 10
113.7529188083673
 20
151.5495781413661
 30
0.0
 10
113.7529188083673
 20
151.5495781413661
 30
0.0
 10
113.7529188083673
 20
151.5495781413661
 30
0.0
 10
114.0181911607316
 20
151.5495781413661
 30
0.0
 10
114.0181911607316
 20
151.5495781413661
 30
0.0
  0
SPLINE
  5
1A8
330
3C
100
AcDbEntity
  8
Capa 1
 62
   250
370
    13
100
AcDbSpline
210
0.0
220
0.0
230
1.0
 70
    27
 71
     3
 72
    11
 73
     7
 74
     0
 42
0.0000000001
 43
0.0000000001
 40
0.0
 40
0.0
 40
0.0
 40
0.0
 40
1.0
 40
1.0
 40
1.0
 40
2.0
 40
2.0
 40
2.0
 40
2.0
 10
114.0181911607316
 20
151.185948312898
 30
0.0
 10
114.0181911607316
 20
151.185948312898
 30
0.0
 10
113.7529188083673
 20
151.185948312898
 30
0.0
 10
113.7529188083673
 20
151.185948312898
 30
0.0
 10
113.7529188083673
 20
151.185948312898
 30
0.0
 10
114.0181911607316
 20
151.185948312898
 30
0.0
 10
114.0181911607316
 20
151.185948312898
 30
0.0
  0
SPLINE
  5
1AA
330
3C
100
AcDbEntity
  8
Capa 1
 62
   250
370
    13
100
AcDbSpline
210
0.0
220
0.0
230
1.0
 70
    27
 71
     3
 72
    11
 73
     7
 74
     0
 42
0.0000000001
 43
0.0000000001
 40
0.0
 40
0.0
 40
0.0
 40
0.0
 40
1.0
 40
1.0
 40
1.0
 40
2.0
 40
2.0
 40
2.0
 40
2.0
 10
113.7529188083673
 20
151.5495781413661
 30
0.0
 10
113.7529188083673
 20
151.5495781413661
 30
0.0
 10
113.7529188083673
 20
151.185948312898
 30
0.0
 10
113.7529188083673
 20
151.185948312898
 30
0.0
 10
113.7529188083673
 20
151.185948312898
 30
0.0
 10
113.7529188083673
 20
151.5495781413661
 30
0.0
 10
113.7529188083673
 20
151.5495781413661
 30
0.0
  0
SPLINE
  5
1AC
330
3C
100
AcDbEntity
  8
Capa 1
 62
   250
370
    13
100
AcDbSpline
210
0.0
220
0.0
230
1.0
 70
    27
 71
     3
 72
    11
 73
     7
 74
     0
 42
0.0000000001
 43
0.0000000001
 40
0.0
 40
0.0
 40
0.0
 40
0.0
 40
1.0
 40
1.0
 40
1.0
 40
2.0
 40
2.0
 40
2.0
 40
2.0
 10
114.6265950234267
 20
152.13489986431
 30
0.0
 10
114.6265950234267
 20
152.13489986431
 30
0.0
 10
114.6265950234267
 20
150.5151882219198
 30
0.0
 10
114.6265950234267
 20
150.5151882219198
 30
0.0
 10
114.6265950234267
 20
150.5151882219198
 30
0.0
 10
114.6265950234267
 20
152.13489986431
 30
0.0
 10
114.6265950234267
 20
152.13489986431
 30
0.0
  0
SPLINE
  5
1AE
330
3C
100
AcDbEntity
  8
Capa 1
 62
   250
370
    13
100
AcDbSpline
210
0.0
220
0.0
230
1.0
 70
    27
 71
     3
 72
    11
 73
     7
 74
     0
 42
0.0000000001
 43
0.0000000001
 40
0.0
 40
0.0
 40
0.0
 40
0.0
 40
1.0
 40
1.0
 40
1.0
 40
2.0
 40
2.0
 40
2.0
 40
2.0
 10
115.2956325666622
 20
153.1444850962625
 30
0.0
 10
115.2956325666622
 20
153.1444850962625
 30
0.0
 10
112.2246744511105
 20
153.0934976830808
 30
0.0
 10
112.2246744511105
 20
153.0934976830808
 30
0.0
 10
112.2246744511105
 20
153.0934976830808
 30
0.0
 10
115.2956325666622
 20
153.1444850962625
 30
0.0
 10
115.2956325666622
 20
153.1444850962625
 30
0.0
  0
SPLINE
  5
1AF
330
3C
100
AcDbEntity
  8
Capa 1
 62
   250
370
    13
100
AcDbSpline
210
0.0
220
0.0
230
1.0
 70
    27
 71
     3
 72
    11
 73
     7
 74
     0
 42
0.0000000001
 43
0.0000000001
 40
0.0
 40
0.0
 40
0.0
 40
0.0
 40
1.0
 40
1.0
 40
1.0
 40
2.0
 40
2.0
 40
2.0
 40
2.0
 10
115.2956325666622
 20
162.296553507603
 30
0.0
 10
115.2956325666622
 20
162.296553507603
 30
0.0
 10
112.2246744511105
 20
162.3475409207846
 30
0.0
 10
112.2246744511105
 20
162.3475409207846
 30
0.0
 10
112.2246744511105
 20
162.3475409207846
 30
0.0
 10
115.2956325666622
 20
162.296553507603
 30
0.0
 10
115.2956325666622
 20
162.296553507603
 30
0.0
  0
SPLINE
  5
1B0
330
3C
100
AcDbEntity
  8
Capa 1
 62
   250
370
    13
100
AcDbSpline
210
0.0
220
0.0
230
1.0
 70
    27
 71
     3
 72
    11
 73
     7
 74
     0
 42
0.0000000001
 43
0.0000000001
 40
0.0
 40
0.0
 40
0.0
 40
0.0
 40
1.0
 40
1.0
 40
1.0
 40
2.0
 40
2.0
 40
2.0
 40
2.0
 10
115.2956325666622
 20
154.0352145339738
 30
0.0
 10
115.2956325666622
 20
154.0352145339738
 30
0.0
 10
113.7598089993378
 20
154.1156575135544
 30
0.0
 10
113.7598089993378
 20
154.1156575135544
 30
0.0
 10
113.7598089993378
 20
154.1156575135544
 30
0.0
 10
115.2956325666622
 20
154.0352145339738
 30
0.0
 10
115.2956325666622
 20
154.0352145339738
 30
0.0
  0
SPLINE
  5
1B2
330
3C
100
AcDbEntity
  8
Capa 1
 62
   250
370
    13
100
AcDbSpline
210
0.0
220
0.0
230
1.0
 70
    27
 71
     3
 72
    11
 73
     7
 74
     0
 42
0.0000000001
 43
0.0000000001
 40
0.0
 40
0.0
 40
0.0
 40
0.0
 40
1.0
 40
1.0
 40
1.0
 40
2.0
 40
2.0
 40
2.0
 40
2.0
 10
115.2956325666622
 20
157.1063449042998
 30
0.0
 10
115.2956325666622
 20
157.1063449042998
 30
0.0
 10
113.7598089993378
 20
157.0259019247192
 30
0.0
 10
113.7598089993378
 20
157.0259019247192
 30
0.0
 10
113.7598089993378
 20
157.0259019247192
 30
0.0
 10
115.2956325666622
 20
157.1063449042998
 30
0.0
 10
115.2956325666622
 20
157.1063449042998
 30
0.0
  0
SPLINE
  5
1B3
330
3C
100
AcDbEntity
  8
Capa 1
 62
   250
370
    13
100
AcDbSpline
210
0.0
220
0.0
230
1.0
 70
     8
 71
     3
 72
     8
 73
     4
 74
     0
 42
0.0000000001
 43
0.0000000001
 40
0.0
 40
0.0
 40
0.0
 40
0.0
 40
1.0
 40
1.0
 40
1.0
 40
1.0
 10
112.2246744511105
 20
151.2083414335521
 30
0.0
 10
112.2246744511105
 20
151.0858682890515
 30
0.0
 10
112.3204481056004
 20
150.9847547365594
 30
0.0
 10
112.4424044857783
 20
150.9785535646859
 30
0.0
  0
SPLINE
  5
1B4
330
3C
100
AcDbEntity
  8
Capa 1
 62
   250
370
    13
100
AcDbSpline
210
0.0
220
0.0
230
1.0
 70
    27
 71
     3
 72
    11
 73
     7
 74
     0
 42
0.0000000001
 43
0.0000000001
 40
0.0
 40
0.0
 40
0.0
 40
0.0
 40
1.0
 40
1.0
 40
1.0
 40
2.0
 40
2.0
 40
2.0
 40
2.0
 10
114.0181911607316
 20
150.8958712730399
 30
0.0
 10
114.0181911607316
 20
150.8958712730399
 30
0.0
 10
112.4424044857783
 20
150.9785535646859
 30
0.0
 10
112.4424044857783
 20
150.9785535646859
 30
0.0
 10
112.4424044857783
 20
150.9785535646859
 30
0.0
 10
114.0181911607316
 20
150.8958712730399
 30
0.0
 10
114.0181911607316
 20
150.8958712730399
 30
0.0
  0
SPLINE
  5
1B6
330
3C
100
AcDbEntity
  8
Capa 1
 62
   250
370
    13
100
AcDbSpline
210
0.0
220
0.0
230
1.0
 70
    27
 71
     3
 72
    11
 73
     7
 74
     0
 42
0.0000000001
 43
0.0000000001
 40
0.0
 40
0.0
 40
0.0
 40
0.0
 40
1.0
 40
1.0
 40
1.0
 40
2.0
 40
2.0
 40
2.0
 40
2.0
 10
112.2246744511105
 20
151.2083414335521
 30
0.0
 10
112.2246744511105
 20
151.2083414335521
 30
0.0
 10
112.2246744511105
 20
157.7206054293198
 30
0.0
 10
112.2246744511105
 20
157.7206054293198
 30
0.0
 10
112.2246744511105
 20
157.7206054293198
 30
0.0
 10
112.2246744511105
 20
151.2083414335521
 30
0.0
 10
112.2246744511105
 20
151.2083414335521
 30
0.0
  0
SPLINE
  5
1B8
330
3C
100
AcDbEntity
  8
Capa 1
 62
   250
370
    13
100
AcDbSpline
210
0.0
220
0.0
230
1.0
 70
    27
 71
     3
 72
    11
 73
     7
 74
     0
 42
0.0000000001
 43
0.0000000001
 40
0.0
 40
0.0
 40
0.0
 40
0.0
 40
1.0
 40
1.0
 40
1.0
 40
2.0
 40
2.0
 40
2.0
 40
2.0
 10
113.7598089993378
 20
154.1156575135544
 30
0.0
 10
113.7598089993378
 20
154.1156575135544
 30
0.0
 10
113.7598089993378
 20
157.7206054293198
 30
0.0
 10
113.7598089993378
 20
157.7206054293198
 30
0.0
 10
113.7598089993378
 20
157.7206054293198
 30
0.0
 10
113.7598089993378
 20
154.1156575135544
 30
0.0
 10
113.7598089993378
 20
154.1156575135544
 30
0.0
  0
SPLINE
  5
1B9
330
3C
100
AcDbEntity
  8
Capa 1
 62
   250
370
    13
100
AcDbSpline
210
0.0
220
0.0
230
1.0
 70
    27
 71
     3
 72
    11
 73
     7
 74
     0
 42
0.0000000001
 43
0.0000000001
 40
0.0
 40
0.0
 40
0.0
 40
0.0
 40
1.0
 40
1.0
 40
1.0
 40
2.0
 40
2.0
 40
2.0
 40
2.0
 10
115.2956325666622
 20
158.3346936995656
 30
0.0
 10
115.2956325666622
 20
158.3346936995656
 30
0.0
 10
113.7598089993378
 20
158.4151366791462
 30
0.0
 10
113.7598089993378
 20
158.4151366791462
 30
0.0
 10
113.7598089993378
 20
158.4151366791462
 30
0.0
 10
115.2956325666622
 20
158.3346936995656
 30
0.0
 10
115.2956325666622
 20
158.3346936995656
 30
0.0
  0
SPLINE
  5
1BA
330
3C
100
AcDbEntity
  8
Capa 1
 62
   250
370
    13
100
AcDbSpline
210
0.0
220
0.0
230
1.0
 70
     8
 71
     3
 72
     8
 73
     4
 74
     0
 42
0.0000000001
 43
0.0000000001
 40
0.0
 40
0.0
 40
0.0
 40
0.0
 40
1.0
 40
1.0
 40
1.0
 40
1.0
 10
112.4424044857783
 20
164.4626572939538
 30
0.0
 10
112.3204481056004
 20
164.4562838673061
 30
0.0
 10
112.2246744511105
 20
164.355170314814
 30
0.0
 10
112.2246744511105
 20
164.2326971703134
 30
0.0
  0
SPLINE
  5
1BC
330
3C
100
AcDbEntity
  8
Capa 1
 62
   250
370
    13
100
AcDbSpline
210
0.0
220
0.0
230
1.0
 70
    27
 71
     3
 72
    11
 73
     7
 74
     0
 42
0.0000000001
 43
0.0000000001
 40
0.0
 40
0.0
 40
0.0
 40
0.0
 40
1.0
 40
1.0
 40
1.0
 40
2.0
 40
2.0
 40
2.0
 40
2.0
 10
115.2956325666622
 20
161.4059963246659
 30
0.0
 10
115.2956325666622
 20
161.4059963246659
 30
0.0
 10
113.7598089993378
 20
161.3255533450853
 30
0.0
 10
113.7598089993378
 20
161.3255533450853
 30
0.0
 10
113.7598089993378
 20
161.3255533450853
 30
0.0
 10
115.2956325666622
 20
161.4059963246659
 30
0.0
 10
115.2956325666622
 20
161.4059963246659
 30
0.0
  0
SPLINE
  5
1BE
330
3C
100
AcDbEntity
  8
Capa 1
 62
   250
370
    13
100
AcDbSpline
210
0.0
220
0.0
230
1.0
 70
    27
 71
     3
 72
    11
 73
     7
 74
     0
 42
0.0000000001
 43
0.0000000001
 40
0.0
 40
0.0
 40
0.0
 40
0.0
 40
1.0
 40
1.0
 40
1.0
 40
2.0
 40
2.0
 40
2.0
 40
2.0
 10
115.2956325666622
 20
164.6121744380136
 30
0.0
 10
115.2956325666622
 20
164.6121744380136
 30
0.0
 10
112.4424044857783
 20
164.4626572939538
 30
0.0
 10
112.4424044857783
 20
164.4626572939538
 30
0.0
 10
112.4424044857783
 20
164.4626572939538
 30
0.0
 10
115.2956325666622
 20
164.6121744380136
 30
0.0
 10
115.2956325666622
 20
164.6121744380136
 30
0.0
  0
SPLINE
  5
1C0
330
3C
100
AcDbEntity
  8
Capa 1
 62
   250
370
    13
100
AcDbSpline
210
0.0
220
0.0
230
1.0
 70
    27
 71
     3
 72
    11
 73
     7
 74
     0
 42
0.0000000001
 43
0.0000000001
 40
0.0
 40
0.0
 40
0.0
 40
0.0
 40
1.0
 40
1.0
 40
1.0
 40
2.0
 40
2.0
 40
2.0
 40
2.0
 10
115.2956325666622
 20
164.4462930903989
 30
0.0
 10
115.2956325666622
 20
164.4462930903989
 30
0.0
 10
115.2956325666622
 20
164.6121744380136
 30
0.0
 10
115.2956325666622
 20
164.6121744380136
 30
0.0
 10
115.2956325666622
 20
164.6121744380136
 30
0.0
 10
115.2956325666622
 20
164.4462930903989
 30
0.0
 10
115.2956325666622
 20
164.4462930903989
 30
0.0
  0
SPLINE
  5
1C2
330
3C
100
AcDbEntity
  8
Capa 1
 62
   250
370
    13
100
AcDbSpline
210
0.0
220
0.0
230
1.0
 70
    27
 71
     3
 72
    11
 73
     7
 74
     0
 42
0.0000000001
 43
0.0000000001
 40
0.0
 40
0.0
 40
0.0
 40
0.0
 40
1.0
 40
1.0
 40
1.0
 40
2.0
 40
2.0
 40
2.0
 40
2.0
 10
113.7598089993378
 20
161.3255533450853
 30
0.0
 10
113.7598089993378
 20
161.3255533450853
 30
0.0
 10
113.7598089993378
 20
157.7206054293198
 30
0.0
 10
113.7598089993378
 20
157.7206054293198
 30
0.0
 10
113.7598089993378
 20
157.7206054293198
 30
0.0
 10
113.7598089993378
 20
161.3255533450853
 30
0.0
 10
113.7598089993378
 20
161.3255533450853
 30
0.0
  0
SPLINE
  5
1C4
330
3C
100
AcDbEntity
  8
Capa 1
 62
   250
370
    13
100
AcDbSpline
210
0.0
220
0.0
230
1.0
 70
    27
 71
     3
 72
    11
 73
     7
 74
     0
 42
0.0000000001
 43
0.0000000001
 40
0.0
 40
0.0
 40
0.0
 40
0.0
 40
1.0
 40
1.0
 40
1.0
 40
2.0
 40
2.0
 40
2.0
 40
2.0
 10
112.2246744511105
 20
164.2326971703134
 30
0.0
 10
112.2246744511105
 20
164.2326971703134
 30
0.0
 10
112.2246744511105
 20
157.7206054293198
 30
0.0
 10
112.2246744511105
 20
157.7206054293198
 30
0.0
 10
112.2246744511105
 20
157.7206054293198
 30
0.0
 10
112.2246744511105
 20
164.2326971703134
 30
0.0
 10
112.2246744511105
 20
164.2326971703134
 30
0.0
  0
SPLINE
  5
1C6
330
3C
100
AcDbEntity
  8
Capa 1
 62
   250
370
    13
100
AcDbSpline
210
0.0
220
0.0
230
1.0
 70
    27
 71
     3
 72
    11
 73
     7
 74
     0
 42
0.0000000001
 43
0.0000000001
 40
0.0
 40
0.0
 40
0.0
 40
0.0
 40
1.0
 40
1.0
 40
1.0
 40
2.0
 40
2.0
 40
2.0
 40
2.0
 10
115.2956325666622
 20
157.7206054293198
 30
0.0
 10
115.2956325666622
 20
157.7206054293198
 30
0.0
 10
115.2956325666622
 20
152.13489986431
 30
0.0
 10
115.2956325666622
 20
152.13489986431
 30
0.0
 10
115.2956325666622
 20
152.13489986431
 30
0.0
 10
115.2956325666622
 20
157.7206054293198
 30
0.0
 10
115.2956325666622
 20
157.7206054293198
 30
0.0
  0
SPLINE
  5
1C8
330
3C
100
AcDbEntity
  8
Capa 1
 62
   250
370
    13
100
AcDbSpline
210
0.0
220
0.0
230
1.0
 70
    27
 71
     3
 72
    11
 73
     7
 74
     0
 42
0.0000000001
 43
0.0000000001
 40
0.0
 40
0.0
 40
0.0
 40
0.0
 40
1.0
 40
1.0
 40
1.0
 40
2.0
 40
2.0
 40
2.0
 40
2.0
 10
116.0631998407759
 20
157.7206054293198
 30
0.0
 10
116.0631998407759
 20
157.7206054293198
 30
0.0
 10
116.0631998407759
 20
152.13489986431
 30
0.0
 10
116.0631998407759
 20
152.13489986431
 30
0.0
 10
116.0631998407759
 20
152.13489986431
 30
0.0
 10
116.0631998407759
 20
157.7206054293198
 30
0.0
 10
116.0631998407759
 20
157.7206054293198
 30
0.0
  0
SPLINE
  5
1C9
330
3C
100
AcDbEntity
  8
Capa 1
 62
   250
370
    13
100
AcDbSpline
210
0.0
220
0.0
230
1.0
 70
     8
 71
     3
 72
    11
 73
     7
 74
     0
 42
0.0000000001
 43
0.0000000001
 40
0.0
 40
0.0
 40
0.0
 40
0.0
 40
1.0
 40
1.0
 40
1.0
 40
2.0
 40
2.0
 40
2.0
 40
2.0
 10
115.4492838253043
 20
164.599944349041
 30
0.0
 10
115.4086316985784
 20
164.599944349041
 30
0.0
 10
115.3693576100465
 20
164.5837524002603
 30
0.0
 10
115.3404188079705
 20
164.5548135981842
 30
0.0
 10
115.3114800058944
 20
164.5262193056566
 30
0.0
 10
115.2956325666622
 20
164.4871174718991
 30
0.0
 10
115.2956325666622
 20
164.4462930903989
 30
0.0
  0
SPLINE
  5
1CB
330
3C
100
AcDbEntity
  8
Capa 1
 62
   250
370
    13
100
AcDbSpline
210
0.0
220
0.0
230
1.0
 70
    27
 71
     3
 72
    11
 73
     7
 74
     0
 42
0.0000000001
 43
0.0000000001
 40
0.0
 40
0.0
 40
0.0
 40
0.0
 40
1.0
 40
1.0
 40
1.0
 40
2.0
 40
2.0
 40
2.0
 40
2.0
 10
116.0631998407759
 20
164.5537800695386
 30
0.0
 10
116.0631998407759
 20
164.5537800695386
 30
0.0
 10
116.0631998407759
 20
157.7206054293198
 30
0.0
 10
116.0631998407759
 20
157.7206054293198
 30
0.0
 10
116.0631998407759
 20
157.7206054293198
 30
0.0
 10
116.0631998407759
 20
164.5537800695386
 30
0.0
 10
116.0631998407759
 20
164.5537800695386
 30
0.0
  0
SPLINE
  5
1CD
330
3C
100
AcDbEntity
  8
Capa 1
 62
   250
370
    13
100
AcDbSpline
210
0.0
220
0.0
230
1.0
 70
    27
 71
     3
 72
    11
 73
     7
 74
     0
 42
0.0000000001
 43
0.0000000001
 40
0.0
 40
0.0
 40
0.0
 40
0.0
 40
1.0
 40
1.0
 40
1.0
 40
2.0
 40
2.0
 40
2.0
 40
2.0
 10
115.2956325666622
 20
164.4462930903989
 30
0.0
 10
115.2956325666622
 20
164.4462930903989
 30
0.0
 10
115.2956325666622
 20
157.7206054293198
 30
0.0
 10
115.2956325666622
 20
157.7206054293198
 30
0.0
 10
115.2956325666622
 20
157.7206054293198
 30
0.0
 10
115.2956325666622
 20
164.4462930903989
 30
0.0
 10
115.2956325666622
 20
164.4462930903989
 30
0.0
  0
SPLINE
  5
1CF
330
3C
100
AcDbEntity
  8
Capa 1
 62
   250
370
    13
100
AcDbSpline
210
0.0
220
0.0
230
1.0
 70
    27
 71
     3
 72
    11
 73
     7
 74
     0
 42
0.0000000001
 43
0.0000000001
 40
0.0
 40
0.0
 40
0.0
 40
0.0
 40
1.0
 40
1.0
 40
1.0
 40
2.0
 40
2.0
 40
2.0
 40
2.0
 10
115.4492838253043
 20
164.599944349041
 30
0.0
 10
115.4492838253043
 20
164.599944349041
 30
0.0
 10
118.312158173547
 20
164.599944349041
 30
0.0
 10
118.312158173547
 20
164.599944349041
 30
0.0
 10
118.312158173547
 20
164.599944349041
 30
0.0
 10
115.4492838253043
 20
164.599944349041
 30
0.0
 10
115.4492838253043
 20
164.599944349041
 30
0.0
  0
SPLINE
  5
1D0
330
3C
100
AcDbEntity
  8
Capa 1
 62
   250
370
    13
100
AcDbSpline
210
0.0
220
0.0
230
1.0
 70
     8
 71
     3
 72
    20
 73
    16
 74
     0
 42
0.0000000001
 43
0.0000000001
 40
0.0
 40
0.0
 40
0.0
 40
0.0
 40
1.0
 40
1.0
 40
1.0
 40
2.0
 40
2.0
 40
2.0
 40
3.0
 40
3.0
 40
3.0
 40
4.0
 40
4.0
 40
4.0
 40
5.0
 40
5.0
 40
5.0
 40
5.0
 10
118.4292914200455
 20
150.5151882219198
 30
0.0
 10
118.2956217152178
 20
151.0536566462644
 30
0.0
 10
118.1626410294871
 20
151.5922973253832
 30
0.0
 10
118.1302571319258
 20
152.13489986431
 30
0.0
 10
118.0758246232588
 20
153.0388929196396
 30
0.0
 10
118.3025119061883
 20
153.9540825352962
 30
0.0
 10
118.3555663766611
 20
154.8703056795984
 30
0.0
 10
118.4472059165688
 20
156.4498819595854
 30
0.0
 10
118.0241481909801
 20
158.032386570735
 30
0.0
 10
118.2108723662806
 20
159.6000772712979
 30
0.0
 10
118.3335177655555
 20
160.635672974164
 30
0.0
 10
118.7235025744858
 20
161.6647229956081
 30
0.0
 10
118.6938747533126
 20
162.6889498833729
 30
0.0
 10
118.6752712376923
 20
163.3271538220154
 30
0.0
 10
118.4933701960711
 20
163.9634629581411
 30
0.0
 10
118.312158173547
 20
164.599944349041
 30
0.0
  0
SPLINE
  5
1D2
330
3C
100
AcDbEntity
  8
Capa 1
 62
   250
370
     9
100
AcDbSpline
210
0.0
220
0.0
230
1.0
 70
    27
 71
     3
 72
    11
 73
     7
 74
     0
 42
0.0000000001
 43
0.0000000001
 40
0.0
 40
0.0
 40
0.0
 40
0.0
 40
1.0
 40
1.0
 40
1.0
 40
2.0
 40
2.0
 40
2.0
 40
2.0
 10
112.2246744511105
 20
165.269326401825
 30
0.0
 10
112.2246744511105
 20
165.269326401825
 30
0.0
 10
112.2246744511105
 20
167.2542181656517
 30
0.0
 10
112.2246744511105
 20
167.2542181656517
 30
0.0
 10
112.2246744511105
 20
167.2542181656517
 30
0.0
 10
112.2246744511105
 20
165.269326401825
 30
0.0
 10
112.2246744511105
 20
165.269326401825
 30
0.0
  0
SPLINE
  5
1D4
330
3C
100
AcDbEntity
  8
Capa 1
 62
   250
370
     9
100
AcDbSpline
210
0.0
220
0.0
230
1.0
 70
    27
 71
     3
 72
    11
 73
     7
 74
     0
 42
0.0000000001
 43
0.0000000001
 40
0.0
 40
0.0
 40
0.0
 40
0.0
 40
1.0
 40
1.0
 40
1.0
 40
2.0
 40
2.0
 40
2.0
 40
2.0
 10
115.2956325666622
 20
165.4221163865959
 30
0.0
 10
115.2956325666622
 20
165.4221163865959
 30
0.0
 10
115.2956325666622
 20
167.2542181656517
 30
0.0
 10
115.2956325666622
 20
167.2542181656517
 30
0.0
 10
115.2956325666622
 20
167.2542181656517
 30
0.0
 10
115.2956325666622
 20
165.4221163865959
 30
0.0
 10
115.2956325666622
 20
165.4221163865959
 30
0.0
  0
MTEXT
  5
1D5
330
3C
100
AcDbEntity
  8
Capa 1
 62
   250
100
AcDbMText
 10
112.8296332183204
 20
166.2479057744102
 30
0.0
 40
1.156525289829192
 41
0.0
 71
     7
 72
     1
  1
\fArial|b0|i0|c0|p34;\W1;20
 73
     1
 44
1.0
  0
SPLINE
  5
1D6
330
3C
100
AcDbEntity
  8
Capa 1
 62
   250
370
    13
100
AcDbSpline
210
0.0
220
0.0
230
1.0
 70
    11
 71
     3
 72
    20
 73
    16
 74
     0
 42
0.0000000001
 43
0.0000000001
 40
0.0
 40
0.0
 40
0.0
 40
0.0
 40
1.0
 40
1.0
 40
1.0
 40
2.0
 40
2.0
 40
2.0
 40
3.0
 40
3.0
 40
3.0
 40
4.0
 40
4.0
 40
4.0
 40
5.0
 40
5.0
 40
5.0
 40
5.0
 10
112.232253661178
 20
164.2326971703134
 30
0.0
 10
112.232253661178
 20
164.2371757944442
 30
0.0
 10
112.2288085656928
 20
164.2407931447037
 30
0.0
 10
112.2246744511105
 20
164.2407931447037
 30
0.0
 10
112.2198513174312
 20
164.2407931447037
 30
0.0
 10
112.2164062219459
 20
164.2371757944442
 30
0.0
 10
112.2164062219459
 20
164.2326971703134
 30
0.0
 10
112.2164062219459
 20
164.2282185461825
 30
0.0
 10
112.2198513174312
 20
164.2244289411488
 30
0.0
 10
112.2246744511105
 20
164.2244289411488
 30
0.0
 10
112.2288085656928
 20
164.2244289411488
 30
0.0
 10
112.232253661178
 20
164.2282185461825
 30
0.0
 10
112.232253661178
 20
164.2326971703134
 30
0.0
 10
112.232253661178
 20
164.2326971703134
 30
0.0
 10
112.232253661178
 20
164.2326971703134
 30
0.0
 10
112.232253661178
 20
164.2326971703134
 30
0.0
  0
HATCH
  5
1D7
330
3C
100
AcDbEntity
  8
Capa 1
 62
   250
100
AcDbHatch
 10
0.0
 20
0.0
 30
0.0
210
0.0
220
0.0
230
1.0
  2
SOLID
 70
     1
 71
     0
 91
        1
 92
        1
 93
        1
 72
     4
 94
        3
 73
     0
 74
     1
 95
       20
 96
       16
 40
0.0
 40
0.0
 40
0.0
 40
0.0
 40
1.0
 40
1.0
 40
1.0
 40
2.0
 40
2.0
 40
2.0
 40
3.0
 40
3.0
 40
3.0
 40
4.0
 40
4.0
 40
4.0
 40
5.0
 40
5.0
 40
5.0
 40
5.0
 10
112.232253661178
 20
164.2326971703134
 10
112.232253661178
 20
164.2371757944442
 10
112.2288085656928
 20
164.2407931447037
 10
112.2246744511105
 20
164.2407931447037
 10
112.2198513174312
 20
164.2407931447037
 10
112.2164062219459
 20
164.2371757944442
 10
112.2164062219459
 20
164.2326971703134
 10
112.2164062219459
 20
164.2282185461825
 10
112.2198513174312
 20
164.2244289411488
 10
112.2246744511105
 20
164.2244289411488
 10
112.2288085656928
 20
164.2244289411488
 10
112.232253661178
 20
164.2282185461825
 10
112.232253661178
 20
164.2326971703134
 10
112.232253661178
 20
164.2326971703134
 10
112.232253661178
 20
164.2326971703134
 10
112.232253661178
 20
164.2326971703134
 97
        0
 75
     0
 76
     1
 98
        0
  0
SPLINE
  5
1D8
330
3C
100
AcDbEntity
  8
Capa 1
 62
   250
370
    13
100
AcDbSpline
210
0.0
220
0.0
230
1.0
 70
    11
 71
     3
 72
    20
 73
    16
 74
     0
 42
0.0000000001
 43
0.0000000001
 40
0.0
 40
0.0
 40
0.0
 40
0.0
 40
1.0
 40
1.0
 40
1.0
 40
2.0
 40
2.0
 40
2.0
 40
3.0
 40
3.0
 40
3.0
 40
4.0
 40
4.0
 40
4.0
 40
5.0
 40
5.0
 40
5.0
 40
5.0
 10
115.3039007958268
 20
164.4462930903989
 30
0.0
 10
115.3039007958268
 20
164.4509439693039
 30
0.0
 10
115.2997666812445
 20
164.4545613195635
 30
0.0
 10
115.2956325666622
 20
164.4545613195635
 30
0.0
 10
115.2908094329829
 20
164.4545613195635
 30
0.0
 10
115.2873643374976
 20
164.4509439693039
 30
0.0
 10
115.2873643374976
 20
164.4462930903989
 30
0.0
 10
115.2873643374976
 20
164.441814466268
 30
0.0
 10
115.2908094329829
 20
164.4381971160085
 30
0.0
 10
115.2956325666622
 20
164.4381971160085
 30
0.0
 10
115.2997666812445
 20
164.4381971160085
 30
0.0
 10
115.3039007958268
 20
164.441814466268
 30
0.0
 10
115.3039007958268
 20
164.4462930903989
 30
0.0
 10
115.3039007958268
 20
164.4462930903989
 30
0.0
 10
115.3039007958268
 20
164.4462930903989
 30
0.0
 10
115.3039007958268
 20
164.4462930903989
 30
0.0
  0
HATCH
  5
1D9
330
3C
100
AcDbEntity
  8
Capa 1
 62
   250
100
AcDbHatch
 10
0.0
 20
0.0
 30
0.0
210
0.0
220
0.0
230
1.0
  2
SOLID
 70
     1
 71
     0
 91
        1
 92
        1
 93
        1
 72
     4
 94
        3
 73
     0
 74
     1
 95
       20
 96
       16
 40
0.0
 40
0.0
 40
0.0
 40
0.0
 40
1.0
 40
1.0
 40
1.0
 40
2.0
 40
2.0
 40
2.0
 40
3.0
 40
3.0
 40
3.0
 40
4.0
 40
4.0
 40
4.0
 40
5.0
 40
5.0
 40
5.0
 40
5.0
 10
115.3039007958268
 20
164.4462930903989
 10
115.3039007958268
 20
164.4509439693039
 10
115.2997666812445
 20
164.4545613195635
 10
115.2956325666622
 20
164.4545613195635
 10
115.2908094329829
 20
164.4545613195635
 10
115.2873643374976
 20
164.4509439693039
 10
115.2873643374976
 20
164.4462930903989
 10
115.2873643374976
 20
164.441814466268
 10
115.2908094329829
 20
164.4381971160085
 10
115.2956325666622
 20
164.4381971160085
 10
115.2997666812445
 20
164.4381971160085
 10
115.3039007958268
 20
164.441814466268
 10
115.3039007958268
 20
164.4462930903989
 10
115.3039007958268
 20
164.4462930903989
 10
115.3039007958268
 20
164.4462930903989
 10
115.3039007958268
 20
164.4462930903989
 97
        0
 75
     0
 76
     1
 98
        0
  0
MTEXT
  5
1DA
330
3C
100
AcDbEntity
  8
Capa 1
 62
   250
100
AcDbMText
 10
114.0698675930103
 20
146.5777885918278
 30
0.0
 40
1.156525289829192
 41
0.0
 71
     7
 72
     1
  1
\fArial|b0|i0|c0|p34;\W1;IP20
 73
     1
 44
1.0
  0
MTEXT
  5
1DB
330
3C
100
AcDbEntity
  8
Capa 1
 62
   250
100
AcDbMText
 10
134.2222981435278
 20
162.1441080323806
 30
0.0
 40
1.156525289829192
 41
0.0
 71
     7
 72
     1
  1
\fArial|b0|i0|c0|p34;\W1;M4
 73
     1
 44
1.0
  0
MTEXT
  5
1DC
330
3C
100
AcDbEntity
  8
Capa 1
 62
   250
100
AcDbMText
 10
76.01379256997225
 20
136.2562825180193
 30
0.0
 40
1.156525289829192
 41
0.0
 71
     7
 72
     1
  1
\fArial|b0|i0|c0|p34;\W0.800007;72
 73
     1
 44
1.0
  0
MTEXT
  5
1DD
330
3C
100
AcDbEntity
  8
Capa 1
 62
   250
100
AcDbMText
 10
76.01379256997225
 20
133.522254740925
 30
0.0
 40
1.156525289829192
 41
0.0
 71
     7
 72
     1
  1
\fArial|b0|i0|c0|p34;\W0.800007;96
 73
     1
 44
1.0
  0
MTEXT
  5
1DE
330
3C
100
AcDbEntity
  8
Capa 1
 62
   250
100
AcDbMText
 10
86.40420055348577
 20
136.2562825180193
 30
0.0
 40
1.156525289829192
 41
0.0
 71
     7
 72
     1
  1
\fArial|b0|i0|c0|p34;\W0.800007;67,
 73
     1
 44
1.0
  0
MTEXT
  5
1DF
330
3C
100
AcDbEntity
  8
Capa 1
 62
   250
100
AcDbMText
 10
88.29486895579088
 20
136.2562825180193
 30
0.0
 40
1.156525289829192
 41
0.0
 71
     7
 72
     1
  1
\fArial|b0|i0|c0|p34;\W0.800007;2
 73
     1
 44
1.0
  0
MTEXT
  5
1E0
330
3C
100
AcDbEntity
  8
Capa 1
 62
   250
100
AcDbMText
 10
81.4542873602788
 20
133.522254740925
 30
0.0
 40
1.156525289829192
 41
0.0
 71
     7
 72
     1
  1
\fArial|b0|i0|c0|p34;\W0.800007;96
 73
     1
 44
1.0
  0
MTEXT
  5
1E1
330
3C
100
AcDbEntity
  8
Capa 1
 62
   250
100
AcDbMText
 10
87.14007294913513
 20
133.522254740925
 30
0.0
 40
1.156525289829192
 41
0.0
 71
     7
 72
     1
  1
\fArial|b0|i0|c0|p34;\W0.800007;91
 73
     1
 44
1.0
  0
MTEXT
  5
1E2
330
3C
100
AcDbEntity
  8
Capa 1
 62
   250
100
AcDbMText
 10
91.75650089936991
 20
133.522254740925
 30
0.0
 40
1.156525289829192
 41
0.0
 71
     7
 72
     1
  1
\fArial|b0|i0|c0|p34;\W0.800007;43,
 73
     1
 44
1.0
  0
MTEXT
  5
1E3
330
3C
100
AcDbEntity
  8
Capa 1
 62
   250
100
AcDbMText
 10
93.64716930167502
 20
133.522254740925
 30
0.0
 40
1.156525289829192
 41
0.0
 71
     7
 72
     1
  1
\fArial|b0|i0|c0|p34;\W0.800007;55
 73
     1
 44
1.0
  0
MTEXT
  5
1E4
330
3C
100
AcDbEntity
  8
Capa 1
 62
   250
100
AcDbMText
 10
98.65220402264598
 20
133.522254740925
 30
0.0
 40
1.156525289829192
 41
0.0
 71
     7
 72
     1
  1
\fArial|b0|i0|c0|p34;\W0.800007;,7
 73
     1
 44
1.0
  0
MTEXT
  5
1E5
330
3C
100
AcDbEntity
  8
Capa 1
 62
   250
100
AcDbMText
 10
103.2245347506696
 20
133.522254740925
 30
0.0
 40
1.156525289829192
 41
0.0
 71
     7
 72
     1
  1
\fArial|b0|i0|c0|p34;\W0.800007;92
 73
     1
 44
1.0
  0
MTEXT
  5
1E6
330
3C
100
AcDbEntity
  8
Capa 1
 62
   250
100
AcDbMText
 10
105.3579101299105
 20
134.0652017894004
 30
0.0
 40
0.8480823954740232
 41
0.0
 71
     7
 72
     1
  1
\fArial|b0|i0|c0|p34;\W0.800007;+0,
 73
     1
 44
1.0
  0
MTEXT
  5
1E7
330
3C
100
AcDbEntity
  8
Capa 1
 62
   250
100
AcDbMText
 10
106.7717773170571
 20
134.0652017894004
 30
0.0
 40
0.8480823954740232
 41
0.0
 71
     7
 72
     1
  1
\fArial|b0|i0|c0|p34;\W0.800007;8
 73
     1
 44
1.0
  0
MTEXT
  5
1E8
330
3C
100
AcDbEntity
  8
Capa 1
 62
   250
100
AcDbMText
 10
81.4542873602788
 20
136.2562825180193
 30
0.0
 40
1.156525289829192
 41
0.0
 71
     7
 72
     1
  1
\fArial|b0|i0|c0|p34;\W0.800007;72
 73
     1
 44
1.0
  0
MTEXT
  5
1E9
330
3C
100
AcDbEntity
  8
Capa 1
 62
   250
100
AcDbMText
 10
91.75650089936991
 20
136.2562825180193
 30
0.0
 40
1.156525289829192
 41
0.0
 71
     7
 72
     1
  1
\fArial|b0|i0|c0|p34;\W0.800007;43,
 73
     1
 44
1.0
  0
MTEXT
  5
1EA
330
3C
100
AcDbEntity
  8
Capa 1
 62
   250
100
AcDbMText
 10
93.64716930167502
 20
136.2562825180193
 30
0.0
 40
1.156525289829192
 41
0.0
 71
     7
 72
     1
  1
\fArial|b0|i0|c0|p34;\W0.800007;55
 73
     1
 44
1.0
  0
MTEXT
  5
1EB
330
3C
100
AcDbEntity
  8
Capa 1
 62
   250
100
AcDbMText
 10
98.65220402264598
 20
136.2562825180193
 30
0.0
 40
1.156525289829192
 41
0.0
 71
     7
 72
     1
  1
\fArial|b0|i0|c0|p34;\W0.800007;,7
 73
     1
 44
1.0
  0
MTEXT
  5
1EC
330
3C
100
AcDbEntity
  8
Capa 1
 62
   250
100
AcDbMText
 10
103.2245347506696
 20
136.2562825180193
 30
0.0
 40
1.156525289829192
 41
0.0
 71
     7
 72
     1
  1
\fArial|b0|i0|c0|p34;\W0.800007;68
 73
     1
 44
1.0
  0
MTEXT
  5
1ED
330
3C
100
AcDbEntity
  8
Capa 1
 62
   250
100
AcDbMText
 10
105.3579101299105
 20
136.8019856428828
 30
0.0
 40
0.8480823954740232
 41
0.0
 71
     7
 72
     1
  1
\fArial|b0|i0|c0|p34;\W0.800007;+0,
 73
     1
 44
1.0
  0
MTEXT
  5
1EE
330
3C
100
AcDbEntity
  8
Capa 1
 62
   250
100
AcDbMText
 10
106.7717773170571
 20
136.8019856428828
 30
0.0
 40
0.8480823954740232
 41
0.0
 71
     7
 72
     1
  1
\fArial|b0|i0|c0|p34;\W0.800007;8
 73
     1
 44
1.0
  0
SPLINE
  5
1F0
330
3C
100
AcDbEntity
  8
Capa 1
 62
   250
370
     9
100
AcDbSpline
210
0.0
220
0.0
230
1.0
 70
    27
 71
     3
 72
    11
 73
     7
 74
     0
 42
0.0000000001
 43
0.0000000001
 40
0.0
 40
0.0
 40
0.0
 40
0.0
 40
1.0
 40
1.0
 40
1.0
 40
2.0
 40
2.0
 40
2.0
 40
2.0
 10
74.27315807604977
 20
132.8042968417989
 30
0.0
 10
74.27315807604977
 20
132.8042968417989
 30
0.0
 10
109.2281303980402
 20
132.8042968417989
 30
0.0
 10
109.2281303980402
 20
132.8042968417989
 30
0.0
 10
109.2281303980402
 20
132.8042968417989
 30
0.0
 10
74.27315807604977
 20
132.8042968417989
 30
0.0
 10
74.27315807604977
 20
132.8042968417989
 30
0.0
  0
MTEXT
  5
1F1
330
3C
100
AcDbEntity
  8
Capa 1
 62
   250
100
AcDbMText
 10
105.0242526321641
 20
139.1226019617471
 30
0.0
 40
1.156525289829192
 41
0.0
 71
     7
 72
     1
  1
\fArial|b0|i0|c0|p34;\W0.800007;e
 73
     1
 44
1.0
  0
MTEXT
  5
1F2
330
3C
100
AcDbEntity
  8
Capa 1
 62
   250
100
AcDbMText
 10
98.5226684324006
 20
139.1226019617471
 30
0.0
 40
1.156525289829192
 41
0.0
 71
     7
 72
     1
  1
\fArial|b0|i0|c0|p34;\W0.800007;d
 73
     1
 44
1.0
  0
MTEXT
  5
1F3
330
3C
100
AcDbEntity
  8
Capa 1
 62
   250
100
AcDbMText
 10
93.00224742683625
 20
139.1226019617471
 30
0.0
 40
1.156525289829192
 41
0.0
 71
     7
 72
     1
  1
\fArial|b0|i0|c0|p34;\W0.800007;c
 73
     1
 44
1.0
  0
MTEXT
  5
1F4
330
3C
100
AcDbEntity
  8
Capa 1
 62
   250
100
AcDbMText
 10
87.6251423934583
 20
139.1226019617471
 30
0.0
 40
1.156525289829192
 41
0.0
 71
     7
 72
     1
  1
\fArial|b0|i0|c0|p34;\W0.800007;b
 73
     1
 44
1.0
  0
MTEXT
  5
1F5
330
3C
100
AcDbEntity
  8
Capa 1
 62
   250
100
AcDbMText
 10
81.95038111015477
 20
139.1226019617471
 30
0.0
 40
1.156525289829192
 41
0.0
 71
     7
 72
     1
  1
\fArial|b0|i0|c0|p34;\W0.800007;a
 73
     1
 44
1.0
  0
MTEXT
  5
1F6
330
3C
100
AcDbEntity
  8
Capa 1
 62
   250
100
AcDbMText
 10
75.29170055626389
 20
139.1226019617471
 30
0.0
 40
1.156525289829192
 41
0.0
 71
     7
 72
     1
  1
\fArial|b0|i0|c0|p34;\W0.800007;Ti
 73
     1
 44
1.0
  0
MTEXT
  5
1F7
330
3C
100
AcDbEntity
  8
Capa 1
 62
   250
100
AcDbMText
 10
76.37483857682643
 20
139.1226019617471
 30
0.0
 40
1.156525289829192
 41
0.0
 71
     7
 72
     1
  1
\fArial|b0|i0|c0|p34;\W0.800007;po
 73
     1
 44
1.0
  0
SPLINE
  5
1F8
330
3C
100
AcDbEntity
  8
Capa 1
 62
   250
370
     9
100
AcDbSpline
210
0.0
220
0.0
230
1.0
 70
    27
 71
     3
 72
    11
 73
     7
 74
     0
 42
0.0000000001
 43
0.0000000001
 40
0.0
 40
0.0
 40
0.0
 40
0.0
 40
1.0
 40
1.0
 40
1.0
 40
2.0
 40
2.0
 40
2.0
 40
2.0
 10
109.2281303980402
 20
141.0091362494699
 30
0.0
 10
109.2281303980402
 20
141.0091362494699
 30
0.0
 10
109.2281303980402
 20
132.8042968417989
 30
0.0
 10
109.2281303980402
 20
132.8042968417989
 30
0.0
 10
109.2281303980402
 20
132.8042968417989
 30
0.0
 10
109.2281303980402
 20
141.0091362494699
 30
0.0
 10
109.2281303980402
 20
141.0091362494699
 30
0.0
  0
SPLINE
  5
1FA
330
3C
100
AcDbEntity
  8
Capa 1
 62
   250
370
     9
100
AcDbSpline
210
0.0
220
0.0
230
1.0
 70
    27
 71
     3
 72
    11
 73
     7
 74
     0
 42
0.0000000001
 43
0.0000000001
 40
0.0
 40
0.0
 40
0.0
 40
0.0
 40
1.0
 40
1.0
 40
1.0
 40
2.0
 40
2.0
 40
2.0
 40
2.0
 10
101.7562350548561
 20
141.0091362494699
 30
0.0
 10
101.7562350548561
 20
141.0091362494699
 30
0.0
 10
101.7562350548561
 20
132.8042968417989
 30
0.0
 10
101.7562350548561
 20
132.8042968417989
 30
0.0
 10
101.7562350548561
 20
132.8042968417989
 30
0.0
 10
101.7562350548561
 20
141.0091362494699
 30
0.0
 10
101.7562350548561
 20
141.0091362494699
 30
0.0
  0
SPLINE
  5
1FC
330
3C
100
AcDbEntity
  8
Capa 1
 62
   250
370
     9
100
AcDbSpline
210
0.0
220
0.0
230
1.0
 70
    27
 71
     3
 72
    11
 73
     7
 74
     0
 42
0.0000000001
 43
0.0000000001
 40
0.0
 40
0.0
 40
0.0
 40
0.0
 40
1.0
 40
1.0
 40
1.0
 40
2.0
 40
2.0
 40
2.0
 40
2.0
 10
96.24546031665045
 20
141.0091362494699
 30
0.0
 10
96.24546031665045
 20
141.0091362494699
 30
0.0
 10
96.24546031665045
 20
132.8042968417989
 30
0.0
 10
96.24546031665045
 20
132.8042968417989
 30
0.0
 10
96.24546031665045
 20
132.8042968417989
 30
0.0
 10
96.24546031665045
 20
141.0091362494699
 30
0.0
 10
96.24546031665045
 20
141.0091362494699
 30
0.0
  0
SPLINE
  5
1FE
330
3C
100
AcDbEntity
  8
Capa 1
 62
   250
370
     9
100
AcDbSpline
210
0.0
220
0.0
230
1.0
 70
    27
 71
     3
 72
    11
 73
     7
 74
     0
 42
0.0000000001
 43
0.0000000001
 40
0.0
 40
0.0
 40
0.0
 40
0.0
 40
1.0
 40
1.0
 40
1.0
 40
2.0
 40
2.0
 40
2.0
 40
2.0
 10
90.73485783321907
 20
141.0091362494699
 30
0.0
 10
90.73485783321907
 20
141.0091362494699
 30
0.0
 10
90.73485783321907
 20
132.8042968417989
 30
0.0
 10
90.73485783321907
 20
132.8042968417989
 30
0.0
 10
90.73485783321907
 20
132.8042968417989
 30
0.0
 10
90.73485783321907
 20
141.0091362494699
 30
0.0
 10
90.73485783321907
 20
141.0091362494699
 30
0.0
  0
SPLINE
  5
200
330
3C
100
AcDbEntity
  8
Capa 1
 62
   250
370
     9
100
AcDbSpline
210
0.0
220
0.0
230
1.0
 70
    27
 71
     3
 72
    11
 73
     7
 74
     0
 42
0.0000000001
 43
0.0000000001
 40
0.0
 40
0.0
 40
0.0
 40
0.0
 40
1.0
 40
1.0
 40
1.0
 40
2.0
 40
2.0
 40
2.0
 40
2.0
 10
85.22408309501343
 20
141.0091362494699
 30
0.0
 10
85.22408309501343
 20
141.0091362494699
 30
0.0
 10
85.22408309501343
 20
132.8042968417989
 30
0.0
 10
85.22408309501343
 20
132.8042968417989
 30
0.0
 10
85.22408309501343
 20
132.8042968417989
 30
0.0
 10
85.22408309501343
 20
141.0091362494699
 30
0.0
 10
85.22408309501343
 20
141.0091362494699
 30
0.0
  0
SPLINE
  5
202
330
3C
100
AcDbEntity
  8
Capa 1
 62
   250
370
     9
100
AcDbSpline
210
0.0
220
0.0
230
1.0
 70
    27
 71
     3
 72
    11
 73
     7
 74
     0
 42
0.0000000001
 43
0.0000000001
 40
0.0
 40
0.0
 40
0.0
 40
0.0
 40
1.0
 40
1.0
 40
1.0
 40
2.0
 40
2.0
 40
2.0
 40
2.0
 10
79.71348061158206
 20
141.0091362494699
 30
0.0
 10
79.71348061158206
 20
141.0091362494699
 30
0.0
 10
79.71348061158206
 20
132.8042968417989
 30
0.0
 10
79.71348061158206
 20
132.8042968417989
 30
0.0
 10
79.71348061158206
 20
132.8042968417989
 30
0.0
 10
79.71348061158206
 20
141.0091362494699
 30
0.0
 10
79.71348061158206
 20
141.0091362494699
 30
0.0
  0
SPLINE
  5
204
330
3C
100
AcDbEntity
  8
Capa 1
 62
   250
370
     9
100
AcDbSpline
210
0.0
220
0.0
230
1.0
 70
    27
 71
     3
 72
    11
 73
     7
 74
     0
 42
0.0000000001
 43
0.0000000001
 40
0.0
 40
0.0
 40
0.0
 40
0.0
 40
1.0
 40
1.0
 40
1.0
 40
2.0
 40
2.0
 40
2.0
 40
2.0
 10
74.27315807604977
 20
141.0091362494699
 30
0.0
 10
74.27315807604977
 20
141.0091362494699
 30
0.0
 10
74.27315807604977
 20
132.8042968417989
 30
0.0
 10
74.27315807604977
 20
132.8042968417989
 30
0.0
 10
74.27315807604977
 20
132.8042968417989
 30
0.0
 10
74.27315807604977
 20
141.0091362494699
 30
0.0
 10
74.27315807604977
 20
141.0091362494699
 30
0.0
  0
SPLINE
  5
206
330
3C
100
AcDbEntity
  8
Capa 1
 62
   250
370
     9
100
AcDbSpline
210
0.0
220
0.0
230
1.0
 70
    27
 71
     3
 72
    11
 73
     7
 74
     0
 42
0.0000000001
 43
0.0000000001
 40
0.0
 40
0.0
 40
0.0
 40
0.0
 40
1.0
 40
1.0
 40
1.0
 40
2.0
 40
2.0
 40
2.0
 40
2.0
 10
74.27315807604977
 20
135.5390136379903
 30
0.0
 10
74.27315807604977
 20
135.5390136379903
 30
0.0
 10
109.2281303980402
 20
135.5390136379903
 30
0.0
 10
109.2281303980402
 20
135.5390136379903
 30
0.0
 10
109.2281303980402
 20
135.5390136379903
 30
0.0
 10
74.27315807604977
 20
135.5390136379903
 30
0.0
 10
74.27315807604977
 20
135.5390136379903
 30
0.0
  0
SPLINE
  5
208
330
3C
100
AcDbEntity
  8
Capa 1
 62
   250
370
     9
100
AcDbSpline
210
0.0
220
0.0
230
1.0
 70
    27
 71
     3
 72
    11
 73
     7
 74
     0
 42
0.0000000001
 43
0.0000000001
 40
0.0
 40
0.0
 40
0.0
 40
0.0
 40
1.0
 40
1.0
 40
1.0
 40
2.0
 40
2.0
 40
2.0
 40
2.0
 10
74.27315807604977
 20
138.2737304341816
 30
0.0
 10
74.27315807604977
 20
138.2737304341816
 30
0.0
 10
109.2281303980402
 20
138.2737304341816
 30
0.0
 10
109.2281303980402
 20
138.2737304341816
 30
0.0
 10
109.2281303980402
 20
138.2737304341816
 30
0.0
 10
74.27315807604977
 20
138.2737304341816
 30
0.0
 10
74.27315807604977
 20
138.2737304341816
 30
0.0
  0
SPLINE
  5
20A
330
3C
100
AcDbEntity
  8
Capa 1
 62
   250
370
     9
100
AcDbSpline
210
0.0
220
0.0
230
1.0
 70
    27
 71
     3
 72
    11
 73
     7
 74
     0
 42
0.0000000001
 43
0.0000000001
 40
0.0
 40
0.0
 40
0.0
 40
0.0
 40
1.0
 40
1.0
 40
1.0
 40
2.0
 40
2.0
 40
2.0
 40
2.0
 10
74.27315807604977
 20
141.0091362494699
 30
0.0
 10
74.27315807604977
 20
141.0091362494699
 30
0.0
 10
109.2281303980402
 20
141.0091362494699
 30
0.0
 10
109.2281303980402
 20
141.0091362494699
 30
0.0
 10
109.2281303980402
 20
141.0091362494699
 30
0.0
 10
74.27315807604977
 20
141.0091362494699
 30
0.0
 10
74.27315807604977
 20
141.0091362494699
 30
0.0
  0
POLYLINE
  5
20B
330
3C
100
AcDbEntity
  8
Capa 1
 62
   250
370
     9
100
AcDb2dPolyline
 66
     1
 10
0.0
 20
0.0
 30
0.0
  0
VERTEX
  5
20C
330
20B
100
AcDbEntity
  8
Capa 1
 62
   250
370
     9
100
AcDbVertex
100
AcDb2dVertex
 10
131.5240993594801
 20
160.8919880782666
 30
0.0
  0
VERTEX
  5
20D
330
20B
100
AcDbEntity
  8
Capa 1
 62
   250
370
     9
100
AcDbVertex
100
AcDb2dVertex
 10
134.128591546329
 20
161.800459757727
 30
0.0
  0
VERTEX
  5
20E
330
20B
100
AcDbEntity
  8
Capa 1
 62
   250
370
     9
100
AcDbVertex
100
AcDb2dVertex
 10
136.5987250092531
 20
161.800459757727
 30
0.0
  0
SEQEND
  5
20F
330
20B
100
AcDbEntity
  8
Capa 1
370
     9
  0
POLYLINE
  5
210
330
3C
100
AcDbEntity
  8
Capa 1
370
     0
100
AcDb2dPolyline
 66
     1
 10
0.0
 20
0.0
 30
0.0
  0
VERTEX
  5
211
330
210
100
AcDbEntity
  8
Capa 1
370
     0
100
AcDbVertex
100
AcDb2dVertex
 10
130.6655815645558
 20
160.5924370258241
 30
0.0
  0
VERTEX
  5
212
330
210
100
AcDbEntity
  8
Capa 1
370
     0
100
AcDbVertex
100
AcDb2dVertex
 10
131.384228482779
 20
161.3310654978617
 30
0.0
  0
VERTEX
  5
213
330
210
100
AcDbEntity
  8
Capa 1
370
     0
100
AcDbVertex
100
AcDb2dVertex
 10
131.6873968854809
 20
160.4608343782876
 30
0.0
  0
VERTEX
  5
214
330
210
100
AcDbEntity
  8
Capa 1
370
     0
100
AcDbVertex
100
AcDb2dVertex
 10
130.6655815645558
 20
160.5924370258241
 30
0.0
  0
VERTEX
  5
215
330
210
100
AcDbEntity
  8
Capa 1
370
     0
100
AcDbVertex
100
AcDb2dVertex
 10
130.6655815645558
 20
160.5924370258241
 30
0.0
  0
SEQEND
  5
216
330
210
100
AcDbEntity
  8
Capa 1
370
     0
  0
HATCH
  5
217
330
3C
100
AcDbEntity
  8
Capa 1
 62
   250
100
AcDbHatch
 10
0.0
 20
0.0
 30
0.0
210
0.0
220
0.0
230
1.0
  2
SOLID
 70
     1
 71
     0
 91
        1
 92
        1
 93
        3
 72
     1
 10
130.6655815645558
 20
160.5924370258241
 11
131.384228482779
 21
161.3310654978617
 72
     1
 10
131.384228482779
 20
161.3310654978617
 11
131.6873968854809
 21
160.4608343782876
 72
     1
 10
131.6873968854809
 20
160.4608343782876
 11
130.6655815645558
 21
160.5924370258241
 97
        0
 75
     0
 76
     1
 98
        0
  0
POLYLINE
  5
218
330
3C
100
AcDbEntity
  8
Capa 1
 62
   250
370
     9
100
AcDb2dPolyline
 66
     1
 10
0.0
 20
0.0
 30
0.0
  0
VERTEX
  5
219
330
218
100
AcDbEntity
  8
Capa 1
 62
   250
370
     9
100
AcDbVertex
100
AcDb2dVertex
 10
70.54883760172044
 20
164.1345119489837
 30
0.0
  0
VERTEX
  5
21A
330
218
100
AcDbEntity
  8
Capa 1
 62
   250
370
     9
100
AcDbVertex
100
AcDb2dVertex
 10
70.54883760172044
 20
158.5522514794592
 30
0.0
  0
SEQEND
  5
21B
330
218
100
AcDbEntity
  8
Capa 1
370
     9
  0
POLYLINE
  5
21C
330
3C
100
AcDbEntity
  8
Capa 1
370
     0
100
AcDb2dPolyline
 66
     1
 10
0.0
 20
0.0
 30
0.0
  0
VERTEX
  5
21D
330
21C
100
AcDbEntity
  8
Capa 1
370
     0
100
AcDbVertex
100
AcDb2dVertex
 10
70.54883760172044
 20
165.044189411864
 30
0.0
  0
VERTEX
  5
21E
330
21C
100
AcDbEntity
  8
Capa 1
370
     0
100
AcDbVertex
100
AcDb2dVertex
 10
71.00979137764686
 20
164.1224541147854
 30
0.0
  0
VERTEX
  5
21F
330
21C
100
AcDbEntity
  8
Capa 1
370
     0
100
AcDbVertex
100
AcDb2dVertex
 10
70.08805608056826
 20
164.1224541147854
 30
0.0
  0
VERTEX
  5
220
330
21C
100
AcDbEntity
  8
Capa 1
370
     0
100
AcDbVertex
100
AcDb2dVertex
 10
70.54883760172044
 20
165.044189411864
 30
0.0
  0
VERTEX
  5
221
330
21C
100
AcDbEntity
  8
Capa 1
370
     0
100
AcDbVertex
100
AcDb2dVertex
 10
70.54883760172044
 20
165.044189411864
 30
0.0
  0
SEQEND
  5
222
330
21C
100
AcDbEntity
  8
Capa 1
370
     0
  0
HATCH
  5
223
330
3C
100
AcDbEntity
  8
Capa 1
 62
   250
100
AcDbHatch
 10
0.0
 20
0.0
 30
0.0
210
0.0
220
0.0
230
1.0
  2
SOLID
 70
     1
 71
     0
 91
        1
 92
        1
 93
        3
 72
     1
 10
70.54883760172044
 20
165.044189411864
 11
71.00979137764686
 21
164.1224541147854
 72
     1
 10
71.00979137764686
 20
164.1224541147854
 11
70.08805608056826
 21
164.1224541147854
 72
     1
 10
70.08805608056826
 20
164.1224541147854
 11
70.54883760172044
 21
165.044189411864
 97
        0
 75
     0
 76
     1
 98
        0
  0
POLYLINE
  5
224
330
3C
100
AcDbEntity
  8
Capa 1
 62
   250
370
     9
100
AcDb2dPolyline
 66
     1
 10
0.0
 20
0.0
 30
0.0
  0
VERTEX
  5
225
330
224
100
AcDbEntity
  8
Capa 1
 62
   250
370
     9
100
AcDbVertex
100
AcDb2dVertex
 10
70.5062906724776
 20
151.2612236492507
 30
0.0
  0
VERTEX
  5
226
330
224
100
AcDbEntity
  8
Capa 1
 62
   250
370
     9
100
AcDbVertex
100
AcDb2dVertex
 10
70.5062906724776
 20
156.8939547676342
 30
0.0
  0
SEQEND
  5
227
330
224
100
AcDbEntity
  8
Capa 1
370
     9
  0
POLYLINE
  5
228
330
3C
100
AcDbEntity
  8
Capa 1
370
     0
100
AcDb2dPolyline
 66
     1
 10
0.0
 20
0.0
 30
0.0
  0
VERTEX
  5
229
330
228
100
AcDbEntity
  8
Capa 1
370
     0
100
AcDbVertex
100
AcDb2dVertex
 10
70.5062906724776
 20
150.3517184411447
 30
0.0
  0
VERTEX
  5
22A
330
228
100
AcDbEntity
  8
Capa 1
370
     0
100
AcDbVertex
100
AcDb2dVertex
 10
70.04550915132543
 20
151.2734537382233
 30
0.0
  0
VERTEX
  5
22B
330
228
100
AcDbEntity
  8
Capa 1
370
     0
100
AcDbVertex
100
AcDb2dVertex
 10
70.96724444840403
 20
151.2734537382233
 30
0.0
  0
VERTEX
  5
22C
330
228
100
AcDbEntity
  8
Capa 1
370
     0
100
AcDbVertex
100
AcDb2dVertex
 10
70.5062906724776
 20
150.3517184411447
 30
0.0
  0
VERTEX
  5
22D
330
228
100
AcDbEntity
  8
Capa 1
370
     0
100
AcDbVertex
100
AcDb2dVertex
 10
70.5062906724776
 20
150.3517184411447
 30
0.0
  0
SEQEND
  5
22E
330
228
100
AcDbEntity
  8
Capa 1
370
     0
  0
HATCH
  5
22F
330
3C
100
AcDbEntity
  8
Capa 1
 62
   250
100
AcDbHatch
 10
0.0
 20
0.0
 30
0.0
210
0.0
220
0.0
230
1.0
  2
SOLID
 70
     1
 71
     0
 91
        1
 92
        1
 93
        3
 72
     1
 10
70.5062906724776
 20
150.3517184411447
 11
70.04550915132543
 21
151.2734537382233
 72
     1
 10
70.04550915132543
 20
151.2734537382233
 11
70.96724444840403
 21
151.2734537382233
 72
     1
 10
70.96724444840403
 20
151.2734537382233
 11
70.5062906724776
 21
150.3517184411447
 97
        0
 75
     0
 76
     1
 98
        0
  0
POLYLINE
  5
230
330
3C
100
AcDbEntity
  8
Capa 1
 62
   250
370
     9
100
AcDb2dPolyline
 66
     1
 10
0.0
 20
0.0
 30
0.0
  0
VERTEX
  5
231
330
230
100
AcDbEntity
  8
Capa 1
 62
   250
370
     9
100
AcDbVertex
100
AcDb2dVertex
 10
75.14166664788125
 20
146.5192219685785
 30
0.0
  0
VERTEX
  5
232
330
230
100
AcDbEntity
  8
Capa 1
 62
   250
370
     9
100
AcDbVertex
100
AcDb2dVertex
 10
80.62970375588425
 20
146.5192219685785
 30
0.0
  0
SEQEND
  5
233
330
230
100
AcDbEntity
  8
Capa 1
370
     9
  0
POLYLINE
  5
234
330
3C
100
AcDbEntity
  8
Capa 1
370
     0
100
AcDb2dPolyline
 66
     1
 10
0.0
 20
0.0
 30
0.0
  0
VERTEX
  5
235
330
234
100
AcDbEntity
  8
Capa 1
370
     0
100
AcDbVertex
100
AcDb2dVertex
 10
74.23198918500104
 20
146.5192219685785
 30
0.0
  0
VERTEX
  5
236
330
234
100
AcDbEntity
  8
Capa 1
370
     0
100
AcDbVertex
100
AcDb2dVertex
 10
75.15372448207962
 20
146.980175744505
 30
0.0
  0
VERTEX
  5
237
330
234
100
AcDbEntity
  8
Capa 1
370
     0
100
AcDbVertex
100
AcDb2dVertex
 10
75.15372448207962
 20
146.0582681926521
 30
0.0
  0
VERTEX
  5
238
330
234
100
AcDbEntity
  8
Capa 1
370
     0
100
AcDbVertex
100
AcDb2dVertex
 10
74.23198918500104
 20
146.5192219685785
 30
0.0
  0
VERTEX
  5
239
330
234
100
AcDbEntity
  8
Capa 1
370
     0
100
AcDbVertex
100
AcDb2dVertex
 10
74.23198918500104
 20
146.5192219685785
 30
0.0
  0
SEQEND
  5
23A
330
234
100
AcDbEntity
  8
Capa 1
370
     0
  0
HATCH
  5
23B
330
3C
100
AcDbEntity
  8
Capa 1
 62
   250
100
AcDbHatch
 10
0.0
 20
0.0
 30
0.0
210
0.0
220
0.0
230
1.0
  2
SOLID
 70
     1
 71
     0
 91
        1
 92
        1
 93
        3
 72
     1
 10
74.23198918500104
 20
146.5192219685785
 11
75.15372448207962
 21
146.980175744505
 72
     1
 10
75.15372448207962
 20
146.980175744505
 11
75.15372448207962
 21
146.0582681926521
 72
     1
 10
75.15372448207962
 20
146.0582681926521
 11
74.23198918500104
 21
146.5192219685785
 97
        0
 75
     0
 76
     1
 98
        0
  0
POLYLINE
  5
23C
330
3C
100
AcDbEntity
  8
Capa 1
 62
   250
370
     9
100
AcDb2dPolyline
 66
     1
 10
0.0
 20
0.0
 30
0.0
  0
VERTEX
  5
23D
330
23C
100
AcDbEntity
  8
Capa 1
 62
   250
370
     9
100
AcDbVertex
100
AcDb2dVertex
 10
88.00668671844971
 20
146.5150878539962
 30
0.0
  0
VERTEX
  5
23E
330
23C
100
AcDbEntity
  8
Capa 1
 62
   250
370
     9
100
AcDbVertex
100
AcDb2dVertex
 10
82.24579804801495
 20
146.5150878539962
 30
0.0
  0
SEQEND
  5
23F
330
23C
100
AcDbEntity
  8
Capa 1
370
     9
  0
POLYLINE
  5
240
330
3C
100
AcDbEntity
  8
Capa 1
370
     0
100
AcDb2dPolyline
 66
     1
 10
0.0
 20
0.0
 30
0.0
  0
VERTEX
  5
241
330
240
100
AcDbEntity
  8
Capa 1
370
     0
100
AcDbVertex
100
AcDb2dVertex
 10
88.91636418132994
 20
146.5150878539962
 30
0.0
  0
VERTEX
  5
242
330
240
100
AcDbEntity
  8
Capa 1
370
     0
100
AcDbVertex
100
AcDb2dVertex
 10
87.99462888425134
 20
146.0541340780698
 30
0.0
  0
VERTEX
  5
243
330
240
100
AcDbEntity
  8
Capa 1
370
     0
100
AcDbVertex
100
AcDb2dVertex
 10
87.99462888425134
 20
146.9760416299227
 30
0.0
  0
VERTEX
  5
244
330
240
100
AcDbEntity
  8
Capa 1
370
     0
100
AcDbVertex
100
AcDb2dVertex
 10
88.91636418132994
 20
146.5150878539962
 30
0.0
  0
VERTEX
  5
245
330
240
100
AcDbEntity
  8
Capa 1
370
     0
100
AcDbVertex
100
AcDb2dVertex
 10
88.91636418132994
 20
146.5150878539962
 30
0.0
  0
SEQEND
  5
246
330
240
100
AcDbEntity
  8
Capa 1
370
     0
  0
HATCH
  5
247
330
3C
100
AcDbEntity
  8
Capa 1
 62
   250
100
AcDbHatch
 10
0.0
 20
0.0
 30
0.0
210
0.0
220
0.0
230
1.0
  2
SOLID
 70
     1
 71
     0
 91
        1
 92
        1
 93
        3
 72
     1
 10
88.91636418132994
 20
146.5150878539962
 11
87.99462888425134
 21
146.0541340780698
 72
     1
 10
87.99462888425134
 20
146.0541340780698
 11
87.99462888425134
 21
146.9760416299227
 72
     1
 10
87.99462888425134
 20
146.9760416299227
 11
88.91636418132994
 21
146.5150878539962
 97
        0
 75
     0
 76
     1
 98
        0
  0
POLYLINE
  5
248
330
3C
100
AcDbEntity
  8
Capa 1
 62
   250
370
     9
100
AcDb2dPolyline
 66
     1
 10
0.0
 20
0.0
 30
0.0
  0
VERTEX
  5
249
330
248
100
AcDbEntity
  8
Capa 1
 62
   250
370
     9
100
AcDbVertex
100
AcDb2dVertex
 10
96.27491588304933
 20
146.4778808227555
 30
0.0
  0
VERTEX
  5
24A
330
248
100
AcDbEntity
  8
Capa 1
 62
   250
370
     9
100
AcDbVertex
100
AcDb2dVertex
 10
98.04311114085381
 20
146.4778808227555
 30
0.0
  0
SEQEND
  5
24B
330
248
100
AcDbEntity
  8
Capa 1
370
     9
  0
POLYLINE
  5
24C
330
3C
100
AcDbEntity
  8
Capa 1
370
     0
100
AcDb2dPolyline
 66
     1
 10
0.0
 20
0.0
 30
0.0
  0
VERTEX
  5
24D
330
24C
100
AcDbEntity
  8
Capa 1
370
     0
100
AcDbVertex
100
AcDb2dVertex
 10
95.3652384201691
 20
146.4778808227555
 30
0.0
  0
VERTEX
  5
24E
330
24C
100
AcDbEntity
  8
Capa 1
370
     0
100
AcDbVertex
100
AcDb2dVertex
 10
96.2869737172477
 20
146.938834598682
 30
0.0
  0
VERTEX
  5
24F
330
24C
100
AcDbEntity
  8
Capa 1
370
     0
100
AcDbVertex
100
AcDb2dVertex
 10
96.2869737172477
 20
146.0169270468291
 30
0.0
  0
VERTEX
  5
250
330
24C
100
AcDbEntity
  8
Capa 1
370
     0
100
AcDbVertex
100
AcDb2dVertex
 10
95.3652384201691
 20
146.4778808227555
 30
0.0
  0
VERTEX
  5
251
330
24C
100
AcDbEntity
  8
Capa 1
370
     0
100
AcDbVertex
100
AcDb2dVertex
 10
95.3652384201691
 20
146.4778808227555
 30
0.0
  0
SEQEND
  5
252
330
24C
100
AcDbEntity
  8
Capa 1
370
     0
  0
HATCH
  5
253
330
3C
100
AcDbEntity
  8
Capa 1
 62
   250
100
AcDbHatch
 10
0.0
 20
0.0
 30
0.0
210
0.0
220
0.0
230
1.0
  2
SOLID
 70
     1
 71
     0
 91
        1
 92
        1
 93
        3
 72
     1
 10
95.3652384201691
 20
146.4778808227555
 11
96.2869737172477
 21
146.938834598682
 72
     1
 10
96.2869737172477
 20
146.938834598682
 11
96.2869737172477
 21
146.0169270468291
 72
     1
 10
96.2869737172477
 20
146.0169270468291
 11
95.3652384201691
 21
146.4778808227555
 97
        0
 75
     0
 76
     1
 98
        0
  0
POLYLINE
  5
254
330
3C
100
AcDbEntity
  8
Capa 1
 62
   250
370
     9
100
AcDb2dPolyline
 66
     1
 10
0.0
 20
0.0
 30
0.0
  0
VERTEX
  5
255
330
254
100
AcDbEntity
  8
Capa 1
 62
   250
370
     9
100
AcDbVertex
100
AcDb2dVertex
 10
101.2616915979485
 20
146.5109537394139
 30
0.0
  0
VERTEX
  5
256
330
254
100
AcDbEntity
  8
Capa 1
 62
   250
370
     9
100
AcDbVertex
100
AcDb2dVertex
 10
99.47988821297726
 20
146.5109537394139
 30
0.0
  0
SEQEND
  5
257
330
254
100
AcDbEntity
  8
Capa 1
370
     9
  0
POLYLINE
  5
258
330
3C
100
AcDbEntity
  8
Capa 1
370
     0
100
AcDb2dPolyline
 66
     1
 10
0.0
 20
0.0
 30
0.0
  0
VERTEX
  5
259
330
258
100
AcDbEntity
  8
Capa 1
370
     0
100
AcDbVertex
100
AcDb2dVertex
 10
102.1713690608287
 20
146.5109537394139
 30
0.0
  0
VERTEX
  5
25A
330
258
100
AcDbEntity
  8
Capa 1
370
     0
100
AcDbVertex
100
AcDb2dVertex
 10
101.2496337637501
 20
146.0499999634875
 30
0.0
  0
VERTEX
  5
25B
330
258
100
AcDbEntity
  8
Capa 1
370
     0
100
AcDbVertex
100
AcDb2dVertex
 10
101.2496337637501
 20
146.9719075153404
 30
0.0
  0
VERTEX
  5
25C
330
258
100
AcDbEntity
  8
Capa 1
370
     0
100
AcDbVertex
100
AcDb2dVertex
 10
102.1713690608287
 20
146.5109537394139
 30
0.0
  0
VERTEX
  5
25D
330
258
100
AcDbEntity
  8
Capa 1
370
     0
100
AcDbVertex
100
AcDb2dVertex
 10
102.1713690608287
 20
146.5109537394139
 30
0.0
  0
SEQEND
  5
25E
330
258
100
AcDbEntity
  8
Capa 1
370
     0
  0
HATCH
  5
25F
330
3C
100
AcDbEntity
  8
Capa 1
 62
   250
100
AcDbHatch
 10
0.0
 20
0.0
 30
0.0
210
0.0
220
0.0
230
1.0
  2
SOLID
 70
     1
 71
     0
 91
        1
 92
        1
 93
        3
 72
     1
 10
102.1713690608287
 20
146.5109537394139
 11
101.2496337637501
 21
146.0499999634875
 72
     1
 10
101.2496337637501
 20
146.0499999634875
 11
101.2496337637501
 21
146.9719075153404
 72
     1
 10
101.2496337637501
 20
146.9719075153404
 11
102.1713690608287
 21
146.5109537394139
 97
        0
 75
     0
 76
     1
 98
        0
  0
POLYLINE
  5
260
330
3C
100
AcDbEntity
  8
Capa 1
 62
   250
370
     9
100
AcDb2dPolyline
 66
     1
 10
0.0
 20
0.0
 30
0.0
  0
VERTEX
  5
261
330
260
100
AcDbEntity
  8
Capa 1
 62
   250
370
     9
100
AcDbVertex
100
AcDb2dVertex
 10
103.9562730317366
 20
146.5109537394139
 30
0.0
  0
VERTEX
  5
262
330
260
100
AcDbEntity
  8
Capa 1
 62
   250
370
     9
100
AcDbVertex
100
AcDb2dVertex
 10
104.5059380164082
 20
146.5109537394139
 30
0.0
  0
SEQEND
  5
263
330
260
100
AcDbEntity
  8
Capa 1
370
     9
  0
POLYLINE
  5
264
330
3C
100
AcDbEntity
  8
Capa 1
370
     0
100
AcDb2dPolyline
 66
     1
 10
0.0
 20
0.0
 30
0.0
  0
VERTEX
  5
265
330
264
100
AcDbEntity
  8
Capa 1
370
     0
100
AcDbVertex
100
AcDb2dVertex
 10
103.0467678236307
 20
146.5109537394139
 30
0.0
  0
VERTEX
  5
266
330
264
100
AcDbEntity
  8
Capa 1
370
     0
100
AcDbVertex
100
AcDb2dVertex
 10
103.968330865935
 20
146.9719075153404
 30
0.0
  0
VERTEX
  5
267
330
264
100
AcDbEntity
  8
Capa 1
370
     0
100
AcDbVertex
100
AcDb2dVertex
 10
103.968330865935
 20
146.0499999634875
 30
0.0
  0
VERTEX
  5
268
330
264
100
AcDbEntity
  8
Capa 1
370
     0
100
AcDbVertex
100
AcDb2dVertex
 10
103.0467678236307
 20
146.5109537394139
 30
0.0
  0
VERTEX
  5
269
330
264
100
AcDbEntity
  8
Capa 1
370
     0
100
AcDbVertex
100
AcDb2dVertex
 10
103.0467678236307
 20
146.5109537394139
 30
0.0
  0
SEQEND
  5
26A
330
264
100
AcDbEntity
  8
Capa 1
370
     0
  0
HATCH
  5
26B
330
3C
100
AcDbEntity
  8
Capa 1
 62
   250
100
AcDbHatch
 10
0.0
 20
0.0
 30
0.0
210
0.0
220
0.0
230
1.0
  2
SOLID
 70
     1
 71
     0
 91
        1
 92
        1
 93
        3
 72
     1
 10
103.0467678236307
 20
146.5109537394139
 11
103.968330865935
 21
146.9719075153404
 72
     1
 10
103.968330865935
 20
146.9719075153404
 11
103.968330865935
 21
146.0499999634875
 72
     1
 10
103.968330865935
 20
146.0499999634875
 11
103.0467678236307
 21
146.5109537394139
 97
        0
 75
     0
 76
     1
 98
        0
  0
POLYLINE
  5
26C
330
3C
100
AcDbEntity
  8
Capa 1
 62
   250
370
     9
100
AcDb2dPolyline
 66
     1
 10
0.0
 20
0.0
 30
0.0
  0
VERTEX
  5
26D
330
26C
100
AcDbEntity
  8
Capa 1
 62
   250
370
     9
100
AcDbVertex
100
AcDb2dVertex
 10
92.91508651105943
 20
166.867850706981
 30
0.0
  0
VERTEX
  5
26E
330
26C
100
AcDbEntity
  8
Capa 1
 62
   250
370
     9
100
AcDbVertex
100
AcDb2dVertex
 10
91.74358179130022
 20
166.867850706981
 30
0.0
  0
SEQEND
  5
26F
330
26C
100
AcDbEntity
  8
Capa 1
370
     9
  0
POLYLINE
  5
270
330
3C
100
AcDbEntity
  8
Capa 1
370
     0
100
AcDb2dPolyline
 66
     1
 10
0.0
 20
0.0
 30
0.0
  0
VERTEX
  5
271
330
270
100
AcDbEntity
  8
Capa 1
370
     0
100
AcDbVertex
100
AcDb2dVertex
 10
93.82476397393965
 20
166.867850706981
 30
0.0
  0
VERTEX
  5
272
330
270
100
AcDbEntity
  8
Capa 1
370
     0
100
AcDbVertex
100
AcDb2dVertex
 10
92.90302867686106
 20
166.4070691858288
 30
0.0
  0
VERTEX
  5
273
330
270
100
AcDbEntity
  8
Capa 1
370
     0
100
AcDbVertex
100
AcDb2dVertex
 10
92.90302867686106
 20
167.3288044829074
 30
0.0
  0
VERTEX
  5
274
330
270
100
AcDbEntity
  8
Capa 1
370
     0
100
AcDbVertex
100
AcDb2dVertex
 10
93.82476397393965
 20
166.867850706981
 30
0.0
  0
VERTEX
  5
275
330
270
100
AcDbEntity
  8
Capa 1
370
     0
100
AcDbVertex
100
AcDb2dVertex
 10
93.82476397393965
 20
166.867850706981
 30
0.0
  0
SEQEND
  5
276
330
270
100
AcDbEntity
  8
Capa 1
370
     0
  0
HATCH
  5
277
330
3C
100
AcDbEntity
  8
Capa 1
 62
   250
100
AcDbHatch
 10
0.0
 20
0.0
 30
0.0
210
0.0
220
0.0
230
1.0
  2
SOLID
 70
     1
 71
     0
 91
        1
 92
        1
 93
        3
 72
     1
 10
93.82476397393965
 20
166.867850706981
 11
92.90302867686106
 21
166.4070691858288
 72
     1
 10
92.90302867686106
 20
166.4070691858288
 11
92.90302867686106
 21
167.3288044829074
 72
     1
 10
92.90302867686106
 20
167.3288044829074
 11
93.82476397393965
 21
166.867850706981
 97
        0
 75
     0
 76
     1
 98
        0
  0
POLYLINE
  5
278
330
3C
100
AcDbEntity
  8
Capa 1
 62
   250
370
     9
100
AcDb2dPolyline
 66
     1
 10
0.0
 20
0.0
 30
0.0
  0
VERTEX
  5
279
330
278
100
AcDbEntity
  8
Capa 1
 62
   250
370
     9
100
AcDbVertex
100
AcDb2dVertex
 10
96.27491588304933
 20
166.8530367963944
 30
0.0
  0
VERTEX
  5
27A
330
278
100
AcDbEntity
  8
Capa 1
 62
   250
370
     9
100
AcDbVertex
100
AcDb2dVertex
 10
97.04765080039087
 20
166.8530367963944
 30
0.0
  0
SEQEND
  5
27B
330
278
100
AcDbEntity
  8
Capa 1
370
     9
  0
POLYLINE
  5
27C
330
3C
100
AcDbEntity
  8
Capa 1
370
     0
100
AcDb2dPolyline
 66
     1
 10
0.0
 20
0.0
 30
0.0
  0
VERTEX
  5
27D
330
27C
100
AcDbEntity
  8
Capa 1
370
     0
100
AcDbVertex
100
AcDb2dVertex
 10
95.3652384201691
 20
166.8530367963944
 30
0.0
  0
VERTEX
  5
27E
330
27C
100
AcDbEntity
  8
Capa 1
370
     0
100
AcDbVertex
100
AcDb2dVertex
 10
96.2869737172477
 20
167.3139905723208
 30
0.0
  0
VERTEX
  5
27F
330
27C
100
AcDbEntity
  8
Capa 1
370
     0
100
AcDbVertex
100
AcDb2dVertex
 10
96.2869737172477
 20
166.392083020468
 30
0.0
  0
VERTEX
  5
280
330
27C
100
AcDbEntity
  8
Capa 1
370
     0
100
AcDbVertex
100
AcDb2dVertex
 10
95.3652384201691
 20
166.8530367963944
 30
0.0
  0
VERTEX
  5
281
330
27C
100
AcDbEntity
  8
Capa 1
370
     0
100
AcDbVertex
100
AcDb2dVertex
 10
95.3652384201691
 20
166.8530367963944
 30
0.0
  0
SEQEND
  5
282
330
27C
100
AcDbEntity
  8
Capa 1
370
     0
  0
HATCH
  5
283
330
3C
100
AcDbEntity
  8
Capa 1
 62
   250
100
AcDbHatch
 10
0.0
 20
0.0
 30
0.0
210
0.0
220
0.0
230
1.0
  2
SOLID
 70
     1
 71
     0
 91
        1
 92
        1
 93
        3
 72
     1
 10
95.3652384201691
 20
166.8530367963944
 11
96.2869737172477
 21
167.3139905723208
 72
     1
 10
96.2869737172477
 20
167.3139905723208
 11
96.2869737172477
 21
166.392083020468
 72
     1
 10
96.2869737172477
 20
166.392083020468
 11
95.3652384201691
 21
166.8530367963944
 97
        0
 75
     0
 76
     1
 98
        0
  0
POLYLINE
  5
284
330
3C
100
AcDbEntity
  8
Capa 1
 62
   250
370
     9
100
AcDb2dPolyline
 66
     1
 10
0.0
 20
0.0
 30
0.0
  0
VERTEX
  5
285
330
284
100
AcDbEntity
  8
Capa 1
 62
   250
370
     9
100
AcDbVertex
100
AcDb2dVertex
 10
106.5299316139925
 20
163.6446193709812
 30
0.0
  0
VERTEX
  5
286
330
284
100
AcDbEntity
  8
Capa 1
 62
   250
370
     9
100
AcDbVertex
100
AcDb2dVertex
 10
106.5299316139925
 20
158.8590372324207
 30
0.0
  0
SEQEND
  5
287
330
284
100
AcDbEntity
  8
Capa 1
370
     9
  0
POLYLINE
  5
288
330
3C
100
AcDbEntity
  8
Capa 1
370
     0
100
AcDb2dPolyline
 66
     1
 10
0.0
 20
0.0
 30
0.0
  0
VERTEX
  5
289
330
288
100
AcDbEntity
  8
Capa 1
370
     0
100
AcDbVertex
100
AcDb2dVertex
 10
106.5299316139925
 20
164.5542968338614
 30
0.0
  0
VERTEX
  5
28A
330
288
100
AcDbEntity
  8
Capa 1
370
     0
100
AcDbVertex
100
AcDb2dVertex
 10
106.9901963708219
 20
163.6325615367828
 30
0.0
  0
VERTEX
  5
28B
330
288
100
AcDbEntity
  8
Capa 1
370
     0
100
AcDbVertex
100
AcDb2dVertex
 10
106.0689778380661
 20
163.6325615367828
 30
0.0
  0
VERTEX
  5
28C
330
288
100
AcDbEntity
  8
Capa 1
370
     0
100
AcDbVertex
100
AcDb2dVertex
 10
106.5299316139925
 20
164.5542968338614
 30
0.0
  0
VERTEX
  5
28D
330
288
100
AcDbEntity
  8
Capa 1
370
     0
100
AcDbVertex
100
AcDb2dVertex
 10
106.5299316139925
 20
164.5542968338614
 30
0.0
  0
SEQEND
  5
28E
330
288
100
AcDbEntity
  8
Capa 1
370
     0
  0
HATCH
  5
28F
330
3C
100
AcDbEntity
  8
Capa 1
 62
   250
100
AcDbHatch
 10
0.0
 20
0.0
 30
0.0
210
0.0
220
0.0
230
1.0
  2
SOLID
 70
     1
 71
     0
 91
        1
 92
        1
 93
        3
 72
     1
 10
106.5299316139925
 20
164.5542968338614
 11
106.9901963708219
 21
163.6325615367828
 72
     1
 10
106.9901963708219
 20
163.6325615367828
 11
106.0689778380661
 21
163.6325615367828
 72
     1
 10
106.0689778380661
 20
163.6325615367828
 11
106.5299316139925
 21
164.5542968338614
 97
        0
 75
     0
 76
     1
 98
        0
  0
POLYLINE
  5
290
330
3C
100
AcDbEntity
  8
Capa 1
 62
   250
370
     9
100
AcDb2dPolyline
 66
     1
 10
0.0
 20
0.0
 30
0.0
  0
VERTEX
  5
291
330
290
100
AcDbEntity
  8
Capa 1
 62
   250
370
     9
100
AcDbVertex
100
AcDb2dVertex
 10
106.5071939837899
 20
151.7511162272532
 30
0.0
  0
VERTEX
  5
292
330
290
100
AcDbEntity
  8
Capa 1
 62
   250
370
     9
100
AcDbVertex
100
AcDb2dVertex
 10
106.5071939837899
 20
157.5795287691989
 30
0.0
  0
SEQEND
  5
293
330
290
100
AcDbEntity
  8
Capa 1
370
     9
  0
POLYLINE
  5
294
330
3C
100
AcDbEntity
  8
Capa 1
370
     0
100
AcDb2dPolyline
 66
     1
 10
0.0
 20
0.0
 30
0.0
  0
VERTEX
  5
295
330
294
100
AcDbEntity
  8
Capa 1
370
     0
100
AcDbVertex
100
AcDb2dVertex
 10
106.5071939837899
 20
150.841438764373
 30
0.0
  0
VERTEX
  5
296
330
294
100
AcDbEntity
  8
Capa 1
370
     0
100
AcDbVertex
100
AcDb2dVertex
 10
106.0462402078634
 20
151.7631740614516
 30
0.0
  0
VERTEX
  5
297
330
294
100
AcDbEntity
  8
Capa 1
370
     0
100
AcDbVertex
100
AcDb2dVertex
 10
106.9681477597163
 20
151.7631740614516
 30
0.0
  0
VERTEX
  5
298
330
294
100
AcDbEntity
  8
Capa 1
370
     0
100
AcDbVertex
100
AcDb2dVertex
 10
106.5071939837899
 20
150.841438764373
 30
0.0
  0
VERTEX
  5
299
330
294
100
AcDbEntity
  8
Capa 1
370
     0
100
AcDbVertex
100
AcDb2dVertex
 10
106.5071939837899
 20
150.841438764373
 30
0.0
  0
SEQEND
  5
29A
330
294
100
AcDbEntity
  8
Capa 1
370
     0
  0
HATCH
  5
29B
330
3C
100
AcDbEntity
  8
Capa 1
 62
   250
100
AcDbHatch
 10
0.0
 20
0.0
 30
0.0
210
0.0
220
0.0
230
1.0
  2
SOLID
 70
     1
 71
     0
 91
        1
 92
        1
 93
        3
 72
     1
 10
106.5071939837899
 20
150.841438764373
 11
106.0462402078634
 21
151.7631740614516
 72
     1
 10
106.0462402078634
 20
151.7631740614516
 11
106.9681477597163
 21
151.7631740614516
 72
     1
 10
106.9681477597163
 20
151.7631740614516
 11
106.5071939837899
 21
150.841438764373
 97
        0
 75
     0
 76
     1
 98
        0
  0
POLYLINE
  5
29C
330
3C
100
AcDbEntity
  8
Capa 1
 62
   250
370
     9
100
AcDb2dPolyline
 66
     1
 10
0.0
 20
0.0
 30
0.0
  0
VERTEX
  5
29D
330
29C
100
AcDbEntity
  8
Capa 1
 62
   250
370
     9
100
AcDbVertex
100
AcDb2dVertex
 10
111.3131021857134
 20
166.8740518788544
 30
0.0
  0
VERTEX
  5
29E
330
29C
100
AcDbEntity
  8
Capa 1
 62
   250
370
     9
100
AcDbVertex
100
AcDb2dVertex
 10
109.5526583927507
 20
166.8740518788544
 30
0.0
  0
SEQEND
  5
29F
330
29C
100
AcDbEntity
  8
Capa 1
370
     9
  0
POLYLINE
  5
2A0
330
3C
100
AcDbEntity
  8
Capa 1
370
     0
100
AcDb2dPolyline
 66
     1
 10
0.0
 20
0.0
 30
0.0
  0
VERTEX
  5
2A1
330
2A0
100
AcDbEntity
  8
Capa 1
370
     0
100
AcDbVertex
100
AcDb2dVertex
 10
112.2226073938194
 20
166.8740518788544
 30
0.0
  0
VERTEX
  5
2A2
330
2A0
100
AcDbEntity
  8
Capa 1
370
     0
100
AcDbVertex
100
AcDb2dVertex
 10
111.3013888610635
 20
166.4132703577023
 30
0.0
  0
VERTEX
  5
2A3
330
2A0
100
AcDbEntity
  8
Capa 1
370
     0
100
AcDbVertex
100
AcDb2dVertex
 10
111.3013888610635
 20
167.3350056547808
 30
0.0
  0
VERTEX
  5
2A4
330
2A0
100
AcDbEntity
  8
Capa 1
370
     0
100
AcDbVertex
100
AcDb2dVertex
 10
112.2226073938194
 20
166.8740518788544
 30
0.0
  0
VERTEX
  5
2A5
330
2A0
100
AcDbEntity
  8
Capa 1
370
     0
100
AcDbVertex
100
AcDb2dVertex
 10
112.2226073938194
 20
166.8740518788544
 30
0.0
  0
SEQEND
  5
2A6
330
2A0
100
AcDbEntity
  8
Capa 1
370
     0
  0
HATCH
  5
2A7
330
3C
100
AcDbEntity
  8
Capa 1
 62
   250
100
AcDbHatch
 10
0.0
 20
0.0
 30
0.0
210
0.0
220
0.0
230
1.0
  2
SOLID
 70
     1
 71
     0
 91
        1
 92
        1
 93
        3
 72
     1
 10
112.2226073938194
 20
166.8740518788544
 11
111.3013888610635
 21
166.4132703577023
 72
     1
 10
111.3013888610635
 20
166.4132703577023
 11
111.3013888610635
 21
167.3350056547808
 72
     1
 10
111.3013888610635
 20
167.3350056547808
 11
112.2226073938194
 21
166.8740518788544
 97
        0
 75
     0
 76
     1
 98
        0
  0
POLYLINE
  5
2A8
330
3C
100
AcDbEntity
  8
Capa 1
 62
   250
370
     9
100
AcDb2dPolyline
 66
     1
 10
0.0
 20
0.0
 30
0.0
  0
VERTEX
  5
2A9
330
2A8
100
AcDbEntity
  8
Capa 1
 62
   250
370
     9
100
AcDbVertex
100
AcDb2dVertex
 10
116.2065158129623
 20
166.7843071414636
 30
0.0
  0
VERTEX
  5
2AA
330
2A8
100
AcDbEntity
  8
Capa 1
 62
   250
370
     9
100
AcDbVertex
100
AcDb2dVertex
 10
117.8904784861524
 20
166.7843071414636
 30
0.0
  0
SEQEND
  5
2AB
330
2A8
100
AcDbEntity
  8
Capa 1
370
     9
  0
POLYLINE
  5
2AC
330
3C
100
AcDbEntity
  8
Capa 1
370
     0
100
AcDb2dPolyline
 66
     1
 10
0.0
 20
0.0
 30
0.0
  0
VERTEX
  5
2AD
330
2AC
100
AcDbEntity
  8
Capa 1
370
     0
100
AcDbVertex
100
AcDb2dVertex
 10
115.2970106048563
 20
166.7843071414636
 30
0.0
  0
VERTEX
  5
2AE
330
2AC
100
AcDbEntity
  8
Capa 1
370
     0
100
AcDbVertex
100
AcDb2dVertex
 10
116.2189181567092
 20
167.2452609173901
 30
0.0
  0
VERTEX
  5
2AF
330
2AC
100
AcDbEntity
  8
Capa 1
370
     0
100
AcDbVertex
100
AcDb2dVertex
 10
116.2189181567092
 20
166.3233533655372
 30
0.0
  0
VERTEX
  5
2B0
330
2AC
100
AcDbEntity
  8
Capa 1
370
     0
100
AcDbVertex
100
AcDb2dVertex
 10
115.2970106048563
 20
166.7843071414636
 30
0.0
  0
VERTEX
  5
2B1
330
2AC
100
AcDbEntity
  8
Capa 1
370
     0
100
AcDbVertex
100
AcDb2dVertex
 10
115.2970106048563
 20
166.7843071414636
 30
0.0
  0
SEQEND
  5
2B2
330
2AC
100
AcDbEntity
  8
Capa 1
370
     0
  0
HATCH
  5
2B3
330
3C
100
AcDbEntity
  8
Capa 1
 62
   250
100
AcDbHatch
 10
0.0
 20
0.0
 30
0.0
210
0.0
220
0.0
230
1.0
  2
SOLID
 70
     1
 71
     0
 91
        1
 92
        1
 93
        3
 72
     1
 10
115.2970106048563
 20
166.7843071414636
 11
116.2189181567092
 21
167.2452609173901
 72
     1
 10
116.2189181567092
 20
167.2452609173901
 11
116.2189181567092
 21
166.3233533655372
 72
     1
 10
116.2189181567092
 20
166.3233533655372
 11
115.2970106048563
 21
166.7843071414636
 97
        0
 75
     0
 76
     1
 98
        0
  0
POLYLINE
  5
2B4
330
3C
100
AcDbEntity
  8
Capa 1
 62
   250
370
     9
100
AcDb2dPolyline
 66
     1
 10
0.0
 20
0.0
 30
0.0
  0
VERTEX
  5
2B5
330
2B4
100
AcDbEntity
  8
Capa 1
 62
   250
370
     9
100
AcDbVertex
100
AcDb2dVertex
 10
112.8702853450463
 20
151.3187567438544
 30
0.0
  0
VERTEX
  5
2B6
330
2B4
100
AcDbEntity
  8
Capa 1
 62
   250
370
     9
100
AcDbVertex
100
AcDb2dVertex
 10
113.8700520548658
 20
146.1595539999184
 30
0.0
  0
VERTEX
  5
2B7
330
2B4
100
AcDbEntity
  8
Capa 1
 62
   250
370
     9
100
AcDbVertex
100
AcDb2dVertex
 10
117.4426160730699
 20
146.1595539999184
 30
0.0
  0
SEQEND
  5
2B8
330
2B4
100
AcDbEntity
  8
Capa 1
370
     9
  0
POLYLINE
  5
2B9
330
3C
100
AcDbEntity
  8
Capa 1
370
     0
100
AcDb2dPolyline
 66
     1
 10
0.0
 20
0.0
 30
0.0
  0
VERTEX
  5
2BA
330
2B9
100
AcDbEntity
  8
Capa 1
370
     0
100
AcDbVertex
100
AcDb2dVertex
 10
112.6973415516868
 20
152.2117254936311
 30
0.0
  0
VERTEX
  5
2BB
330
2B9
100
AcDbEntity
  8
Capa 1
370
     0
100
AcDbVertex
100
AcDb2dVertex
 10
113.3250379490993
 20
151.3945488445299
 30
0.0
  0
VERTEX
  5
2BC
330
2B9
100
AcDbEntity
  8
Capa 1
370
     0
100
AcDbVertex
100
AcDb2dVertex
 10
112.4203558746727
 20
151.2193657391049
 30
0.0
  0
VERTEX
  5
2BD
330
2B9
100
AcDbEntity
  8
Capa 1
370
     0
100
AcDbVertex
100
AcDb2dVertex
 10
112.6973415516868
 20
152.2117254936311
 30
0.0
  0
VERTEX
  5
2BE
330
2B9
100
AcDbEntity
  8
Capa 1
370
     0
100
AcDbVertex
100
AcDb2dVertex
 10
112.6973415516868
 20
152.2117254936311
 30
0.0
  0
SEQEND
  5
2BF
330
2B9
100
AcDbEntity
  8
Capa 1
370
     0
  0
HATCH
  5
2C0
330
3C
100
AcDbEntity
  8
Capa 1
 62
   250
100
AcDbHatch
 10
0.0
 20
0.0
 30
0.0
210
0.0
220
0.0
230
1.0
  2
SOLID
 70
     1
 71
     0
 91
        1
 92
        1
 93
        3
 72
     1
 10
112.6973415516868
 20
152.2117254936311
 11
113.3250379490993
 21
151.3945488445299
 72
     1
 10
113.3250379490993
 20
151.3945488445299
 11
112.4203558746727
 21
151.2193657391049
 72
     1
 10
112.4203558746727
 20
151.2193657391049
 11
112.6973415516868
 21
152.2117254936311
 97
        0
 75
     0
 76
     1
 98
        0
  0
POLYLINE
  5
2C1
330
3C
100
AcDbEntity
  8
Capa 1
 62
   250
370
     9
100
AcDb2dPolyline
 66
     1
 10
0.0
 20
0.0
 30
0.0
  0
VERTEX
  5
2C2
330
2C1
100
AcDbEntity
  8
Capa 1
 62
   250
370
     9
100
AcDbVertex
100
AcDb2dVertex
 10
126.6169053502902
 20
156.3961384700156
 30
0.0
  0
VERTEX
  5
2C3
330
2C1
100
AcDbEntity
  8
Capa 1
 62
   250
370
     9
100
AcDbVertex
100
AcDb2dVertex
 10
127.3700032233658
 20
155.4950737458485
 30
0.0
  0
SEQEND
  5
2C4
330
2C1
100
AcDbEntity
  8
Capa 1
370
     9
  0
POLYLINE
  5
2C5
330
3C
100
AcDbEntity
  8
Capa 1
370
     0
100
AcDb2dPolyline
 66
     1
 10
0.0
 20
0.0
 30
0.0
  0
VERTEX
  5
2C6
330
2C5
100
AcDbEntity
  8
Capa 1
370
     0
100
AcDbVertex
100
AcDb2dVertex
 10
126.0339951941859
 20
157.0941148153272
 30
0.0
  0
VERTEX
  5
2C7
330
2C5
100
AcDbEntity
  8
Capa 1
370
     0
100
AcDbVertex
100
AcDb2dVertex
 10
126.9786403762415
 20
156.6824259048398
 30
0.0
  0
VERTEX
  5
2C8
330
2C5
100
AcDbEntity
  8
Capa 1
370
     0
100
AcDbVertex
100
AcDb2dVertex
 10
126.2710177635711
 20
156.0912475195709
 30
0.0
  0
VERTEX
  5
2C9
330
2C5
100
AcDbEntity
  8
Capa 1
370
     0
100
AcDbVertex
100
AcDb2dVertex
 10
126.0339951941859
 20
157.0941148153272
 30
0.0
  0
VERTEX
  5
2CA
330
2C5
100
AcDbEntity
  8
Capa 1
370
     0
100
AcDbVertex
100
AcDb2dVertex
 10
126.0339951941859
 20
157.0941148153272
 30
0.0
  0
SEQEND
  5
2CB
330
2C5
100
AcDbEntity
  8
Capa 1
370
     0
  0
HATCH
  5
2CC
330
3C
100
AcDbEntity
  8
Capa 1
 62
   250
100
AcDbHatch
 10
0.0
 20
0.0
 30
0.0
210
0.0
220
0.0
230
1.0
  2
SOLID
 70
     1
 71
     0
 91
        1
 92
        1
 93
        3
 72
     1
 10
126.0339951941859
 20
157.0941148153272
 11
126.9786403762415
 21
156.6824259048398
 72
     1
 10
126.9786403762415
 20
156.6824259048398
 11
126.2710177635711
 21
156.0912475195709
 72
     1
 10
126.2710177635711
 20
156.0912475195709
 11
126.0339951941859
 21
157.0941148153272
 97
        0
 75
     0
 76
     1
 98
        0
  0
POLYLINE
  5
2CD
330
3C
100
AcDbEntity
  8
Capa 1
 62
   250
370
     9
100
AcDb2dPolyline
 66
     1
 10
0.0
 20
0.0
 30
0.0
  0
VERTEX
  5
2CE
330
2CD
100
AcDbEntity
  8
Capa 1
 62
   250
370
     9
100
AcDbVertex
100
AcDb2dVertex
 10
129.5638400283729
 20
152.8700832408624
 30
0.0
  0
VERTEX
  5
2CF
330
2CD
100
AcDbEntity
  8
Capa 1
 62
   250
370
     9
100
AcDbVertex
100
AcDb2dVertex
 10
128.8603515302849
 20
153.7112033035861
 30
0.0
  0
SEQEND
  5
2D0
330
2CD
100
AcDbEntity
  8
Capa 1
370
     9
  0
POLYLINE
  5
2D1
330
3C
100
AcDbEntity
  8
Capa 1
370
     0
100
AcDb2dPolyline
 66
     1
 10
0.0
 20
0.0
 30
0.0
  0
VERTEX
  5
2D2
330
2D1
100
AcDbEntity
  8
Capa 1
370
     0
100
AcDbVertex
100
AcDb2dVertex
 10
130.1467501844772
 20
152.172279150325
 30
0.0
  0
VERTEX
  5
2D3
330
2D1
100
AcDbEntity
  8
Capa 1
370
     0
100
AcDbVertex
100
AcDb2dVertex
 10
129.2021050024217
 20
152.5839680608123
 30
0.0
  0
VERTEX
  5
2D4
330
2D1
100
AcDbEntity
  8
Capa 1
370
     0
100
AcDbVertex
100
AcDb2dVertex
 10
129.909727615092
 20
153.1749741913069
 30
0.0
  0
VERTEX
  5
2D5
330
2D1
100
AcDbEntity
  8
Capa 1
370
     0
100
AcDbVertex
100
AcDb2dVertex
 10
130.1467501844772
 20
152.172279150325
 30
0.0
  0
VERTEX
  5
2D6
330
2D1
100
AcDbEntity
  8
Capa 1
370
     0
100
AcDbVertex
100
AcDb2dVertex
 10
130.1467501844772
 20
152.172279150325
 30
0.0
  0
SEQEND
  5
2D7
330
2D1
100
AcDbEntity
  8
Capa 1
370
     0
  0
HATCH
  5
2D8
330
3C
100
AcDbEntity
  8
Capa 1
 62
   250
100
AcDbHatch
 10
0.0
 20
0.0
 30
0.0
210
0.0
220
0.0
230
1.0
  2
SOLID
 70
     1
 71
     0
 91
        1
 92
        1
 93
        3
 72
     1
 10
130.1467501844772
 20
152.172279150325
 11
129.2021050024217
 21
152.5839680608123
 72
     1
 10
129.2021050024217
 20
152.5839680608123
 11
129.909727615092
 21
153.1749741913069
 72
     1
 10
129.909727615092
 20
153.1749741913069
 11
130.1467501844772
 21
152.172279150325
 97
        0
 75
     0
 76
     1
 98
        0
  0
POLYLINE
  5
2D9
330
3C
100
AcDbEntity
  8
Capa 1
 62
   250
370
     9
100
AcDb2dPolyline
 66
     1
 10
0.0
 20
0.0
 30
0.0
  0
VERTEX
  5
2DA
330
2D9
100
AcDbEntity
  8
Capa 1
 62
   250
370
     9
100
AcDbVertex
100
AcDb2dVertex
 10
125.6908636838551
 20
128.1120767908887
 30
0.0
  0
VERTEX
  5
2DB
330
2D9
100
AcDbEntity
  8
Capa 1
 62
   250
370
     9
100
AcDbVertex
100
AcDb2dVertex
 10
131.0941514429209
 20
128.1120767908887
 30
0.0
  0
SEQEND
  5
2DC
330
2D9
100
AcDbEntity
  8
Capa 1
370
     9
  0
POLYLINE
  5
2DD
330
3C
100
AcDbEntity
  8
Capa 1
370
     0
100
AcDb2dPolyline
 66
     1
 10
0.0
 20
0.0
 30
0.0
  0
VERTEX
  5
2DE
330
2DD
100
AcDbEntity
  8
Capa 1
370
     0
100
AcDbVertex
100
AcDb2dVertex
 10
124.7806694566521
 20
128.1120767908887
 30
0.0
  0
VERTEX
  5
2DF
330
2DD
100
AcDbEntity
  8
Capa 1
370
     0
100
AcDbVertex
100
AcDb2dVertex
 10
125.7025770085049
 20
128.5730305668151
 30
0.0
  0
VERTEX
  5
2E0
330
2DD
100
AcDbEntity
  8
Capa 1
370
     0
100
AcDbVertex
100
AcDb2dVertex
 10
125.7025770085049
 20
127.6511230149622
 30
0.0
  0
VERTEX
  5
2E1
330
2DD
100
AcDbEntity
  8
Capa 1
370
     0
100
AcDbVertex
100
AcDb2dVertex
 10
124.7806694566521
 20
128.1120767908887
 30
0.0
  0
VERTEX
  5
2E2
330
2DD
100
AcDbEntity
  8
Capa 1
370
     0
100
AcDbVertex
100
AcDb2dVertex
 10
124.7806694566521
 20
128.1120767908887
 30
0.0
  0
SEQEND
  5
2E3
330
2DD
100
AcDbEntity
  8
Capa 1
370
     0
  0
HATCH
  5
2E4
330
3C
100
AcDbEntity
  8
Capa 1
 62
   250
100
AcDbHatch
 10
0.0
 20
0.0
 30
0.0
210
0.0
220
0.0
230
1.0
  2
SOLID
 70
     1
 71
     0
 91
        1
 92
        1
 93
        3
 72
     1
 10
124.7806694566521
 20
128.1120767908887
 11
125.7025770085049
 21
128.5730305668151
 72
     1
 10
125.7025770085049
 20
128.5730305668151
 11
125.7025770085049
 21
127.6511230149622
 72
     1
 10
125.7025770085049
 20
127.6511230149622
 11
124.7806694566521
 21
128.1120767908887
 97
        0
 75
     0
 76
     1
 98
        0
  0
POLYLINE
  5
2E5
330
3C
100
AcDbEntity
  8
Capa 1
 62
   250
370
     9
100
AcDb2dPolyline
 66
     1
 10
0.0
 20
0.0
 30
0.0
  0
VERTEX
  5
2E6
330
2E5
100
AcDbEntity
  8
Capa 1
 62
   250
370
     9
100
AcDbVertex
100
AcDb2dVertex
 10
137.9512694967622
 20
128.1251681537326
 30
0.0
  0
VERTEX
  5
2E7
330
2E5
100
AcDbEntity
  8
Capa 1
 62
   250
370
     9
100
AcDbVertex
100
AcDb2dVertex
 10
132.391574402666
 20
128.1251681537326
 30
0.0
  0
SEQEND
  5
2E8
330
2E5
100
AcDbEntity
  8
Capa 1
370
     9
  0
POLYLINE
  5
2E9
330
3C
100
AcDbEntity
  8
Capa 1
370
     0
100
AcDb2dPolyline
 66
     1
 10
0.0
 20
0.0
 30
0.0
  0
VERTEX
  5
2EA
330
2E9
100
AcDbEntity
  8
Capa 1
370
     0
100
AcDbVertex
100
AcDb2dVertex
 10
138.8607747048681
 20
128.1251681537326
 30
0.0
  0
VERTEX
  5
2EB
330
2E9
100
AcDbEntity
  8
Capa 1
370
     0
100
AcDbVertex
100
AcDb2dVertex
 10
137.9395561721123
 20
127.6642143778062
 30
0.0
  0
VERTEX
  5
2EC
330
2E9
100
AcDbEntity
  8
Capa 1
370
     0
100
AcDbVertex
100
AcDb2dVertex
 10
137.9395561721123
 20
128.586121929659
 30
0.0
  0
VERTEX
  5
2ED
330
2E9
100
AcDbEntity
  8
Capa 1
370
     0
100
AcDbVertex
100
AcDb2dVertex
 10
138.8607747048681
 20
128.1251681537326
 30
0.0
  0
VERTEX
  5
2EE
330
2E9
100
AcDbEntity
  8
Capa 1
370
     0
100
AcDbVertex
100
AcDb2dVertex
 10
138.8607747048681
 20
128.1251681537326
 30
0.0
  0
SEQEND
  5
2EF
330
2E9
100
AcDbEntity
  8
Capa 1
370
     0
  0
HATCH
  5
2F0
330
3C
100
AcDbEntity
  8
Capa 1
 62
   250
100
AcDbHatch
 10
0.0
 20
0.0
 30
0.0
210
0.0
220
0.0
230
1.0
  2
SOLID
 70
     1
 71
     0
 91
        1
 92
        1
 93
        3
 72
     1
 10
138.8607747048681
 20
128.1251681537326
 11
137.9395561721123
 21
127.6642143778062
 72
     1
 10
137.9395561721123
 20
127.6642143778062
 11
137.9395561721123
 21
128.586121929659
 72
     1
 10
137.9395561721123
 20
128.586121929659
 11
138.8607747048681
 21
128.1251681537326
 97
        0
 75
     0
 76
     1
 98
        0
  0
POLYLINE
  5
2F1
330
3C
100
AcDbEntity
  8
Capa 1
 62
   250
370
     9
100
AcDb2dPolyline
 66
     1
 10
0.0
 20
0.0
 30
0.0
  0
VERTEX
  5
2F2
330
2F1
100
AcDbEntity
  8
Capa 1
 62
   250
370
     9
100
AcDbVertex
100
AcDb2dVertex
 10
120.6451768361582
 20
145.4726019601596
 30
0.0
  0
VERTEX
  5
2F3
330
2F1
100
AcDbEntity
  8
Capa 1
 62
   250
370
     9
100
AcDbVertex
100
AcDb2dVertex
 10
120.6451768361582
 20
139.9831868139625
 30
0.0
  0
SEQEND
  5
2F4
330
2F1
100
AcDbEntity
  8
Capa 1
370
     9
  0
POLYLINE
  5
2F5
330
3C
100
AcDbEntity
  8
Capa 1
370
     0
100
AcDb2dPolyline
 66
     1
 10
0.0
 20
0.0
 30
0.0
  0
VERTEX
  5
2F6
330
2F5
100
AcDbEntity
  8
Capa 1
370
     0
100
AcDbVertex
100
AcDb2dVertex
 10
120.6451768361582
 20
146.3821071682656
 30
0.0
  0
VERTEX
  5
2F7
330
2F5
100
AcDbEntity
  8
Capa 1
370
     0
100
AcDbVertex
100
AcDb2dVertex
 10
121.1061306120846
 20
145.4601996164127
 30
0.0
  0
VERTEX
  5
2F8
330
2F5
100
AcDbEntity
  8
Capa 1
370
     0
100
AcDbVertex
100
AcDb2dVertex
 10
120.1842230602317
 20
145.4601996164127
 30
0.0
  0
VERTEX
  5
2F9
330
2F5
100
AcDbEntity
  8
Capa 1
370
     0
100
AcDbVertex
100
AcDb2dVertex
 10
120.6451768361582
 20
146.3821071682656
 30
0.0
  0
VERTEX
  5
2FA
330
2F5
100
AcDbEntity
  8
Capa 1
370
     0
100
AcDbVertex
100
AcDb2dVertex
 10
120.6451768361582
 20
146.3821071682656
 30
0.0
  0
SEQEND
  5
2FB
330
2F5
100
AcDbEntity
  8
Capa 1
370
     0
  0
HATCH
  5
2FC
330
3C
100
AcDbEntity
  8
Capa 1
 62
   250
100
AcDbHatch
 10
0.0
 20
0.0
 30
0.0
210
0.0
220
0.0
230
1.0
  2
SOLID
 70
     1
 71
     0
 91
        1
 92
        1
 93
        3
 72
     1
 10
120.6451768361582
 20
146.3821071682656
 11
121.1061306120846
 21
145.4601996164127
 72
     1
 10
121.1061306120846
 20
145.4601996164127
 11
120.1842230602317
 21
145.4601996164127
 72
     1
 10
120.1842230602317
 20
145.4601996164127
 11
120.6451768361582
 21
146.3821071682656
 97
        0
 75
     0
 76
     1
 98
        0
  0
POLYLINE
  5
2FD
330
3C
100
AcDbEntity
  8
Capa 1
 62
   250
370
     9
100
AcDb2dPolyline
 66
     1
 10
0.0
 20
0.0
 30
0.0
  0
VERTEX
  5
2FE
330
2FD
100
AcDbEntity
  8
Capa 1
 62
   250
370
     9
100
AcDbVertex
100
AcDb2dVertex
 10
120.6196831295673
 20
133.2115071281555
 30
0.0
  0
VERTEX
  5
2FF
330
2FD
100
AcDbEntity
  8
Capa 1
 62
   250
370
     9
100
AcDbVertex
100
AcDb2dVertex
 10
120.6196831295673
 20
138.6582030903355
 30
0.0
  0
SEQEND
  5
300
330
2FD
100
AcDbEntity
  8
Capa 1
370
     9
  0
POLYLINE
  5
301
330
3C
100
AcDbEntity
  8
Capa 1
370
     0
100
AcDb2dPolyline
 66
     1
 10
0.0
 20
0.0
 30
0.0
  0
VERTEX
  5
302
330
301
100
AcDbEntity
  8
Capa 1
370
     0
100
AcDbVertex
100
AcDb2dVertex
 10
120.6196831295673
 20
132.3020019200495
 30
0.0
  0
VERTEX
  5
303
330
301
100
AcDbEntity
  8
Capa 1
370
     0
100
AcDbVertex
100
AcDb2dVertex
 10
120.1587293536409
 20
133.2239094719024
 30
0.0
  0
VERTEX
  5
304
330
301
100
AcDbEntity
  8
Capa 1
370
     0
100
AcDbVertex
100
AcDb2dVertex
 10
121.0806369054937
 20
133.2239094719024
 30
0.0
  0
VERTEX
  5
305
330
301
100
AcDbEntity
  8
Capa 1
370
     0
100
AcDbVertex
100
AcDb2dVertex
 10
120.6196831295673
 20
132.3020019200495
 30
0.0
  0
VERTEX
  5
306
330
301
100
AcDbEntity
  8
Capa 1
370
     0
100
AcDbVertex
100
AcDb2dVertex
 10
120.6196831295673
 20
132.3020019200495
 30
0.0
  0
SEQEND
  5
307
330
301
100
AcDbEntity
  8
Capa 1
370
     0
  0
HATCH
  5
308
330
3C
100
AcDbEntity
  8
Capa 1
 62
   250
100
AcDbHatch
 10
0.0
 20
0.0
 30
0.0
210
0.0
220
0.0
230
1.0
  2
SOLID
 70
     1
 71
     0
 91
        1
 92
        1
 93
        3
 72
     1
 10
120.6196831295673
 20
132.3020019200495
 11
120.1587293536409
 21
133.2239094719024
 72
     1
 10
120.1587293536409
 20
133.2239094719024
 11
121.0806369054937
 21
133.2239094719024
 72
     1
 10
121.0806369054937
 20
133.2239094719024
 11
120.6196831295673
 21
132.3020019200495
 97
        0
 75
     0
 76
     1
 98
        0
  0
ENDBLK
  5
3F
330
3C
100
AcDbEntity
  8
0
100
AcDbBlockEnd
  0
ENDSEC
  0
SECTION
  2
ENTITIES
  0
INSERT
  5
3D
330
1F
100
AcDbEntity
  8
Capa 1
100
AcDbBlockReference
  2
block 2
 10
0.0
 20
0.0
 30
0.0
  0
ENDSEC
  0
SECTION
  2
OBJECTS
  0
DICTIONARY
  5
C
330
0
100
AcDbDictionary
281
     1
  3
ACAD_GROUP
350
D
  3
ACAD_LAYOUT
350
1A
  3
ACAD_MLINESTYLE
350
17
  3
ACAD_PLOTSETTINGS
350
19
  3
ACAD_PLOTSTYLENAME
350
E
  3
ACAD_TABLESTYLE
350
309
  3
ACAD_VISUALSTYLE
350
2A
  0
DICTIONARY
  5
D
102
{ACAD_REACTORS
330
C
102
}
330
C
100
AcDbDictionary
281
     1
  0
DICTIONARY
  5
1A
102
{ACAD_REACTORS
330
C
102
}
330
C
100
AcDbDictionary
281
     1
  3
Layout1
350
1E
  3
Layout2
350
26
  3
Model
350
22
  0
DICTIONARY
  5
17
102
{ACAD_REACTORS
330
C
102
}
330
C
100
AcDbDictionary
281
     1
  3
Standard
350
18
  0
DICTIONARY
  5
19
102
{ACAD_REACTORS
330
C
102
}
330
C
100
AcDbDictionary
281
     1
  0
ACDBDICTIONARYWDFLT
  5
E
102
{ACAD_REACTORS
330
C
102
}
330
C
100
AcDbDictionary
281
     1
  3
Normal
350
F
100
AcDbDictionaryWithDefault
340
F
  0
DICTIONARY
  5
309
102
{ACAD_REACTORS
330
C
102
}
330
C
100
AcDbDictionary
281
     1
  0
DICTIONARY
  5
2A
102
{ACAD_REACTORS
330
C
102
}
330
C
100
AcDbDictionary
281
     1
  3
2dWireframe
350
2F
  3
3D Hidden
350
31
  3
3dWireframe
350
30
  3
Basic
350
32
  3
Brighten
350
36
  3
ColorChange
350
3A
  3
Conceptual
350
34
  3
Dim
350
35
  3
Facepattern
350
39
  3
Flat
350
2B
  3
FlatWithEdges
350
2C
  3
Gouraud
350
2D
  3
GouraudWithEdges
350
2E
  3
Linepattern
350
38
  3
Realistic
350
33
  3
Thicken
350
37
  0
LAYOUT
  5
1E
102
{ACAD_REACTORS
330
1A
102
}
330
1A
100
AcDbPlotSettings
  1

  2
none_device
  4

  6

 40
0.0
 41
0.0
 42
0.0
 43
0.0
 44
0.0
 45
0.0
 46
0.0
 47
0.0
 48
0.0
 49
0.0
140
0.0
141
0.0
142
1.0
143
1.0
 70
   688
 72
     0
 73
     0
 74
     5
  7

 75
    16
 76
     0
 77
     2
 78
   300
147
1.0
148
0.0
149
0.0
100
AcDbLayout
  1
Layout1
 70
     1
 71
     1
 10
0.0
 20
0.0
 11
12.0
 21
9.0
 12
0.0
 22
0.0
 32
0.0
 14
1.000000000000000E+20
 24
1.000000000000000E+20
 34
1.000000000000000E+20
 15
-1.000000000000000E+20
 25
-1.000000000000000E+20
 35
-1.000000000000000E+20
146
0.0
 13
0.0
 23
0.0
 33
0.0
 16
1.0
 26
0.0
 36
0.0
 17
0.0
 27
1.0
 37
0.0
 76
     0
330
1B
  0
LAYOUT
  5
26
102
{ACAD_REACTORS
330
1A
102
}
330
1A
100
AcDbPlotSettings
  1

  2
none_device
  4

  6

 40
0.0
 41
0.0
 42
0.0
 43
0.0
 44
0.0
 45
0.0
 46
0.0
 47
0.0
 48
0.0
 49
0.0
140
0.0
141
0.0
142
1.0
143
1.0
 70
   688
 72
     0
 73
     0
 74
     5
  7

 75
    16
 76
     0
 77
     2
 78
   300
147
1.0
148
0.0
149
0.0
100
AcDbLayout
  1
Layout2
 70
     1
 71
     2
 10
0.0
 20
0.0
 11
0.0
 21
0.0
 12
0.0
 22
0.0
 32
0.0
 14
0.0
 24
0.0
 34
0.0
 15
0.0
 25
0.0
 35
0.0
146
0.0
 13
0.0
 23
0.0
 33
0.0
 16
1.0
 26
0.0
 36
0.0
 17
0.0
 27
1.0
 37
0.0
 76
     0
330
23
  0
LAYOUT
  5
22
102
{ACAD_REACTORS
330
1A
102
}
330
1A
100
AcDbPlotSettings
  1

  2
none_device
  4

  6

 40
0.0
 41
0.0
 42
0.0
 43
0.0
 44
0.0
 45
0.0
 46
0.0
 47
0.0
 48
0.0
 49
0.0
140
0.0
141
0.0
142
1.0
143
1.0
 70
  1712
 72
     0
 73
     0
 74
     0
  7

 75
     0
 76
     0
 77
     2
 78
   300
147
1.0
148
0.0
149
0.0
100
AcDbLayout
  1
Model
 70
     1
 71
     0
 10
0.0
 20
0.0
 11
12.0
 21
9.0
 12
0.0
 22
0.0
 32
0.0
 14
1.000000000000000E+20
 24
1.000000000000000E+20
 34
1.000000000000000E+20
 15
-1.000000000000000E+20
 25
-1.000000000000000E+20
 35
-1.000000000000000E+20
146
0.0
 13
0.0
 23
0.0
 33
0.0
 16
1.0
 26
0.0
 36
0.0
 17
0.0
 27
1.0
 37
0.0
 76
     0
330
1F
331
29
  0
MLINESTYLE
  5
18
102
{ACAD_REACTORS
330
17
102
}
330
17
100
AcDbMlineStyle
  2
Standard
 70
     0
  3

 62
   256
 51
90.0
 52
90.0
 71
     2
 49
0.5
 62
   256
  6
BYLAYER
 49
-0.5
 62
   256
  6
BYLAYER
  0
ACDBPLACEHOLDER
  5
F
102
{ACAD_REACTORS
330
E
102
}
330
E
  0
VISUALSTYLE
  5
2F
102
{ACAD_REACTORS
330
2A
102
}
330
2A
100
AcDbVisualStyle
  2
2dWireframe
 70
     4
 71
     0
 72
     2
 73
     0
 90
        0
 40
-0.6
 41
-30.0
 62
     5
 63
     7
421
 16777215
 74
     1
 91
        4
 64
     7
 65
   257
 75
     1
175
     1
 42
1.0
 92
        0
 66
   257
 43
1.0
 76
     1
 77
     6
 78
     2
 67
     7
 79
     5
170
     0
171
     0
290
     0
174
     0
 93
        1
 44
0.0
173
     0
291
     0
 45
0.0
1001
ACAD
1000
AcDbSavedByObjectVersion
1070
     0
  0
VISUALSTYLE
  5
31
102
{ACAD_REACTORS
330
2A
102
}
330
2A
100
AcDbVisualStyle
  2
3D Hidden
 70
     6
 71
     1
 72
     2
 73
     2
 90
        0
 40
-0.6
 41
-30.0
 62
     5
 63
     7
421
 16777215
 74
     2
 91
        2
 64
     7
 65
   257
 75
     2
175
     1
 42
40.0
 92
        0
 66
   257
 43
1.0
 76
     1
 77
     6
 78
     2
 67
     7
 79
     3
170
     0
171
     0
290
     0
174
     0
 93
        1
 44
0.0
173
     0
291
     0
 45
0.0
1001
ACAD
1000
AcDbSavedByObjectVersion
1070
     0
  0
VISUALSTYLE
  5
30
102
{ACAD_REACTORS
330
2A
102
}
330
2A
100
AcDbVisualStyle
  2
3dWireframe
 70
     5
 71
     0
 72
     2
 73
     0
 90
        0
 40
-0.6
 41
-30.0
 62
     5
 63
     7
421
 16777215
 74
     1
 91
        4
 64
     7
 65
   257
 75
     1
175
     1
 42
1.0
 92
        0
 66
   257
 43
1.0
 76
     1
 77
     6
 78
     2
 67
     7
 79
     5
170
     0
171
     0
290
     0
174
     0
 93
        1
 44
0.0
173
     0
291
     0
 45
0.0
1001
ACAD
1000
AcDbSavedByObjectVersion
1070
     0
  0
VISUALSTYLE
  5
32
102
{ACAD_REACTORS
330
2A
102
}
330
2A
100
AcDbVisualStyle
  2
Basic
 70
     7
 71
     1
 72
     0
 73
     1
 90
        0
 40
-0.6
 41
-30.0
 62
     5
 63
     7
421
 16777215
 74
     0
 91
        4
 64
     7
 65
   257
 75
     1
175
     1
 42
1.0
 92
        8
 66
     7
 43
1.0
 76
     1
 77
     6
 78
     2
 67
     7
 79
     5
170
     0
171
     0
290
     0
174
     0
 93
        1
 44
0.0
173
     0
291
     1
 45
0.0
1001
ACAD
1000
AcDbSavedByObjectVersion
1070
     0
  0
VISUALSTYLE
  5
36
102
{ACAD_REACTORS
330
2A
102
}
330
2A
100
AcDbVisualStyle
  2
Brighten
 70
    12
 71
     2
 72
     2
 73
     0
 90
        0
 40
-0.6
 41
-30.0
 62
     5
 63
     7
421
 16777215
 74
     1
 91
        4
 64
     7
 65
   257
 75
     1
175
     1
 42
1.0
 92
        8
 66
     7
 43
1.0
 76
     1
 77
     6
 78
     2
 67
     7
 79
     5
170
     0
171
     0
290
     0
174
     0
 93
        1
 44
50.0
173
     0
291
     1
 45
0.0
1001
ACAD
1000
AcDbSavedByObjectVersion
1070
     0
  0
VISUALSTYLE
  5
3A
102
{ACAD_REACTORS
330
2A
102
}
330
2A
100
AcDbVisualStyle
  2
ColorChange
 70
    16
 71
     2
 72
     2
 73
     3
 90
        0
 40
-0.6
 41
-30.0
 62
     5
 63
     8
421
  8421504
 74
     1
 91
        4
 64
     7
 65
   257
 75
     1
175
     1
 42
1.0
 92
        8
 66
     8
424
  8421504
 43
1.0
 76
     1
 77
     6
 78
     2
 67
     7
 79
     5
170
     0
171
     0
290
     0
174
     0
 93
        1
 44
0.0
173
     0
291
     1
 45
0.0
1001
ACAD
1000
AcDbSavedByObjectVersion
1070
     0
  0
VISUALSTYLE
  5
34
102
{ACAD_REACTORS
330
2A
102
}
330
2A
100
AcDbVisualStyle
  2
Conceptual
 70
     9
 71
     3
 72
     2
 73
     0
 90
        0
 40
-0.6
 41
-30.0
 62
     5
 63
     7
421
 16777215
 74
     2
 91
        2
 64
     7
 65
   257
 75
     1
175
     1
 42
40.0
 92
        8
 66
     7
 43
1.0
 76
     1
 77
     6
 78
     2
 67
     7
 79
     3
170
     0
171
     0
290
     0
174
     0
 93
        1
 44
0.0
173
     0
291
     0
 45
0.0
1001
ACAD
1000
AcDbSavedByObjectVersion
1070
     0
  0
VISUALSTYLE
  5
35
102
{ACAD_REACTORS
330
2A
102
}
330
2A
100
AcDbVisualStyle
  2
Dim
 70
    11
 71
     2
 72
     2
 73
     0
 90
        0
 40
-0.6
 41
-30.0
 62
     5
 63
     7
421
 16777215
 74
     1
 91
        4
 64
     7
 65
   257
 75
     1
175
     1
 42
1.0
 92
        8
 66
     7
 43
1.0
 76
     1
 77
     6
 78
     2
 67
     7
 79
     5
170
     0
171
     0
290
     0
174
     0
 93
        1
 44
-50.0
173
     0
291
     1
 45
0.0
1001
ACAD
1000
AcDbSavedByObjectVersion
1070
     0
  0
VISUALSTYLE
  5
39
102
{ACAD_REACTORS
330
2A
102
}
330
2A
100
AcDbVisualStyle
  2
Facepattern
 70
    15
 71
     2
 72
     2
 73
     0
 90
        0
 40
-0.6
 41
-30.0
 62
     5
 63
     7
421
 16777215
 74
     1
 91
        4
 64
     7
 65
   257
 75
     1
175
     1
 42
1.0
 92
        8
 66
     7
 43
1.0
 76
     1
 77
     6
 78
     2
 67
     7
 79
     5
170
     0
171
     0
290
     0
174
     0
 93
        1
 44
0.0
173
     0
291
     1
 45
0.0
1001
ACAD
1000
AcDbSavedByObjectVersion
1070
     0
  0
VISUALSTYLE
  5
2B
102
{ACAD_REACTORS
330
2A
102
}
330
2A
100
AcDbVisualStyle
  2
Flat
 70
     0
 71
     2
 72
     1
 73
     1
 90
        2
 40
-0.6
 41
30.0
 62
     5
 63
     7
421
 16777215
 74
     0
 91
        4
 64
     7
 65
   257
 75
     1
175
     1
 42
1.0
 92
        8
 66
     7
 43
1.0
 76
     1
 77
     6
 78
     2
 67
     7
 79
     5
170
     0
171
     0
290
     0
174
     0
 93
       13
 44
0.0
173
     0
291
     1
 45
0.0
1001
ACAD
1000
AcDbSavedByObjectVersion
1070
     0
  0
VISUALSTYLE
  5
2C
102
{ACAD_REACTORS
330
2A
102
}
330
2A
100
AcDbVisualStyle
  2
FlatWithEdges
 70
     1
 71
     2
 72
     1
 73
     1
 90
        2
 40
-0.6
 41
30.0
 62
     5
 63
     7
421
 16777215
 74
     1
 91
        4
 64
     7
 65
   257
 75
     1
175
     1
 42
1.0
 92
        0
 66
   257
 43
1.0
 76
     1
 77
     6
 78
     2
 67
     7
 79
     5
170
     0
171
     0
290
     0
174
     0
 93
       13
 44
0.0
173
     0
291
     1
 45
0.0
1001
ACAD
1000
AcDbSavedByObjectVersion
1070
     0
  0
VISUALSTYLE
  5
2D
102
{ACAD_REACTORS
330
2A
102
}
330
2A
100
AcDbVisualStyle
  2
Gouraud
 70
     2
 71
     2
 72
     2
 73
     1
 90
        2
 40
-0.6
 41
30.0
 62
     5
 63
     7
421
 16777215
 74
     0
 91
        4
 64
     7
 65
   257
 75
     1
175
     1
 42
1.0
 92
        0
 66
     7
 43
1.0
 76
     1
 77
     6
 78
     2
 67
     7
 79
     5
170
     0
171
     0
290
     0
174
     0
 93
       13
 44
0.0
173
     0
291
     1
 45
0.0
1001
ACAD
1000
AcDbSavedByObjectVersion
1070
     0
  0
VISUALSTYLE
  5
2E
102
{ACAD_REACTORS
330
2A
102
}
330
2A
100
AcDbVisualStyle
  2
GouraudWithEdges
 70
     3
 71
     2
 72
     2
 73
     1
 90
        2
 40
-0.6
 41
30.0
 62
     5
 63
     7
421
 16777215
 74
     1
 91
        4
 64
     7
 65
   257
 75
     1
175
     1
 42
1.0
 92
        0
 66
   257
 43
1.0
 76
     1
 77
     6
 78
     2
 67
     7
 79
     5
170
     0
171
     0
290
     0
174
     0
 93
       13
 44
0.0
173
     0
291
     1
 45
0.0
1001
ACAD
1000
AcDbSavedByObjectVersion
1070
     0
  0
VISUALSTYLE
  5
38
102
{ACAD_REACTORS
330
2A
102
}
330
2A
100
AcDbVisualStyle
  2
Linepattern
 70
    14
 71
     2
 72
     2
 73
     0
 90
        0
 40
-0.6
 41
-30.0
 62
     5
 63
     7
421
 16777215
 74
     1
 91
        4
 64
     7
 65
   257
 75
     7
175
     7
 42
1.0
 92
        8
 66
     7
 43
1.0
 76
     1
 77
     6
 78
     2
 67
     7
 79
     5
170
     0
171
     0
290
     0
174
     0
 93
        1
 44
0.0
173
     0
291
     1
 45
0.0
1001
ACAD
1000
AcDbSavedByObjectVersion
1070
     0
  0
VISUALSTYLE
  5
33
102
{ACAD_REACTORS
330
2A
102
}
330
2A
100
AcDbVisualStyle
  2
Realistic
 70
     8
 71
     2
 72
     2
 73
     0
 90
        0
 40
-0.6
 41
-30.0
 62
     5
 63
     7
421
 16777215
 74
     1
 91
        0
 64
     7
 65
   257
 75
     1
175
     1
 42
1.0
 92
        8
 66
     8
424
  7895160
 43
1.0
 76
     1
 77
     6
 78
     2
 67
     7
 79
     5
170
     0
171
     0
290
     0
174
     0
 93
       13
 44
0.0
173
     0
291
     0
 45
0.0
1001
ACAD
1000
AcDbSavedByObjectVersion
1070
     0
  0
VISUALSTYLE
  5
37
102
{ACAD_REACTORS
330
2A
102
}
330
2A
100
AcDbVisualStyle
  2
Thicken
 70
    13
 71
     2
 72
     2
 73
     0
 90
        0
 40
-0.6
 41
-30.0
 62
     5
 63
     7
421
 16777215
 74
     1
 91
        4
 64
     7
 65
   257
 75
     1
175
     1
 42
1.0
 92
       12
 66
     7
 43
1.0
 76
     1
 77
     6
 78
     2
 67
     7
 79
     5
170
     0
171
     0
290
     0
174
     0
 93
        1
 44
0.0
173
     0
291
     1
 45
0.0
1001
ACAD
1000
AcDbSavedByObjectVersion
1070
     0
  0
ENDSEC
  0
EOF
