  0
SECTION
  2
HEADER
  9
$ACADVER
  1
AC1027
  9
$ACADMAINTVER
 70
   125
  9
$DWGCODEPAGE
  3
ANSI_1252
  9
$REQUIREDVERSIONS
160
                 0
  9
$INSBASE
 10
0.0
 20
0.0
 30
0.0
  9
$EXTMIN
 10
1.000000000000000E+20
 20
1.000000000000000E+20
 30
1.000000000000000E+20
  9
$EXTMAX
 10
-1.000000000000000E+20
 20
-1.000000000000000E+20
 30
-1.000000000000000E+20
  9
$LIMMIN
 10
0.0
 20
0.0
  9
$LIMMAX
 10
12.0
 20
9.0
  9
$ORTHOMODE
 70
     0
  9
$REGENMODE
 70
     1
  9
$FILLMODE
 70
     1
  9
$QTEXTMODE
 70
     0
  9
$MIRRTEXT
 70
     0
  9
$LTSCALE
 40
1.0
  9
$ATTMODE
 70
     1
  9
$TEXTSIZE
 40
0.2
  9
$TRACEWID
 40
0.05
  9
$TEXTSTYLE
  7
Standard
  9
$CLAYER
  8
0
  9
$CELTYPE
  6
ByLayer
  9
$CECOLOR
 62
   256
  9
$CELTSCALE
 40
1.0
  9
$DISPSILH
 70
     0
  9
$DIMSCALE
 40
1.0
  9
$DIMASZ
 40
0.18
  9
$DIMEXO
 40
0.0625
  9
$DIMDLI
 40
0.38
  9
$DIMRND
 40
0.0
  9
$DIMDLE
 40
0.0
  9
$DIMEXE
 40
0.18
  9
$DIMTP
 40
0.0
  9
$DIMTM
 40
0.0
  9
$DIMTXT
 40
0.18
  9
$DIMCEN
 40
0.09
  9
$DIMTSZ
 40
0.0
  9
$DIMTOL
 70
     0
  9
$DIMLIM
 70
     0
  9
$DIMTIH
 70
     1
  9
$DIMTOH
 70
     1
  9
$DIMSE1
 70
     0
  9
$DIMSE2
 70
     0
  9
$DIMTAD
 70
     0
  9
$DIMZIN
 70
     0
  9
$DIMBLK
  1

  9
$DIMASO
 70
     1
  9
$DIMSHO
 70
     1
  9
$DIMPOST
  1

  9
$DIMAPOST
  1

  9
$DIMALT
 70
     0
  9
$DIMALTD
 70
     2
  9
$DIMALTF
 40
25.4
  9
$DIMLFAC
 40
1.0
  9
$DIMTOFL
 70
     0
  9
$DIMTVP
 40
0.0
  9
$DIMTIX
 70
     0
  9
$DIMSOXD
 70
     0
  9
$DIMSAH
 70
     0
  9
$DIMBLK1
  1

  9
$DIMBLK2
  1

  9
$DIMSTYLE
  2
Standard
  9
$DIMCLRD
 70
     0
  9
$DIMCLRE
 70
     0
  9
$DIMCLRT
 70
     0
  9
$DIMTFAC
 40
1.0
  9
$DIMGAP
 40
0.09
  9
$DIMJUST
 70
     0
  9
$DIMSD1
 70
     0
  9
$DIMSD2
 70
     0
  9
$DIMTOLJ
 70
     1
  9
$DIMTZIN
 70
     0
  9
$DIMALTZ
 70
     0
  9
$DIMALTTZ
 70
     0
  9
$DIMUPT
 70
     0
  9
$DIMDEC
 70
     4
  9
$DIMTDEC
 70
     4
  9
$DIMALTU
 70
     2
  9
$DIMALTTD
 70
     2
  9
$DIMTXSTY
  7
Standard
  9
$DIMAUNIT
 70
     0
  9
$DIMADEC
 70
     0
  9
$DIMALTRND
 40
0.0
  9
$DIMAZIN
 70
     0
  9
$DIMDSEP
 70
    46
  9
$DIMATFIT
 70
     3
  9
$DIMFRAC
 70
     0
  9
$DIMLDRBLK
  1

  9
$DIMLUNIT
 70
     2
  9
$DIMLWD
 70
    -2
  9
$DIMLWE
 70
    -2
  9
$DIMTMOVE
 70
     0
  9
$DIMFXL
 40
1.0
  9
$DIMFXLON
 70
     0
  9
$DIMJOGANG
 40
0.7853981633974483
  9
$DIMTFILL
 70
     0
  9
$DIMTFILLCLR
 70
     0
  9
$DIMARCSYM
 70
     0
  9
$DIMLTYPE
  6

  9
$DIMLTEX1
  6

  9
$DIMLTEX2
  6

  9
$DIMTXTDIRECTION
 70
     0
  9
$LUNITS
 70
     2
  9
$LUPREC
 70
     4
  9
$SKETCHINC
 40
0.1
  9
$FILLETRAD
 40
0.0
  9
$AUNITS
 70
     0
  9
$AUPREC
 70
     0
  9
$MENU
  1
.
  9
$ELEVATION
 40
0.0
  9
$PELEVATION
 40
0.0
  9
$THICKNESS
 40
0.0
  9
$LIMCHECK
 70
     0
  9
$CHAMFERA
 40
0.0
  9
$CHAMFERB
 40
0.0
  9
$CHAMFERC
 40
0.0
  9
$CHAMFERD
 40
0.0
  9
$SKPOLY
 70
     0
  9
$TDCREATE
 40
2459495.443506944
  9
$TDUCREATE
 40
2459495.360173611
  9
$TDUPDATE
 40
2459495.443506944
  9
$TDUUPDATE
 40
2459495.360173611
  9
$TDINDWG
 40
0.0000231481
  9
$TDUSRTIMER
 40
0.0000231481
  9
$USRTIMER
 70
     1
  9
$ANGBASE
 50
0.0
  9
$ANGDIR
 70
     0
  9
$PDMODE
 70
     0
  9
$PDSIZE
 40
0.0
  9
$PLINEWID
 40
0.0
  9
$SPLFRAME
 70
     0
  9
$SPLINETYPE
 70
     6
  9
$SPLINESEGS
 70
     8
  9
$HANDSEED
  5
230
  9
$SURFTAB1
 70
     6
  9
$SURFTAB2
 70
     6
  9
$SURFTYPE
 70
     6
  9
$SURFU
 70
     6
  9
$SURFV
 70
     6
  9
$UCSBASE
  2

  9
$UCSNAME
  2

  9
$UCSORG
 10
0.0
 20
0.0
 30
0.0
  9
$UCSXDIR
 10
1.0
 20
0.0
 30
0.0
  9
$UCSYDIR
 10
0.0
 20
1.0
 30
0.0
  9
$UCSORTHOREF
  2

  9
$UCSORTHOVIEW
 70
     0
  9
$UCSORGTOP
 10
0.0
 20
0.0
 30
0.0
  9
$UCSORGBOTTOM
 10
0.0
 20
0.0
 30
0.0
  9
$UCSORGLEFT
 10
0.0
 20
0.0
 30
0.0
  9
$UCSORGRIGHT
 10
0.0
 20
0.0
 30
0.0
  9
$UCSORGFRONT
 10
0.0
 20
0.0
 30
0.0
  9
$UCSORGBACK
 10
0.0
 20
0.0
 30
0.0
  9
$PUCSBASE
  2

  9
$PUCSNAME
  2

  9
$PUCSORG
 10
0.0
 20
0.0
 30
0.0
  9
$PUCSXDIR
 10
1.0
 20
0.0
 30
0.0
  9
$PUCSYDIR
 10
0.0
 20
1.0
 30
0.0
  9
$PUCSORTHOREF
  2

  9
$PUCSORTHOVIEW
 70
     0
  9
$PUCSORGTOP
 10
0.0
 20
0.0
 30
0.0
  9
$PUCSORGBOTTOM
 10
0.0
 20
0.0
 30
0.0
  9
$PUCSORGLEFT
 10
0.0
 20
0.0
 30
0.0
  9
$PUCSORGRIGHT
 10
0.0
 20
0.0
 30
0.0
  9
$PUCSORGFRONT
 10
0.0
 20
0.0
 30
0.0
  9
$PUCSORGBACK
 10
0.0
 20
0.0
 30
0.0
  9
$USERI1
 70
     0
  9
$USERI2
 70
     0
  9
$USERI3
 70
     0
  9
$USERI4
 70
     0
  9
$USERI5
 70
     0
  9
$USERR1
 40
0.0
  9
$USERR2
 40
0.0
  9
$USERR3
 40
0.0
  9
$USERR4
 40
0.0
  9
$USERR5
 40
0.0
  9
$WORLDVIEW
 70
     1
  9
$SHADEDGE
 70
     3
  9
$SHADEDIF
 70
    70
  9
$TILEMODE
 70
     1
  9
$MAXACTVP
 70
    64
  9
$PINSBASE
 10
0.0
 20
0.0
 30
0.0
  9
$PLIMCHECK
 70
     0
  9
$PEXTMIN
 10
1.000000000000000E+20
 20
1.000000000000000E+20
 30
1.000000000000000E+20
  9
$PEXTMAX
 10
-1.000000000000000E+20
 20
-1.000000000000000E+20
 30
-1.000000000000000E+20
  9
$PLIMMIN
 10
0.0
 20
0.0
  9
$PLIMMAX
 10
12.0
 20
9.0
  9
$UNITMODE
 70
     0
  9
$VISRETAIN
 70
     1
  9
$PLINEGEN
 70
     0
  9
$PSLTSCALE
 70
     1
  9
$TREEDEPTH
 70
  3020
  9
$CMLSTYLE
  2
Standard
  9
$CMLJUST
 70
     0
  9
$CMLSCALE
 40
1.0
  9
$PROXYGRAPHICS
 70
     1
  9
$MEASUREMENT
 70
     0
  9
$CELWEIGHT
370
    -1
  9
$ENDCAPS
280
     0
  9
$JOINSTYLE
280
     0
  9
$LWDISPLAY
290
     1
  9
$INSUNITS
 70
     4
  9
$HYPERLINKBASE
  1

  9
$STYLESHEET
  1

  9
$XEDIT
290
     1
  9
$CEPSNTYPE
380
     0
  9
$PSTYLEMODE
290
     1
  9
$FINGERPRINTGUID
  2
{9A087362-8F5F-7045-9145-5FC76C664643}
  9
$VERSIONGUID
  2
{1ECC5A25-5462-7046-9B4C-0E71940594BD}
  9
$EXTNAMES
290
     1
  9
$PSVPSCALE
 40
0.0
  9
$OLESTARTUP
290
     0
  9
$SORTENTS
280
   127
  9
$INDEXCTL
280
     0
  9
$HIDETEXT
280
     1
  9
$XCLIPFRAME
280
     2
  9
$HALOGAP
280
     0
  9
$OBSCOLOR
 70
   257
  9
$OBSLTYPE
280
     0
  9
$INTERSECTIONDISPLAY
280
     0
  9
$INTERSECTIONCOLOR
 70
   257
  9
$DIMASSOC
280
     2
  9
$PROJECTNAME
  1

  9
$CAMERADISPLAY
290
     0
  9
$LENSLENGTH
 40
50.0
  9
$CAMERAHEIGHT
 40
0.0
  9
$STEPSPERSEC
 40
2.0
  9
$STEPSIZE
 40
6.0
  9
$3DDWFPREC
 40
2.0
  9
$PSOLWIDTH
 40
0.25
  9
$PSOLHEIGHT
 40
4.0
  9
$LOFTANG1
 40
1.570796326794896
  9
$LOFTANG2
 40
1.570796326794896
  9
$LOFTMAG1
 40
0.0
  9
$LOFTMAG2
 40
0.0
  9
$LOFTPARAM
 70
     7
  9
$LOFTNORMALS
280
     1
  9
$LATITUDE
 40
37.795
  9
$LONGITUDE
 40
-122.394
  9
$NORTHDIRECTION
 40
0.0
  9
$TIMEZONE
 70
 -8000
  9
$LIGHTGLYPHDISPLAY
280
     1
  9
$TILEMODELIGHTSYNCH
280
     1
  9
$CMATERIAL
347
11
  9
$SOLIDHIST
280
     0
  9
$SHOWHIST
280
     1
  9
$DWFFRAME
280
     2
  9
$DGNFRAME
280
     0
  9
$REALWORLDSCALE
290
     1
  9
$INTERFERECOLOR
 62
     1
  9
$INTERFEREOBJVS
345
33
  9
$INTERFEREVPVS
346
30
  9
$CSHADOW
280
     0
  9
$SHADOWPLANELOCATION
 40
0.0
  0
ENDSEC
  0
SECTION
  2
CLASSES
  0
CLASS
  1
ACDBDICTIONARYWDFLT
  2
AcDbDictionaryWithDefault
  3
ObjectDBX Classes
 90
        0
 91
        1
280
     0
281
     0
  0
CLASS
  1
MATERIAL
  2
AcDbMaterial
  3
ObjectDBX Classes
 90
     1153
 91
        3
280
     0
281
     0
  0
CLASS
  1
VISUALSTYLE
  2
AcDbVisualStyle
  3
ObjectDBX Classes
 90
     4095
 91
       24
280
     0
281
     0
  0
CLASS
  1
SCALE
  2
AcDbScale
  3
ObjectDBX Classes
 90
     1153
 91
       17
280
     0
281
     0
  0
CLASS
  1
TABLESTYLE
  2
AcDbTableStyle
  3
ObjectDBX Classes
 90
     4095
 91
        1
280
     0
281
     0
  0
CLASS
  1
MLEADERSTYLE
  2
AcDbMLeaderStyle
  3
ACDB_MLEADERSTYLE_CLASS
 90
     4095
 91
        1
280
     0
281
     0
  0
CLASS
  1
ACDBSECTIONVIEWSTYLE
  2
AcDbSectionViewStyle
  3
ObjectDBX Classes
 90
     1025
 91
        1
280
     0
281
     0
  0
CLASS
  1
ACDBDETAILVIEWSTYLE
  2
AcDbDetailViewStyle
  3
ObjectDBX Classes
 90
     1025
 91
        1
280
     0
281
     0
  0
CLASS
  1
DICTIONARYVAR
  2
AcDbDictionaryVar
  3
ObjectDBX Classes
 90
        0
 91
        5
280
     0
281
     0
  0
CLASS
  1
CELLSTYLEMAP
  2
AcDbCellStyleMap
  3
ObjectDBX Classes
 90
     1152
 91
        1
280
     0
281
     0
  0
ENDSEC
  0
SECTION
  2
TABLES
  0
TABLE
  2
VPORT
  5
8
330
0
100
AcDbSymbolTable
 70
     1
1001
ACAD
1000
DbSaveVer
1071
      205
  0
VPORT
  5
57
330
8
100
AcDbSymbolTableRecord
100
AcDbViewportTableRecord
  2
*Active
 70
     0
 10
0.0
 20
0.0
 11
1.0
 21
1.0
 12
0.0
 22
0.0
 13
0.0
 23
0.0
 14
1.0
 24
1.0
 15
0.0
 25
0.0
 16
0.0
 26
0.0
 36
1.0
 17
98.02394734391546
 27
-149.1024561030759
 37
0.0
 40
43.77088419958384
 41
1.258566978193143
 42
50.0
 43
0.0
 44
0.0
 50
0.0
 51
0.0
 71
     0
 72
   100
 73
     1
 74
     0
 75
     1
 76
     0
 77
     0
 78
     0
281
     0
 65
     1
110
0.0
120
0.0
130
0.0
111
1.0
121
0.0
131
0.0
112
0.0
122
1.0
132
0.0
 79
     0
146
0.0
 60
     3
 61
     5
292
     1
282
     1
141
0.0
142
0.0
 63
   250
421
  3355443
  0
ENDTAB
  0
TABLE
  2
LTYPE
  5
5
330
0
100
AcDbSymbolTable
 70
     1
  0
LTYPE
  5
5B
330
5
100
AcDbSymbolTableRecord
100
AcDbLinetypeTableRecord
  2
ByBlock
 70
     0
  3

 72
    65
 73
     0
 40
0.0
  0
LTYPE
  5
5C
330
5
100
AcDbSymbolTableRecord
100
AcDbLinetypeTableRecord
  2
ByLayer
 70
     0
  3

 72
    65
 73
     0
 40
0.0
  0
LTYPE
  5
5D
330
5
100
AcDbSymbolTableRecord
100
AcDbLinetypeTableRecord
  2
Continuous
 70
     0
  3
Solid line
 72
    65
 73
     0
 40
0.0
  0
ENDTAB
  0
TABLE
  2
LAYER
  5
2
330
0
100
AcDbSymbolTable
 70
     2
  0
LAYER
  5
54
330
2
100
AcDbSymbolTableRecord
100
AcDbLayerTableRecord
  2
0
 70
     0
 62
     7
  6
Continuous
370
    -3
390
F
347
21
348
0
  0
LAYER
  5
78
330
2
100
AcDbSymbolTableRecord
100
AcDbLayerTableRecord
  2
Capa 1
 70
     0
 62
     7
  6
Continuous
370
     0
390
F
347
21
348
0
  0
ENDTAB
  0
TABLE
  2
STYLE
  5
3
330
0
100
AcDbSymbolTable
 70
     2
  0
STYLE
  5
55
330
3
100
AcDbSymbolTableRecord
100
AcDbTextStyleTableRecord
  2
Standard
 70
     0
 40
0.0
 41
1.0
 50
0.0
 71
     0
 42
0.2
  3
txt
  4

  0
STYLE
  5
5A
330
3
100
AcDbSymbolTableRecord
100
AcDbTextStyleTableRecord
  2
Annotative
 70
     0
 40
0.0
 41
1.0
 50
0.0
 71
     0
 42
0.2
  3
txt
  4

1001
AcadAnnotative
1000
AnnotativeData
1002
{
1070
     1
1070
     1
1002
}
  0
ENDTAB
  0
TABLE
  2
VIEW
  5
6
330
0
100
AcDbSymbolTable
 70
     0
  0
ENDTAB
  0
TABLE
  2
UCS
  5
7
330
0
100
AcDbSymbolTable
 70
     0
  0
ENDTAB
  0
TABLE
  2
APPID
  5
9
330
0
100
AcDbSymbolTable
 70
     2
  0
APPID
  5
56
330
9
100
AcDbSymbolTableRecord
100
AcDbRegAppTableRecord
  2
ACAD
 70
     0
  0
APPID
  5
5E
330
9
100
AcDbSymbolTableRecord
100
AcDbRegAppTableRecord
  2
AcadAnnotative
 70
     0
  0
ENDTAB
  0
TABLE
  2
DIMSTYLE
  5
A
330
0
100
AcDbSymbolTable
 70
     2
100
AcDbDimStyleTable
 71
     0
  0
DIMSTYLE
105
58
330
A
100
AcDbSymbolTableRecord
100
AcDbDimStyleTableRecord
  2
Standard
 70
     0
340
55
  0
DIMSTYLE
105
59
330
A
100
AcDbSymbolTableRecord
100
AcDbDimStyleTableRecord
  2
Annotative
 70
     0
340
55
1001
AcadAnnotative
1000
AnnotativeData
1002
{
1070
     1
1070
     1
1002
}
  0
ENDTAB
  0
TABLE
  2
BLOCK_RECORD
  5
1
330
0
100
AcDbSymbolTable
 70
     1
  0
BLOCK_RECORD
  5
70
330
1
100
AcDbSymbolTableRecord
100
AcDbBlockTableRecord
  2
*Model_Space
340
73
 70
     0
280
     1
281
     0
  0
BLOCK_RECORD
  5
6C
330
1
100
AcDbSymbolTableRecord
100
AcDbBlockTableRecord
  2
*Paper_Space
340
6F
 70
     0
280
     1
281
     0
  0
BLOCK_RECORD
  5
74
330
1
100
AcDbSymbolTableRecord
100
AcDbBlockTableRecord
  2
*Paper_Space0
340
77
 70
     0
280
     1
281
     0
  0
ENDTAB
  0
ENDSEC
  0
SECTION
  2
BLOCKS
  0
BLOCK
  5
71
330
70
100
AcDbEntity
  8
0
100
AcDbBlockBegin
  2
*Model_Space
 70
     0
 10
0.0
 20
0.0
 30
0.0
  3
*Model_Space
  1

  0
ENDBLK
  5
72
330
70
100
AcDbEntity
  8
0
100
AcDbBlockEnd
  0
BLOCK
  5
6D
330
6C
100
AcDbEntity
 67
     1
  8
0
100
AcDbBlockBegin
  2
*Paper_Space
 70
     0
 10
0.0
 20
0.0
 30
0.0
  3
*Paper_Space
  1

  0
ENDBLK
  5
6E
330
6C
100
AcDbEntity
 67
     1
  8
0
100
AcDbBlockEnd
  0
BLOCK
  5
75
330
74
100
AcDbEntity
 67
     1
  8
0
100
AcDbBlockBegin
  2
*Paper_Space0
 70
     0
 10
0.0
 20
0.0
 30
0.0
  3
*Paper_Space0
  1

  0
ENDBLK
  5
76
330
74
100
AcDbEntity
 67
     1
  8
0
100
AcDbBlockEnd
  0
ENDSEC
  0
SECTION
  2
ENTITIES
  0
MTEXT
  5
79
330
70
100
AcDbEntity
  8
Capa 1
100
AcDbMText
 10
91.54393850792999
 20
-134.010704685193
 30
0.0
 40
0.2
 41
0.0
 46
0.0
 71
     7
 72
     1
  1
\C250;\c1776925;\FNetto Pro|b0|i0|c1;\H1.248833;\W0.800000;144
 73
     1
 44
1.0
  0
LINE
  5
7A
330
70
100
AcDbEntity
  8
Capa 1
 62
   250
420
  1907995
370
     9
100
AcDbLine
 10
79.70405917079751
 20
-138.5058068709608
 30
0.0
 11
79.70405917079751
 21
-133.8343045471799
 31
0.0
  0
LINE
  5
7B
330
70
100
AcDbEntity
  8
Capa 1
 62
   250
420
  1907995
370
     9
100
AcDbLine
 10
105.1040591644475
 20
-138.5058068709608
 30
0.0
 11
105.1040591644475
 21
-133.8343045471799
 31
0.0
  0
LINE
  5
7C
330
70
100
AcDbEntity
  8
Capa 1
 62
   250
420
  1907995
370
     9
100
AcDbLine
 10
79.70405917079751
 20
-134.1870823248695
 30
0.0
 11
92.4040591676225
 21
-134.1870823248695
 31
0.0
  0
LINE
  5
7D
330
70
100
AcDbEntity
  8
Capa 1
 62
   250
420
  1907995
370
     9
100
AcDbLine
 10
105.1040591644475
 20
-134.1870823248695
 30
0.0
 11
92.4040591676225
 21
-134.1870823248695
 31
0.0
  0
LWPOLYLINE
  5
7E
330
70
100
AcDbEntity
  8
Capa 1
100
AcDbPolyline
 90
        3
 70
     1
 43
0.0
 10
79.70405917079751
 20
-134.1870823248695
 10
80.40961472617667
 20
-134.0106934360247
 10
80.40961472617667
 20
-134.3634712137143
  0
HATCH
  5
7F
330
70
100
AcDbEntity
  8
Capa 1
 62
   250
420
  1907995
440
 33554687
100
AcDbHatch
 10
0.0
 20
0.0
 30
0.0
210
0.0
220
0.0
230
1.0
  2
SOLID
 70
     1
 71
     1
 91
        1
 92
        1
 93
        3
 72
     1
 10
79.70405917079751
 20
-134.1870823248695
 11
80.40961472617667
 21
-134.0106934360247
 72
     1
 10
80.40961472617667
 20
-134.0106934360247
 11
80.40961472617667
 21
-134.3634712137143
 72
     1
 10
80.40961472617667
 20
-134.3634712137143
 11
79.70405917079751
 21
-134.1870823248695
 97
        1
330
7E
 75
     2
 76
     1
 98
        1
 10
0.0
 20
0.0
450
        0
451
        0
460
0.0
461
0.0
452
        0
462
0.0
453
        0
470

  0
LWPOLYLINE
  5
80
330
70
100
AcDbEntity
  8
Capa 1
100
AcDbPolyline
 90
        3
 70
     1
 43
0.0
 10
105.1040591644475
 20
-134.1870823248695
 10
104.3985036090683
 20
-134.3634712137143
 10
104.3985036090683
 20
-134.0106934360247
  0
HATCH
  5
81
330
70
100
AcDbEntity
  8
Capa 1
 62
   250
420
  1907995
440
 33554687
100
AcDbHatch
 10
0.0
 20
0.0
 30
0.0
210
0.0
220
0.0
230
1.0
  2
SOLID
 70
     1
 71
     1
 91
        1
 92
        1
 93
        3
 72
     1
 10
105.1040591644475
 20
-134.1870823248695
 11
104.3985036090683
 21
-134.3634712137143
 72
     1
 10
104.3985036090683
 20
-134.3634712137143
 11
104.3985036090683
 21
-134.0106934360247
 72
     1
 10
104.3985036090683
 20
-134.0106934360247
 11
105.1040591644475
 21
-134.1870823248695
 97
        1
330
80
 75
     2
 76
     1
 98
        1
 10
0.0
 20
0.0
450
        0
451
        0
460
0.0
461
0.0
452
        0
462
0.0
453
        0
470

  0
MTEXT
  5
82
330
70
100
AcDbEntity
  8
Capa 1
100
AcDbMText
 10
76.33545682906067
 20
-152.7221163897708
 30
0.0
 40
0.2
 41
0.0
 46
0.0
 71
     7
 72
     1
  1
\C250;\c1776925;\FNetto Pro|b0|i0|c1;\H1.248833;\W0.800000;144
 11
0.0000000000000001
 21
1.0
 31
0.0
 73
     1
 44
1.0
  0
LINE
  5
83
330
70
100
AcDbEntity
  8
Capa 1
 62
   250
420
  1907995
370
     9
100
AcDbLine
 10
79.7916492781352
 20
-138.4182167636581
 30
0.0
 11
76.15907963584215
 21
-138.4182167636581
 31
0.0
  0
LINE
  5
84
330
70
100
AcDbEntity
  8
Capa 1
 62
   250
420
  1907995
370
     9
100
AcDbLine
 10
79.7916492781352
 20
-163.8182167573078
 30
0.0
 11
76.15907963584215
 21
-163.8182167573078
 31
0.0
  0
LINE
  5
85
330
70
100
AcDbEntity
  8
Capa 1
 62
   250
420
  1907995
370
     9
100
AcDbLine
 10
76.51185741353173
 20
-138.4182167636581
 30
0.0
 11
76.51185741353173
 21
-151.1182167604828
 31
0.0
  0
LINE
  5
86
330
70
100
AcDbEntity
  8
Capa 1
 62
   250
420
  1907995
370
     9
100
AcDbLine
 10
76.51185741353173
 20
-163.8182167573078
 30
0.0
 11
76.51185741353173
 21
-151.1182167604828
 31
0.0
  0
LWPOLYLINE
  5
87
330
70
100
AcDbEntity
  8
Capa 1
100
AcDbPolyline
 90
        3
 70
     1
 43
0.0
 10
76.51185741353173
 20
-138.4182167636581
 10
76.68824630237651
 20
-139.1237723190373
 10
76.33546852468693
 20
-139.1237723190373
  0
HATCH
  5
88
330
70
100
AcDbEntity
  8
Capa 1
 62
   250
420
  1907995
440
 33554687
100
AcDbHatch
 10
0.0
 20
0.0
 30
0.0
210
0.0
220
0.0
230
1.0
  2
SOLID
 70
     1
 71
     1
 91
        1
 92
        1
 93
        3
 72
     1
 10
76.51185741353173
 20
-138.4182167636581
 11
76.68824630237651
 21
-139.1237723190373
 72
     1
 10
76.68824630237651
 20
-139.1237723190373
 11
76.33546852468693
 21
-139.1237723190373
 72
     1
 10
76.33546852468693
 20
-139.1237723190373
 11
76.51185741353173
 21
-138.4182167636581
 97
        1
330
87
 75
     2
 76
     1
 98
        1
 10
0.0
 20
0.0
450
        0
451
        0
460
0.0
461
0.0
452
        0
462
0.0
453
        0
470

  0
LWPOLYLINE
  5
89
330
70
100
AcDbEntity
  8
Capa 1
100
AcDbPolyline
 90
        3
 70
     1
 43
0.0
 10
76.51185741353173
 20
-163.8182167573078
 10
76.33546852468693
 20
-163.1126612019286
 10
76.68824630237651
 20
-163.1126612019286
  0
HATCH
  5
8A
330
70
100
AcDbEntity
  8
Capa 1
 62
   250
420
  1907995
440
 33554687
100
AcDbHatch
 10
0.0
 20
0.0
 30
0.0
210
0.0
220
0.0
230
1.0
  2
SOLID
 70
     1
 71
     1
 91
        1
 92
        1
 93
        3
 72
     1
 10
76.51185741353173
 20
-163.8182167573078
 11
76.33546852468693
 21
-163.1126612019286
 72
     1
 10
76.33546852468693
 20
-163.1126612019286
 11
76.68824630237651
 21
-163.1126612019286
 72
     1
 10
76.68824630237651
 20
-163.1126612019286
 11
76.51185741353173
 21
-163.8182167573078
 97
        1
330
89
 75
     2
 76
     1
 98
        1
 10
0.0
 20
0.0
450
        0
451
        0
460
0.0
461
0.0
452
        0
462
0.0
453
        0
470

  0
MTEXT
  5
8B
330
70
100
AcDbEntity
  8
Capa 1
100
AcDbMText
 10
114.9621903873836
 20
-135.1482752144225
 30
0.0
 40
0.2
 41
0.0
 46
0.0
 71
     7
 72
     1
  1
\C250;\c1776925;\FNetto Pro|b0|i0|c1;\H1.248833;\W0.800000;54.85
 73
     1
 44
1.0
  0
LINE
  5
8C
330
70
100
AcDbEntity
  8
Capa 1
 62
   250
420
  1907995
370
     9
100
AcDbLine
 10
111.3101454116947
 20
-144.5088387174594
 30
0.0
 11
111.3101454116947
 21
-134.9718780637844
 31
0.0
  0
LINE
  5
8D
330
70
100
AcDbEntity
  8
Capa 1
 62
   250
420
  1907995
370
     9
100
AcDbLine
 10
120.9850759648312
 20
-138.7248614497117
 30
0.0
 11
120.9850759648312
 21
-134.9718780637844
 31
0.0
  0
LINE
  5
8E
330
70
100
AcDbEntity
  8
Capa 1
 62
   250
420
  1907995
370
     9
100
AcDbLine
 10
111.3101454116947
 20
-135.324655841474
 30
0.0
 11
116.1476106882636
 21
-135.324655841474
 31
0.0
  0
LINE
  5
8F
330
70
100
AcDbEntity
  8
Capa 1
 62
   250
420
  1907995
370
     9
100
AcDbLine
 10
120.9850759648312
 20
-135.324655841474
 30
0.0
 11
116.1476106882636
 21
-135.324655841474
 31
0.0
  0
LWPOLYLINE
  5
90
330
70
100
AcDbEntity
  8
Capa 1
100
AcDbPolyline
 90
        3
 70
     1
 43
0.0
 10
111.3101454116947
 20
-135.324655841474
 10
112.0157009670738
 20
-135.1482669526292
 10
112.0157009670738
 20
-135.5010447303188
  0
HATCH
  5
91
330
70
100
AcDbEntity
  8
Capa 1
 62
   250
420
  1907995
440
 33554687
100
AcDbHatch
 10
0.0
 20
0.0
 30
0.0
210
0.0
220
0.0
230
1.0
  2
SOLID
 70
     1
 71
     1
 91
        1
 92
        1
 93
        3
 72
     1
 10
111.3101454116947
 20
-135.324655841474
 11
112.0157009670738
 21
-135.1482669526292
 72
     1
 10
112.0157009670738
 20
-135.1482669526292
 11
112.0157009670738
 21
-135.5010447303188
 72
     1
 10
112.0157009670738
 20
-135.5010447303188
 11
111.3101454116947
 21
-135.324655841474
 97
        1
330
90
 75
     2
 76
     1
 98
        1
 10
0.0
 20
0.0
450
        0
451
        0
460
0.0
461
0.0
452
        0
462
0.0
453
        0
470

  0
LWPOLYLINE
  5
92
330
70
100
AcDbEntity
  8
Capa 1
100
AcDbPolyline
 90
        3
 70
     1
 43
0.0
 10
120.9850759648312
 20
-135.324655841474
 10
120.2795204094521
 20
-135.5010447303188
 10
120.2795204094521
 20
-135.1482669526292
  0
HATCH
  5
93
330
70
100
AcDbEntity
  8
Capa 1
 62
   250
420
  1907995
440
 33554687
100
AcDbHatch
 10
0.0
 20
0.0
 30
0.0
210
0.0
220
0.0
230
1.0
  2
SOLID
 70
     1
 71
     1
 91
        1
 92
        1
 93
        3
 72
     1
 10
120.9850759648312
 20
-135.324655841474
 11
120.2795204094521
 21
-135.5010447303188
 72
     1
 10
120.2795204094521
 20
-135.5010447303188
 11
120.2795204094521
 21
-135.1482669526292
 72
     1
 10
120.2795204094521
 20
-135.1482669526292
 11
120.9850759648312
 21
-135.324655841474
 97
        1
330
92
 75
     2
 76
     1
 98
        1
 10
0.0
 20
0.0
450
        0
451
        0
460
0.0
461
0.0
452
        0
462
0.0
453
        0
470

  0
LINE
  5
94
330
70
100
AcDbEntity
  8
Capa 1
 62
    18
420
        0
370
     9
100
AcDbLine
 10
79.28072583757006
 20
-144.300786206632
 30
0.0
 11
79.28072583757006
 21
-143.1542584291408
 31
0.0
  0
LINE
  5
95
330
70
100
AcDbEntity
  8
Capa 1
 62
    18
420
        0
370
     9
100
AcDbLine
 10
79.36892028199245
 20
-144.3889806510544
 30
0.0
 11
79.36892028199245
 21
-143.0660639847184
 31
0.0
  0
LINE
  5
96
330
70
100
AcDbEntity
  8
Capa 1
 62
    18
420
        0
370
     9
100
AcDbLine
 10
79.70405917079751
 20
-138.8585846486504
 30
0.0
 11
79.70405917079751
 21
-163.3778488722808
 31
0.0
  0
LINE
  5
97
330
70
100
AcDbEntity
  8
Capa 1
 62
    18
420
        0
370
     9
100
AcDbLine
 10
79.74151957204753
 20
-138.8960450499004
 30
0.0
 11
79.74151957204753
 21
-163.3403884710308
 31
0.0
  0
LINE
  5
98
330
70
100
AcDbEntity
  8
Capa 1
 62
    18
420
        0
370
     9
100
AcDbLine
 10
79.91766672605864
 20
-138.8960450499004
 30
0.0
 11
79.91766672605864
 21
-149.0897445387677
 31
0.0
  0
LINE
  5
99
330
70
100
AcDbEntity
  8
Capa 1
 62
    18
420
        0
370
     9
100
AcDbLine
 10
79.91766672605864
 20
-149.2661334276125
 30
0.0
 11
79.91766672605864
 21
-163.3403884710308
 31
0.0
  0
LINE
  5
9A
330
70
100
AcDbEntity
  8
Capa 1
 62
    18
420
        0
370
     9
100
AcDbLine
 10
80.18188745707513
 20
-163.7807563560578
 30
0.0
 11
80.18188745707513
 21
-163.6046092020469
 31
0.0
  0
LINE
  5
9B
330
70
100
AcDbEntity
  8
Capa 1
 62
    18
420
        0
370
     9
100
AcDbLine
 10
80.18188745707513
 20
-138.631824318884
 30
0.0
 11
80.18188745707513
 21
-138.4556771649081
 31
0.0
  0
LINE
  5
9C
330
70
100
AcDbEntity
  8
Capa 1
 62
    18
420
        0
370
     9
100
AcDbLine
 10
80.14442705582478
 20
-163.8182167573078
 30
0.0
 11
104.6636912794548
 21
-163.8182167573078
 31
0.0
  0
LINE
  5
9D
330
70
100
AcDbEntity
  8
Capa 1
 62
    18
420
        0
370
     9
100
AcDbLine
 10
80.18188745707513
 20
-163.7807563560578
 30
0.0
 11
104.6262308782055
 21
-163.7807563560578
 31
0.0
  0
LINE
  5
9E
330
70
100
AcDbEntity
  8
Capa 1
 62
    18
420
        0
370
     9
100
AcDbLine
 10
80.18188745707513
 20
-163.6046092020469
 30
0.0
 11
104.6262308782055
 21
-163.6046092020469
 31
0.0
  0
LINE
  5
9F
330
70
100
AcDbEntity
  8
Capa 1
 62
    18
420
        0
370
     9
100
AcDbLine
 10
105.0665987632327
 20
-163.3403884710308
 30
0.0
 11
104.8904516092216
 21
-163.3403884710308
 31
0.0
  0
LINE
  5
A0
330
70
100
AcDbEntity
  8
Capa 1
 62
    18
420
        0
370
     9
100
AcDbLine
 10
79.91766672605864
 20
-163.3403884710308
 30
0.0
 11
79.74151957204753
 21
-163.3403884710308
 31
0.0
  0
LINE
  5
A1
330
70
100
AcDbEntity
  8
Capa 1
 62
    18
420
        0
370
     9
100
AcDbLine
 10
83.74689532273192
 20
-158.8939196308527
 30
0.0
 11
83.74689532273192
 21
-149.2661334276125
 31
0.0
  0
LINE
  5
A2
330
70
100
AcDbEntity
  8
Capa 1
 62
    18
420
        0
370
     9
100
AcDbLine
 10
83.74689532273192
 20
-149.0897445387677
 30
0.0
 11
83.74689532273192
 21
-143.3425138901135
 31
0.0
  0
LINE
  5
A3
330
70
100
AcDbEntity
  8
Capa 1
 62
    18
420
        0
370
     9
100
AcDbLine
 10
83.92304247674271
 20
-158.8939196308527
 30
0.0
 11
83.92304247674271
 21
-143.3425138901135
 31
0.0
  0
LINE
  5
A4
330
70
100
AcDbEntity
  8
Capa 1
 62
    18
420
        0
370
     9
100
AcDbLine
 10
83.9373925030725
 20
-158.8795696044876
 30
0.0
 11
83.9373925030725
 21
-143.3568639164786
 31
0.0
  0
LINE
  5
A5
330
70
100
AcDbEntity
  8
Capa 1
 62
    18
420
        0
370
     9
100
AcDbLine
 10
84.00794805861035
 20
-143.4276612068501
 30
0.0
 11
84.00794805861035
 21
-158.8087723141161
 31
0.0
  0
LINE
  5
A6
330
70
100
AcDbEntity
  8
Capa 1
 62
    18
420
        0
370
     9
100
AcDbLine
 10
84.0991896307185
 20
-159.2462139388396
 30
0.0
 11
84.0991896307185
 21
-159.0700667848635
 31
0.0
  0
LINE
  5
A7
330
70
100
AcDbEntity
  8
Capa 1
 62
    18
420
        0
370
     9
100
AcDbLine
 10
84.0991896307185
 20
-143.1663667361024
 30
0.0
 11
84.0991896307185
 21
-142.9902195820916
 31
0.0
  0
LINE
  5
A8
330
70
100
AcDbEntity
  8
Capa 1
 62
    18
420
        0
370
     9
100
AcDbLine
 10
100.7089287045265
 20
-159.2462139388396
 30
0.0
 11
84.0991896307185
 21
-159.2462139388396
 31
0.0
  0
LINE
  5
A9
330
70
100
AcDbEntity
  8
Capa 1
 62
    18
420
        0
370
     9
100
AcDbLine
 10
105.4391980532525
 20
-159.1703695362478
 30
0.0
 11
105.1040591644475
 21
-159.1703695362478
 31
0.0
  0
LINE
  5
AA
330
70
100
AcDbEntity
  8
Capa 1
 62
    18
420
        0
370
     9
100
AcDbLine
 10
105.5273924976749
 20
-159.0821750918254
 30
0.0
 11
105.1040591644475
 21
-159.0821750918254
 31
0.0
  0
LINE
  5
AB
330
70
100
AcDbEntity
  8
Capa 1
 62
    18
420
        0
370
     9
100
AcDbLine
 10
100.7089287045265
 20
-159.0700667848635
 30
0.0
 11
84.0991896307185
 21
-159.0700667848635
 31
0.0
  0
LINE
  5
AC
330
70
100
AcDbEntity
  8
Capa 1
 62
    18
420
        0
370
     9
100
AcDbLine
 10
100.6945786781967
 20
-159.0557167584984
 30
0.0
 11
84.11353965708327
 21
-159.0557167584984
 31
0.0
  0
LINE
  5
AD
330
70
100
AcDbEntity
  8
Capa 1
 62
    18
420
        0
370
     9
100
AcDbLine
 10
84.18433694745514
 20
-158.9851612029609
 30
0.0
 11
100.6237813877898
 21
-158.9851612029609
 31
0.0
  0
LINE
  5
AE
330
70
100
AcDbEntity
  8
Capa 1
 62
    18
420
        0
370
     9
100
AcDbLine
 10
101.0612230125484
 20
-158.8939196308527
 30
0.0
 11
100.8850758585376
 21
-158.8939196308527
 31
0.0
  0
LINE
  5
AF
330
70
100
AcDbEntity
  8
Capa 1
 62
    18
420
        0
370
     9
100
AcDbLine
 10
83.92304247674271
 20
-158.8939196308527
 30
0.0
 11
83.74689532273192
 21
-158.8939196308527
 31
0.0
  0
LINE
  5
B0
330
70
100
AcDbEntity
  8
Capa 1
 62
    18
420
        0
370
     9
100
AcDbLine
 10
105.1040591644475
 20
-157.9356473143342
 30
0.0
 11
105.5273924976749
 21
-157.9356473143342
 31
0.0
  0
LINE
  5
B1
330
70
100
AcDbEntity
  8
Capa 1
 62
    18
420
        0
370
     9
100
AcDbLine
 10
105.1040591644475
 20
-157.8474528699119
 30
0.0
 11
105.4391980532525
 21
-157.8474528699119
 31
0.0
  0
LINE
  5
B2
330
70
100
AcDbEntity
  8
Capa 1
 62
     8
420
  8421505
370
     9
100
AcDbLine
 10
88.47940639082588
 20
-146.8581845809408
 30
0.0
 11
88.5629505990866
 21
-146.7746403726801
 31
0.0
  0
LINE
  5
B3
330
70
100
AcDbEntity
  8
Capa 1
 62
    18
420
        0
370
     9
100
AcDbLine
 10
88.3030175019811
 20
-146.5982514838353
 30
0.0
 11
88.3030175019811
 21
-151.7576264825452
 31
0.0
  0
LINE
  5
B4
330
70
100
AcDbEntity
  8
Capa 1
 62
    18
420
        0
370
     9
100
AcDbLine
 10
88.3030175019811
 20
-153.4994667598875
 30
0.0
 11
88.3030175019811
 21
-155.4397445371802
 31
0.0
  0
LINE
  5
B5
330
70
100
AcDbEntity
  8
Capa 1
 62
    18
420
        0
370
     9
100
AcDbLine
 10
88.37357305751895
 20
-153.4994667598875
 30
0.0
 11
88.37357305751895
 21
-155.4397445371802
 31
0.0
  0
LINE
  5
B6
330
70
100
AcDbEntity
  8
Capa 1
 62
    18
420
        0
370
     9
100
AcDbLine
 10
88.39121194640348
 20
-155.4573834260651
 30
0.0
 11
88.39121194640348
 21
-155.5279389816026
 31
0.0
  0
LINE
  5
B7
330
70
100
AcDbEntity
  8
Capa 1
 62
    18
420
        0
370
     9
100
AcDbLine
 10
88.39121194640348
 20
-153.4818278710033
 30
0.0
 11
88.39121194640348
 21
-153.4112723154651
 31
0.0
  0
LINE
  5
B8
330
70
100
AcDbEntity
  8
Capa 1
 62
    18
420
        0
370
     9
100
AcDbLine
 10
88.47940639082588
 20
-151.5812375937004
 30
0.0
 11
88.47940639082588
 21
-146.7746403726801
 31
0.0
  0
LINE
  5
B9
330
70
100
AcDbEntity
  8
Capa 1
 62
    18
420
        0
370
     9
100
AcDbLine
 10
88.39121194640348
 20
-155.5279389816026
 30
0.0
 11
90.3314897236962
 21
-155.5279389816026
 31
0.0
  0
LINE
  5
BA
330
70
100
AcDbEntity
  8
Capa 1
 62
    18
420
        0
370
     9
100
AcDbLine
 10
91.43392027897615
 20
-155.5279389816026
 30
0.0
 11
93.37419805626884
 21
-155.5279389816026
 31
0.0
  0
LINE
  5
BB
330
70
100
AcDbEntity
  8
Capa 1
 62
    18
420
        0
370
     9
100
AcDbLine
 10
94.4766286115488
 20
-155.5279389816026
 30
0.0
 11
96.41690638884151
 21
-155.5279389816026
 31
0.0
  0
LINE
  5
BC
330
70
100
AcDbEntity
  8
Capa 1
 62
    18
420
        0
370
     9
100
AcDbLine
 10
88.39121194640348
 20
-155.4573834260651
 30
0.0
 11
90.3314897236962
 21
-155.4573834260651
 31
0.0
  0
LINE
  5
BD
330
70
100
AcDbEntity
  8
Capa 1
 62
    18
420
        0
370
     9
100
AcDbLine
 10
91.43392027897615
 20
-155.4573834260651
 30
0.0
 11
93.37419805626884
 21
-155.4573834260651
 31
0.0
  0
LINE
  5
BE
330
70
100
AcDbEntity
  8
Capa 1
 62
    18
420
        0
370
     9
100
AcDbLine
 10
94.4766286115488
 20
-155.4573834260651
 30
0.0
 11
96.41690638884151
 21
-155.4573834260651
 31
0.0
  0
LINE
  5
BF
330
70
100
AcDbEntity
  8
Capa 1
 62
    18
420
        0
370
     9
100
AcDbLine
 10
94.45898972266425
 20
-155.4397445371802
 30
0.0
 11
94.38843416712641
 21
-155.4397445371802
 31
0.0
  0
LINE
  5
C0
330
70
100
AcDbEntity
  8
Capa 1
 62
    18
420
        0
370
     9
100
AcDbLine
 10
91.41628139009162
 20
-155.4397445371802
 30
0.0
 11
91.34572583455375
 21
-155.4397445371802
 31
0.0
  0
LINE
  5
C1
330
70
100
AcDbEntity
  8
Capa 1
 62
    18
420
        0
370
     9
100
AcDbLine
 10
88.37357305751895
 20
-155.4397445371802
 30
0.0
 11
88.3030175019811
 21
-155.4397445371802
 31
0.0
  0
LINE
  5
C2
330
70
100
AcDbEntity
  8
Capa 1
 62
    18
420
        0
370
     9
100
AcDbLine
 10
90.34912861258074
 20
-155.4397445371802
 30
0.0
 11
90.4196841681186
 21
-155.4397445371802
 31
0.0
  0
LINE
  5
C3
330
70
100
AcDbEntity
  8
Capa 1
 62
    18
420
        0
370
     9
100
AcDbLine
 10
93.39183694515339
 20
-155.4397445371802
 30
0.0
 11
93.46239250069125
 21
-155.4397445371802
 31
0.0
  0
LINE
  5
C4
330
70
100
AcDbEntity
  8
Capa 1
 62
    18
420
        0
370
     9
100
AcDbLine
 10
96.43454527772606
 20
-155.4397445371802
 30
0.0
 11
96.50510083326391
 21
-155.4397445371802
 31
0.0
  0
LINE
  5
C5
330
70
100
AcDbEntity
  8
Capa 1
 62
     8
420
  8421505
370
     9
100
AcDbLine
 10
88.3030175019811
 20
-150.7890376726077
 30
0.0
 11
92.4938036907891
 21
-146.5982514838353
 31
0.0
  0
LINE
  5
C6
330
70
100
AcDbEntity
  8
Capa 1
 62
     8
420
  8421505
370
     9
100
AcDbLine
 10
88.47940639082588
 20
-151.0489707697135
 30
0.0
 11
92.7537367878946
 21
-146.7746403726801
 31
0.0
  0
LINE
  5
C7
330
70
100
AcDbEntity
  8
Capa 1
 62
    18
420
        0
370
     9
100
AcDbLine
 10
94.45898972266425
 20
-153.4994667598875
 30
0.0
 11
94.38843416712641
 21
-153.4994667598875
 31
0.0
  0
LINE
  5
C8
330
70
100
AcDbEntity
  8
Capa 1
 62
    18
420
        0
370
     9
100
AcDbLine
 10
91.41628139009162
 20
-153.4994667598875
 30
0.0
 11
91.34572583455375
 21
-153.4994667598875
 31
0.0
  0
LINE
  5
C9
330
70
100
AcDbEntity
  8
Capa 1
 62
    18
420
        0
370
     9
100
AcDbLine
 10
88.37357305751895
 20
-153.4994667598875
 30
0.0
 11
88.3030175019811
 21
-153.4994667598875
 31
0.0
  0
LINE
  5
CA
330
70
100
AcDbEntity
  8
Capa 1
 62
    18
420
        0
370
     9
100
AcDbLine
 10
90.34912861258074
 20
-153.4994667598875
 30
0.0
 11
90.4196841681186
 21
-153.4994667598875
 31
0.0
  0
LINE
  5
CB
330
70
100
AcDbEntity
  8
Capa 1
 62
    18
420
        0
370
     9
100
AcDbLine
 10
93.39183694515339
 20
-153.4994667598875
 30
0.0
 11
93.46239250069125
 21
-153.4994667598875
 31
0.0
  0
LINE
  5
CC
330
70
100
AcDbEntity
  8
Capa 1
 62
    18
420
        0
370
     9
100
AcDbLine
 10
96.43454527772606
 20
-153.4994667598875
 30
0.0
 11
96.50510083326391
 21
-153.4994667598875
 31
0.0
  0
LINE
  5
CD
330
70
100
AcDbEntity
  8
Capa 1
 62
    18
420
        0
370
     9
100
AcDbLine
 10
96.41690638884151
 20
-153.4818278710033
 30
0.0
 11
94.4766286115488
 21
-153.4818278710033
 31
0.0
  0
LINE
  5
CE
330
70
100
AcDbEntity
  8
Capa 1
 62
    18
420
        0
370
     9
100
AcDbLine
 10
93.37419805626884
 20
-153.4818278710033
 30
0.0
 11
91.43392027897615
 21
-153.4818278710033
 31
0.0
  0
LINE
  5
CF
330
70
100
AcDbEntity
  8
Capa 1
 62
    18
420
        0
370
     9
100
AcDbLine
 10
90.3314897236962
 20
-153.4818278710033
 30
0.0
 11
88.39121194640348
 21
-153.4818278710033
 31
0.0
  0
LINE
  5
D0
330
70
100
AcDbEntity
  8
Capa 1
 62
    18
420
        0
370
     9
100
AcDbLine
 10
96.41690638884151
 20
-153.4112723154651
 30
0.0
 11
94.4766286115488
 21
-153.4112723154651
 31
0.0
  0
LINE
  5
D1
330
70
100
AcDbEntity
  8
Capa 1
 62
    18
420
        0
370
     9
100
AcDbLine
 10
93.37419805626884
 20
-153.4112723154651
 30
0.0
 11
91.43392027897615
 21
-153.4112723154651
 31
0.0
  0
LINE
  5
D2
330
70
100
AcDbEntity
  8
Capa 1
 62
    18
420
        0
370
     9
100
AcDbLine
 10
90.3314897236962
 20
-153.4112723154651
 30
0.0
 11
88.39121194640348
 21
-153.4112723154651
 31
0.0
  0
LINE
  5
D3
330
70
100
AcDbEntity
  8
Capa 1
 62
    18
420
        0
370
     9
100
AcDbLine
 10
90.3314897236962
 20
-155.4573834260651
 30
0.0
 11
90.3314897236962
 21
-155.5279389816026
 31
0.0
  0
LINE
  5
D4
330
70
100
AcDbEntity
  8
Capa 1
 62
    18
420
        0
370
     9
100
AcDbLine
 10
90.3314897236962
 20
-153.4818278710033
 30
0.0
 11
90.3314897236962
 21
-153.4112723154651
 31
0.0
  0
LINE
  5
D5
330
70
100
AcDbEntity
  8
Capa 1
 62
    18
420
        0
370
     9
100
AcDbLine
 10
90.34912861258074
 20
-155.4397445371802
 30
0.0
 11
90.34912861258074
 21
-153.4994667598875
 31
0.0
  0
LINE
  5
D6
330
70
100
AcDbEntity
  8
Capa 1
 62
    18
420
        0
370
     9
100
AcDbLine
 10
90.4196841681186
 20
-155.4397445371802
 30
0.0
 11
90.4196841681186
 21
-153.4994667598875
 31
0.0
  0
LINE
  5
D7
330
70
100
AcDbEntity
  8
Capa 1
 62
    18
420
        0
370
     9
100
AcDbLine
 10
91.34572583455375
 20
-153.4994667598875
 30
0.0
 11
91.34572583455375
 21
-155.4397445371802
 31
0.0
  0
LINE
  5
D8
330
70
100
AcDbEntity
  8
Capa 1
 62
    18
420
        0
370
     9
100
AcDbLine
 10
91.41628139009162
 20
-153.4994667598875
 30
0.0
 11
91.41628139009162
 21
-155.4397445371802
 31
0.0
  0
LINE
  5
D9
330
70
100
AcDbEntity
  8
Capa 1
 62
    18
420
        0
370
     9
100
AcDbLine
 10
91.43392027897615
 20
-155.4573834260651
 30
0.0
 11
91.43392027897615
 21
-155.5279389816026
 31
0.0
  0
LINE
  5
DA
330
70
100
AcDbEntity
  8
Capa 1
 62
    18
420
        0
370
     9
100
AcDbLine
 10
91.43392027897615
 20
-153.4818278710033
 30
0.0
 11
91.43392027897615
 21
-153.4112723154651
 31
0.0
  0
LINE
  5
DB
330
70
100
AcDbEntity
  8
Capa 1
 62
    18
420
        0
370
     9
100
AcDbLine
 10
83.92304247674271
 20
-158.8939196308527
 30
0.0
 11
83.9373925030725
 21
-158.8795696044876
 31
0.0
  0
LINE
  5
DC
330
70
100
AcDbEntity
  8
Capa 1
 62
    18
420
        0
370
     9
100
AcDbLine
 10
79.74151957204753
 20
-163.3403884710308
 30
0.0
 11
79.70405917079751
 21
-163.3778488722808
 31
0.0
  0
LINE
  5
DD
330
70
100
AcDbEntity
  8
Capa 1
 62
    18
420
        0
370
     9
100
AcDbLine
 10
104.6262308782055
 20
-138.4556771649081
 30
0.0
 11
104.6636912794548
 21
-138.4182167636581
 31
0.0
  0
LINE
  5
DE
330
70
100
AcDbEntity
  8
Capa 1
 62
    18
420
        0
370
     9
100
AcDbLine
 10
84.0991896307185
 20
-159.0700667848635
 30
0.0
 11
84.11353965708327
 21
-159.0557167584984
 31
0.0
  0
LINE
  5
DF
330
70
100
AcDbEntity
  8
Capa 1
 62
     8
420
  8421505
370
     9
100
AcDbLine
 10
91.52521488085133
 20
-151.7576264825452
 30
0.0
 11
96.50510083326391
 21
-146.7777405300976
 31
0.0
  0
LINE
  5
E0
330
70
100
AcDbEntity
  8
Capa 1
 62
     8
420
  8421505
370
     9
100
AcDbLine
 10
92.13792575564673
 20
-151.5812375937004
 30
0.0
 11
96.32871194441911
 21
-147.390451404893
 31
0.0
  0
LINE
  5
E1
330
70
100
AcDbEntity
  8
Capa 1
 62
    18
420
        0
370
     9
100
AcDbLine
 10
88.3030175019811
 20
-151.7576264825452
 30
0.0
 11
96.50510083326391
 21
-151.7576264825452
 31
0.0
  0
LINE
  5
E2
330
70
100
AcDbEntity
  8
Capa 1
 62
    18
420
        0
370
     9
100
AcDbLine
 10
96.32871194441911
 20
-151.5812375937004
 30
0.0
 11
88.47940639082588
 21
-151.5812375937004
 31
0.0
  0
LINE
  5
E3
330
70
100
AcDbEntity
  8
Capa 1
 62
    18
420
        0
370
     9
100
AcDbLine
 10
83.92304247674271
 20
-143.3425138901135
 30
0.0
 11
83.9373925030725
 21
-143.3568639164786
 31
0.0
  0
LINE
  5
E4
330
70
100
AcDbEntity
  8
Capa 1
 62
    18
420
        0
370
     9
100
AcDbLine
 10
104.6262308782055
 20
-163.7807563560578
 30
0.0
 11
104.6636912794548
 21
-163.8182167573078
 31
0.0
  0
LINE
  5
E5
330
70
100
AcDbEntity
  8
Capa 1
 62
    18
420
        0
370
     9
100
AcDbLine
 10
79.74151957204753
 20
-138.8960450499004
 30
0.0
 11
79.70405917079751
 21
-138.8585846486504
 31
0.0
  0
LINE
  5
E6
330
70
100
AcDbEntity
  8
Capa 1
 62
    18
420
        0
370
     9
100
AcDbLine
 10
84.0991896307185
 20
-143.1663667361024
 30
0.0
 11
84.11353965708327
 21
-143.1807167624675
 31
0.0
  0
LINE
  5
E7
330
70
100
AcDbEntity
  8
Capa 1
 62
    18
420
        0
370
     9
100
AcDbLine
 10
93.37419805626884
 20
-155.4573834260651
 30
0.0
 11
93.37419805626884
 21
-155.5279389816026
 31
0.0
  0
LINE
  5
E8
330
70
100
AcDbEntity
  8
Capa 1
 62
    18
420
        0
370
     9
100
AcDbLine
 10
93.37419805626884
 20
-153.4818278710033
 30
0.0
 11
93.37419805626884
 21
-153.4112723154651
 31
0.0
  0
LINE
  5
E9
330
70
100
AcDbEntity
  8
Capa 1
 62
    18
420
        0
370
     9
100
AcDbLine
 10
93.39183694515339
 20
-155.4397445371802
 30
0.0
 11
93.39183694515339
 21
-153.4994667598875
 31
0.0
  0
LINE
  5
EA
330
70
100
AcDbEntity
  8
Capa 1
 62
    18
420
        0
370
     9
100
AcDbLine
 10
93.46239250069125
 20
-155.4397445371802
 30
0.0
 11
93.46239250069125
 21
-153.4994667598875
 31
0.0
  0
LINE
  5
EB
330
70
100
AcDbEntity
  8
Capa 1
 62
    18
420
        0
370
     9
100
AcDbLine
 10
100.7089287045265
 20
-143.1663667361024
 30
0.0
 11
100.6945786781967
 21
-143.1807167624675
 31
0.0
  0
LINE
  5
EC
330
70
100
AcDbEntity
  8
Capa 1
 62
    18
420
        0
370
     9
100
AcDbLine
 10
80.18188745707513
 20
-163.7807563560578
 30
0.0
 11
80.14442705582478
 21
-163.8182167573078
 31
0.0
  0
LINE
  5
ED
330
70
100
AcDbEntity
  8
Capa 1
 62
    18
420
        0
370
     9
100
AcDbLine
 10
105.0665987632327
 20
-138.8960450499004
 30
0.0
 11
105.1040591644475
 21
-138.8585846486504
 31
0.0
  0
LINE
  5
EE
330
70
100
AcDbEntity
  8
Capa 1
 62
    18
420
        0
370
     9
100
AcDbLine
 10
100.8850758585376
 20
-143.3425138901135
 30
0.0
 11
100.8707258321725
 21
-143.3568639164786
 31
0.0
  0
LINE
  5
EF
330
70
100
AcDbEntity
  8
Capa 1
 62
    18
420
        0
370
     9
100
AcDbLine
 10
100.7089287045265
 20
-159.0700667848635
 30
0.0
 11
100.6945786781967
 21
-159.0557167584984
 31
0.0
  0
LINE
  5
F0
330
70
100
AcDbEntity
  8
Capa 1
 62
    18
420
        0
370
     9
100
AcDbLine
 10
105.0665987632327
 20
-163.3403884710308
 30
0.0
 11
105.1040591644475
 21
-163.3778488722808
 31
0.0
  0
LINE
  5
F1
330
70
100
AcDbEntity
  8
Capa 1
 62
    18
420
        0
370
     9
100
AcDbLine
 10
80.18188745707513
 20
-138.4556771649081
 30
0.0
 11
80.14442705582478
 21
-138.4182167636581
 31
0.0
  0
LINE
  5
F2
330
70
100
AcDbEntity
  8
Capa 1
 62
    18
420
        0
370
     9
100
AcDbLine
 10
100.8850758585376
 20
-158.8939196308527
 30
0.0
 11
100.8707258321725
 21
-158.8795696044876
 31
0.0
  0
LINE
  5
F3
330
70
100
AcDbEntity
  8
Capa 1
 62
    18
420
        0
370
     9
100
AcDbLine
 10
94.38843416712641
 20
-153.4994667598875
 30
0.0
 11
94.38843416712641
 21
-155.4397445371802
 31
0.0
  0
LINE
  5
F4
330
70
100
AcDbEntity
  8
Capa 1
 62
    18
420
        0
370
     9
100
AcDbLine
 10
94.45898972266425
 20
-153.4994667598875
 30
0.0
 11
94.45898972266425
 21
-155.4397445371802
 31
0.0
  0
LINE
  5
F5
330
70
100
AcDbEntity
  8
Capa 1
 62
    18
420
        0
370
     9
100
AcDbLine
 10
94.4766286115488
 20
-155.4573834260651
 30
0.0
 11
94.4766286115488
 21
-155.5279389816026
 31
0.0
  0
LINE
  5
F6
330
70
100
AcDbEntity
  8
Capa 1
 62
    18
420
        0
370
     9
100
AcDbLine
 10
94.4766286115488
 20
-153.4818278710033
 30
0.0
 11
94.4766286115488
 21
-153.4112723154651
 31
0.0
  0
LINE
  5
F7
330
70
100
AcDbEntity
  8
Capa 1
 62
    18
420
        0
370
     9
100
AcDbLine
 10
104.8904516092216
 20
-149.2661334276125
 30
0.0
 11
101.0612230125484
 21
-149.2661334276125
 31
0.0
  0
LINE
  5
F8
330
70
100
AcDbEntity
  8
Capa 1
 62
    18
420
        0
370
     9
100
AcDbLine
 10
83.74689532273192
 20
-149.2661334276125
 30
0.0
 11
79.91766672605864
 21
-149.2661334276125
 31
0.0
  0
LINE
  5
F9
330
70
100
AcDbEntity
  8
Capa 1
 62
    18
420
        0
370
     9
100
AcDbLine
 10
79.8298446719534
 20
-149.1880759780203
 30
0.0
 11
83.83471737683684
 21
-149.1880759780203
 31
0.0
  0
LINE
  5
FA
330
70
100
AcDbEntity
  8
Capa 1
 62
    18
420
        0
370
     9
100
AcDbLine
 10
100.9734009584431
 20
-149.1880759780203
 30
0.0
 11
104.9782736633269
 21
-149.1880759780203
 31
0.0
  0
LINE
  5
FB
330
70
100
AcDbEntity
  8
Capa 1
 62
    18
420
        0
370
     9
100
AcDbLine
 10
79.8298446719534
 20
-149.1678019883258
 30
0.0
 11
83.83471737683684
 21
-149.1678019883258
 31
0.0
  0
LINE
  5
FC
330
70
100
AcDbEntity
  8
Capa 1
 62
    18
420
        0
370
     9
100
AcDbLine
 10
100.9734009584431
 20
-149.1678019883258
 30
0.0
 11
104.9782736633269
 21
-149.1678019883258
 31
0.0
  0
LINE
  5
FD
330
70
100
AcDbEntity
  8
Capa 1
 62
    18
420
        0
370
     9
100
AcDbLine
 10
104.8904516092216
 20
-149.0897445387677
 30
0.0
 11
101.0612230125484
 21
-149.0897445387677
 31
0.0
  0
LINE
  5
FE
330
70
100
AcDbEntity
  8
Capa 1
 62
    18
420
        0
370
     9
100
AcDbLine
 10
83.74689532273192
 20
-149.0897445387677
 30
0.0
 11
79.91766672605864
 21
-149.0897445387677
 31
0.0
  0
LINE
  5
FF
330
70
100
AcDbEntity
  8
Capa 1
 62
     8
420
  8421505
370
     9
100
AcDbLine
 10
95.71600106962403
 20
-151.7576264825452
 30
0.0
 11
96.50510083326391
 21
-150.9685267189056
 31
0.0
  0
LINE
  5
100
330
70
100
AcDbEntity
  8
Capa 1
 62
    18
420
        0
370
     9
100
AcDbLine
 10
96.32871194441911
 20
-146.7746403726801
 30
0.0
 11
96.32871194441911
 21
-151.5812375937004
 31
0.0
  0
LINE
  5
101
330
70
100
AcDbEntity
  8
Capa 1
 62
    18
420
        0
370
     9
100
AcDbLine
 10
96.41690638884151
 20
-155.4573834260651
 30
0.0
 11
96.41690638884151
 21
-155.5279389816026
 31
0.0
  0
LINE
  5
102
330
70
100
AcDbEntity
  8
Capa 1
 62
    18
420
        0
370
     9
100
AcDbLine
 10
96.41690638884151
 20
-153.4818278710033
 30
0.0
 11
96.41690638884151
 21
-153.4112723154651
 31
0.0
  0
LINE
  5
103
330
70
100
AcDbEntity
  8
Capa 1
 62
    18
420
        0
370
     9
100
AcDbLine
 10
96.43454527772606
 20
-155.4397445371802
 30
0.0
 11
96.43454527772606
 21
-153.4994667598875
 31
0.0
  0
LINE
  5
104
330
70
100
AcDbEntity
  8
Capa 1
 62
    18
420
        0
370
     9
100
AcDbLine
 10
96.50510083326391
 20
-155.4397445371802
 30
0.0
 11
96.50510083326391
 21
-153.4994667598875
 31
0.0
  0
LINE
  5
105
330
70
100
AcDbEntity
  8
Capa 1
 62
    18
420
        0
370
     9
100
AcDbLine
 10
96.50510083326391
 20
-151.7576264825452
 30
0.0
 11
96.50510083326391
 21
-146.5982514838353
 31
0.0
  0
LINE
  5
106
330
70
100
AcDbEntity
  8
Capa 1
 62
    18
420
        0
370
     9
100
AcDbLine
 10
88.47940639082588
 20
-146.7746403726801
 30
0.0
 11
96.32871194441911
 21
-146.7746403726801
 31
0.0
  0
LINE
  5
107
330
70
100
AcDbEntity
  8
Capa 1
 62
    18
420
        0
370
     9
100
AcDbLine
 10
96.50510083326391
 20
-146.5982514838353
 30
0.0
 11
88.3030175019811
 21
-146.5982514838353
 31
0.0
  0
LINE
  5
108
330
70
100
AcDbEntity
  8
Capa 1
 62
    18
420
        0
370
     9
100
AcDbLine
 10
79.70405917079751
 20
-144.3889806510544
 30
0.0
 11
79.36892028199245
 21
-144.3889806510544
 31
0.0
  0
LINE
  5
109
330
70
100
AcDbEntity
  8
Capa 1
 62
    18
420
        0
370
     9
100
AcDbLine
 10
79.70405917079751
 20
-144.300786206632
 30
0.0
 11
79.28072583757006
 21
-144.300786206632
 31
0.0
  0
LINE
  5
10A
330
70
100
AcDbEntity
  8
Capa 1
 62
    18
420
        0
370
     9
100
AcDbLine
 10
100.7089287045265
 20
-142.9902195820916
 30
0.0
 11
100.7089287045265
 21
-143.1663667361024
 31
0.0
  0
LINE
  5
10B
330
70
100
AcDbEntity
  8
Capa 1
 62
    18
420
        0
370
     9
100
AcDbLine
 10
100.7089287045265
 20
-159.0700667848635
 30
0.0
 11
100.7089287045265
 21
-159.2462139388396
 31
0.0
  0
LINE
  5
10C
330
70
100
AcDbEntity
  8
Capa 1
 62
    18
420
        0
370
     9
100
AcDbLine
 10
100.8001702766346
 20
-158.8087723141161
 30
0.0
 11
100.8001702766346
 21
-143.4276612068501
 31
0.0
  0
LINE
  5
10D
330
70
100
AcDbEntity
  8
Capa 1
 62
    18
420
        0
370
     9
100
AcDbLine
 10
100.8707258321725
 20
-143.3568639164786
 30
0.0
 11
100.8707258321725
 21
-158.8795696044876
 31
0.0
  0
LINE
  5
10E
330
70
100
AcDbEntity
  8
Capa 1
 62
    18
420
        0
370
     9
100
AcDbLine
 10
100.8850758585376
 20
-143.3425138901135
 30
0.0
 11
100.8850758585376
 21
-158.8939196308527
 31
0.0
  0
LINE
  5
10F
330
70
100
AcDbEntity
  8
Capa 1
 62
    18
420
        0
370
     9
100
AcDbLine
 10
101.0612230125484
 20
-143.3425138901135
 30
0.0
 11
101.0612230125484
 21
-149.0897445387677
 31
0.0
  0
LINE
  5
110
330
70
100
AcDbEntity
  8
Capa 1
 62
    18
420
        0
370
     9
100
AcDbLine
 10
101.0612230125484
 20
-149.2661334276125
 30
0.0
 11
101.0612230125484
 21
-158.8939196308527
 31
0.0
  0
LINE
  5
111
330
70
100
AcDbEntity
  8
Capa 1
 62
    18
420
        0
370
     9
100
AcDbLine
 10
83.74689532273192
 20
-143.3425138901135
 30
0.0
 11
83.92304247674271
 21
-143.3425138901135
 31
0.0
  0
LINE
  5
112
330
70
100
AcDbEntity
  8
Capa 1
 62
    18
420
        0
370
     9
100
AcDbLine
 10
100.8850758585376
 20
-143.3425138901135
 30
0.0
 11
101.0612230125484
 21
-143.3425138901135
 31
0.0
  0
LINE
  5
113
330
70
100
AcDbEntity
  8
Capa 1
 62
    18
420
        0
370
     9
100
AcDbLine
 10
100.6237813877898
 20
-143.2512723180053
 30
0.0
 11
84.18433694745514
 21
-143.2512723180053
 31
0.0
  0
LINE
  5
114
330
70
100
AcDbEntity
  8
Capa 1
 62
    18
420
        0
370
     9
100
AcDbLine
 10
84.11353965708327
 20
-143.1807167624675
 30
0.0
 11
100.6945786781967
 21
-143.1807167624675
 31
0.0
  0
LINE
  5
115
330
70
100
AcDbEntity
  8
Capa 1
 62
    18
420
        0
370
     9
100
AcDbLine
 10
84.0991896307185
 20
-143.1663667361024
 30
0.0
 11
100.7089287045265
 21
-143.1663667361024
 31
0.0
  0
LINE
  5
116
330
70
100
AcDbEntity
  8
Capa 1
 62
    18
420
        0
370
     9
100
AcDbLine
 10
79.28072583757006
 20
-143.1542584291408
 30
0.0
 11
79.70405917079751
 21
-143.1542584291408
 31
0.0
  0
LINE
  5
117
330
70
100
AcDbEntity
  8
Capa 1
 62
    18
420
        0
370
     9
100
AcDbLine
 10
79.36892028199245
 20
-143.0660639847184
 30
0.0
 11
79.70405917079751
 21
-143.0660639847184
 31
0.0
  0
LINE
  5
118
330
70
100
AcDbEntity
  8
Capa 1
 62
    18
420
        0
370
     9
100
AcDbLine
 10
84.0991896307185
 20
-142.9902195820916
 30
0.0
 11
100.7089287045265
 21
-142.9902195820916
 31
0.0
  0
LINE
  5
119
330
70
100
AcDbEntity
  8
Capa 1
 62
    18
420
        0
370
     9
100
AcDbLine
 10
104.6262308782055
 20
-138.4556771649081
 30
0.0
 11
104.6262308782055
 21
-138.631824318884
 31
0.0
  0
LINE
  5
11A
330
70
100
AcDbEntity
  8
Capa 1
 62
    18
420
        0
370
     9
100
AcDbLine
 10
104.6262308782055
 20
-163.6046092020469
 30
0.0
 11
104.6262308782055
 21
-163.7807563560578
 31
0.0
  0
LINE
  5
11B
330
70
100
AcDbEntity
  8
Capa 1
 62
    18
420
        0
370
     9
100
AcDbLine
 10
79.74151957204753
 20
-138.8960450499004
 30
0.0
 11
79.91766672605864
 21
-138.8960450499004
 31
0.0
  0
LINE
  5
11C
330
70
100
AcDbEntity
  8
Capa 1
 62
    18
420
        0
370
     9
100
AcDbLine
 10
104.8904516092216
 20
-138.8960450499004
 30
0.0
 11
105.0665987632327
 21
-138.8960450499004
 31
0.0
  0
LINE
  5
11D
330
70
100
AcDbEntity
  8
Capa 1
 62
    18
420
        0
370
     9
100
AcDbLine
 10
104.8904516092216
 20
-163.3403884710308
 30
0.0
 11
104.8904516092216
 21
-149.2661334276125
 31
0.0
  0
LINE
  5
11E
330
70
100
AcDbEntity
  8
Capa 1
 62
    18
420
        0
370
     9
100
AcDbLine
 10
104.8904516092216
 20
-149.0897445387677
 30
0.0
 11
104.8904516092216
 21
-138.8960450499004
 31
0.0
  0
LINE
  5
11F
330
70
100
AcDbEntity
  8
Capa 1
 62
    18
420
        0
370
     9
100
AcDbLine
 10
105.0665987632327
 20
-163.3403884710308
 30
0.0
 11
105.0665987632327
 21
-138.8960450499004
 31
0.0
  0
LINE
  5
120
330
70
100
AcDbEntity
  8
Capa 1
 62
    18
420
        0
370
     9
100
AcDbLine
 10
105.1040591644475
 20
-163.3778488722808
 30
0.0
 11
105.1040591644475
 21
-138.8585846486504
 31
0.0
  0
LINE
  5
121
330
70
100
AcDbEntity
  8
Capa 1
 62
    18
420
        0
370
     9
100
AcDbLine
 10
105.4391980532525
 20
-159.1703695362478
 30
0.0
 11
105.4391980532525
 21
-157.8474528699119
 31
0.0
  0
LINE
  5
122
330
70
100
AcDbEntity
  8
Capa 1
 62
    18
420
        0
370
     9
100
AcDbLine
 10
105.5273924976749
 20
-157.9356473143342
 30
0.0
 11
105.5273924976749
 21
-159.0821750918254
 31
0.0
  0
LINE
  5
123
330
70
100
AcDbEntity
  8
Capa 1
 62
    18
420
        0
370
     9
100
AcDbLine
 10
104.6262308782055
 20
-138.631824318884
 30
0.0
 11
80.18188745707513
 21
-138.631824318884
 31
0.0
  0
LINE
  5
124
330
70
100
AcDbEntity
  8
Capa 1
 62
    18
420
        0
370
     9
100
AcDbLine
 10
104.6262308782055
 20
-138.4556771649081
 30
0.0
 11
80.18188745707513
 21
-138.4556771649081
 31
0.0
  0
LINE
  5
125
330
70
100
AcDbEntity
  8
Capa 1
 62
    18
420
        0
370
     9
100
AcDbLine
 10
104.6636912794548
 20
-138.4182167636581
 30
0.0
 11
80.14442705582478
 21
-138.4182167636581
 31
0.0
  0
LINE
  5
126
330
70
100
AcDbEntity
  8
Capa 1
 62
    18
420
        0
370
     9
100
AcDbLine
 10
120.8179185571471
 20
-163.9623505335586
 30
0.0
 11
120.1031315206073
 21
-163.9998109348086
 31
0.0
  0
LINE
  5
127
330
70
100
AcDbEntity
  8
Capa 1
 62
    18
420
        0
370
     9
100
AcDbLine
 10
120.8179185571471
 20
-163.5219826485316
 30
0.0
 11
120.1031315206073
 21
-163.5594430497817
 31
0.0
  0
LINE
  5
128
330
70
100
AcDbEntity
  8
Capa 1
 62
    18
420
        0
370
     9
100
AcDbLine
 10
120.1031315206073
 20
-163.7352276015414
 30
0.0
 11
120.0413954095119
 21
-163.7352276015414
 31
0.0
  0
LINE
  5
129
330
70
100
AcDbEntity
  8
Capa 1
 62
    18
420
        0
370
     9
100
AcDbLine
 10
120.1031315206073
 20
-163.5588387126966
 30
0.0
 11
120.0413954095119
 21
-163.5588387126966
 31
0.0
  0
LINE
  5
12A
330
70
100
AcDbEntity
  8
Capa 1
 62
    18
420
        0
370
     9
100
AcDbLine
 10
120.9850759648312
 20
-163.5219826485316
 30
0.0
 11
120.8179185571471
 21
-163.5219826485316
 31
0.0
  0
LINE
  5
12B
330
70
100
AcDbEntity
  8
Capa 1
 62
    18
420
        0
370
     9
100
AcDbLine
 10
120.0413954095119
 20
-163.4353664905058
 30
0.0
 11
119.4240342985551
 21
-163.4353664905058
 31
0.0
  0
LINE
  5
12C
330
70
100
AcDbEntity
  8
Capa 1
 62
    18
420
        0
370
     9
100
AcDbLine
 10
117.6601454101072
 20
-163.258977601661
 30
0.0
 11
120.0413954095119
 21
-163.258977601661
 31
0.0
  0
LINE
  5
12D
330
70
100
AcDbEntity
  8
Capa 1
 62
    18
420
        0
370
     9
100
AcDbLine
 10
117.3073676324176
 20
-162.9061998239714
 30
0.0
 11
120.0413954095119
 21
-162.9061998239714
 31
0.0
  0
LINE
  5
12E
330
70
100
AcDbEntity
  8
Capa 1
 62
    18
420
        0
370
     9
100
AcDbLine
 10
120.1031315206073
 20
-161.9713387130935
 30
0.0
 11
120.0413954095119
 21
-161.9713387130935
 31
0.0
  0
LINE
  5
12F
330
70
100
AcDbEntity
  8
Capa 1
 62
    18
420
        0
370
     9
100
AcDbLine
 10
116.2754926326758
 20
-162.0867479989744
 30
0.0
 11
117.3073676324176
 21
-162.3249751136179
 31
0.0
  0
LINE
  5
130
330
70
100
AcDbEntity
  8
Capa 1
 62
    18
420
        0
370
     9
100
AcDbLine
 10
119.4240342985551
 20
-139.1642553854624
 30
0.0
 11
119.0457671057461
 21
-139.3406442743072
 31
0.0
  0
LINE
  5
131
330
70
100
AcDbEntity
  8
Capa 1
 62
    18
420
        0
370
     9
100
AcDbLine
 10
117.3073676324176
 20
-161.0228561515679
 30
0.0
 11
116.2754926326758
 21
-161.2048035547504
 31
0.0
  0
LINE
  5
132
330
70
100
AcDbEntity
  8
Capa 1
 62
    18
420
        0
370
     9
100
AcDbLine
 10
117.3073676324176
 20
-160.73661649118
 30
0.0
 11
116.2754926326758
 21
-160.73661649118
 31
0.0
  0
LINE
  5
133
330
70
100
AcDbEntity
  8
Capa 1
 62
    18
420
        0
370
     9
100
AcDbLine
 10
111.6629231893842
 20
-160.6484220467576
 30
0.0
 11
117.2191731879952
 21
-160.6484220467576
 31
0.0
  0
LINE
  5
134
330
70
100
AcDbEntity
  8
Capa 1
 62
    18
420
        0
370
     9
100
AcDbLine
 10
111.3101454116947
 20
-160.295644269068
 30
0.0
 11
117.6601454101072
 21
-160.295644269068
 31
0.0
  0
LINE
  5
135
330
70
100
AcDbEntity
  8
Capa 1
 62
    18
420
        0
370
     9
100
AcDbLine
 10
119.4240342985551
 20
-163.4353664905058
 30
0.0
 11
119.0457671057461
 21
-163.258977601661
 31
0.0
  0
LINE
  5
136
330
70
100
AcDbEntity
  8
Capa 1
 62
    18
420
        0
370
     9
100
AcDbLine
 10
114.3087565220561
 20
-144.861616495149
 30
0.0
 11
114.5468815219963
 21
-144.6234914952085
 31
0.0
  0
LINE
  5
137
330
70
100
AcDbEntity
  8
Capa 1
 62
    18
420
        0
370
     9
100
AcDbLine
 10
117.7112207731872
 20
-144.8317105840867
 30
0.0
 11
117.6697829388777
 21
-144.8467927223775
 31
0.0
  0
LINE
  5
138
330
70
100
AcDbEntity
  8
Capa 1
 62
    18
420
        0
370
     9
100
AcDbLine
 10
111.3101454116947
 20
-160.295644269068
 30
0.0
 11
111.3101454116947
 21
-142.3039776068995
 31
0.0
  0
LINE
  5
139
330
70
100
AcDbEntity
  8
Capa 1
 62
    18
420
        0
370
     9
100
AcDbLine
 10
111.4864702713729
 20
-144.4823803841328
 30
0.0
 11
111.4864702713729
 21
-143.3358526066417
 31
0.0
  0
LINE
  5
13A
330
70
100
AcDbEntity
  8
Capa 1
 62
    18
420
        0
370
     9
100
AcDbLine
 10
111.5746647157953
 20
-144.5705748285552
 30
0.0
 11
111.5746647157953
 21
-143.2476581622192
 31
0.0
  0
LINE
  5
13B
330
70
100
AcDbEntity
  8
Capa 1
 62
    18
420
        0
370
     9
100
AcDbLine
 10
111.6629231893842
 20
-160.6484220467576
 30
0.0
 11
111.6629231893842
 21
-144.5705748285552
 31
0.0
  0
LINE
  5
13C
330
70
100
AcDbEntity
  8
Capa 1
 62
    18
420
        0
370
     9
100
AcDbLine
 10
111.6629231893842
 20
-143.2476581622192
 30
0.0
 11
111.6629231893842
 21
-141.95119982921
 31
0.0
  0
LINE
  5
13D
330
70
100
AcDbEntity
  8
Capa 1
 62
    18
420
        0
370
     9
100
AcDbLine
 10
117.6311245063762
 20
-143.5122414954864
 30
0.0
 11
117.587027284165
 21
-143.5563387176976
 31
0.0
  0
LINE
  5
13E
330
70
100
AcDbEntity
  8
Capa 1
 62
    18
420
        0
370
     9
100
AcDbLine
 10
111.8393120782291
 20
-144.861616495149
 30
0.0
 11
111.8393120782291
 21
-144.5705748285552
 31
0.0
  0
LINE
  5
13F
330
70
100
AcDbEntity
  8
Capa 1
 62
    18
420
        0
370
     9
100
AcDbLine
 10
111.8393120782291
 20
-143.2476581622192
 30
0.0
 11
111.8393120782291
 21
-142.9213387178563
 31
0.0
  0
LINE
  5
140
330
70
100
AcDbEntity
  8
Capa 1
 62
    18
420
        0
370
     9
100
AcDbLine
 10
112.0156369379073
 20
-144.5705748285552
 30
0.0
 11
112.0156369379073
 21
-143.2476581622192
 31
0.0
  0
LINE
  5
141
330
70
100
AcDbEntity
  8
Capa 1
 62
    18
420
        0
370
     9
100
AcDbLine
 10
112.0157009670738
 20
-144.861616495149
 30
0.0
 11
112.0157009670738
 21
-144.5705748285552
 31
0.0
  0
LINE
  5
142
330
70
100
AcDbEntity
  8
Capa 1
 62
    18
420
        0
370
     9
100
AcDbLine
 10
112.0157009670738
 20
-143.2476581622192
 30
0.0
 11
112.0157009670738
 21
-142.9213387178563
 31
0.0
  0
LINE
  5
143
330
70
100
AcDbEntity
  8
Capa 1
 62
    18
420
        0
370
     9
100
AcDbLine
 10
112.1038313823297
 20
-144.4823803841328
 30
0.0
 11
112.1038313823297
 21
-143.3358526066417
 31
0.0
  0
LINE
  5
144
330
70
100
AcDbEntity
  8
Capa 1
 62
    18
420
        0
370
     9
100
AcDbLine
 10
112.1920258267521
 20
-144.5705748285552
 30
0.0
 11
112.1920258267521
 21
-143.2476581622192
 31
0.0
  0
LINE
  5
145
330
70
100
AcDbEntity
  8
Capa 1
 62
    18
420
        0
370
     9
100
AcDbLine
 10
112.1920898559186
 20
-144.861616495149
 30
0.0
 11
112.1920898559186
 21
-144.5705748285552
 31
0.0
  0
LINE
  5
146
330
70
100
AcDbEntity
  8
Capa 1
 62
    18
420
        0
370
     9
100
AcDbLine
 10
112.1920898559186
 20
-143.2476581622192
 30
0.0
 11
112.1920898559186
 21
-142.9213387178563
 31
0.0
  0
LINE
  5
147
330
70
100
AcDbEntity
  8
Capa 1
 62
    18
420
        0
370
     9
100
AcDbLine
 10
112.3684787447634
 20
-144.861616495149
 30
0.0
 11
112.3684787447634
 21
-144.5705748285552
 31
0.0
  0
LINE
  5
148
330
70
100
AcDbEntity
  8
Capa 1
 62
    18
420
        0
370
     9
100
AcDbLine
 10
112.3684787447634
 20
-143.2476581622192
 30
0.0
 11
112.3684787447634
 21
-142.9213387178563
 31
0.0
  0
LINE
  5
149
330
70
100
AcDbEntity
  8
Capa 1
 62
    18
420
        0
370
     9
100
AcDbLine
 10
112.5448676336082
 20
-144.861616495149
 30
0.0
 11
112.5448676336082
 21
-144.5705748285552
 31
0.0
  0
LINE
  5
14A
330
70
100
AcDbEntity
  8
Capa 1
 62
    18
420
        0
370
     9
100
AcDbLine
 10
112.5448676336082
 20
-143.2476581622192
 30
0.0
 11
112.5448676336082
 21
-142.9213387178563
 31
0.0
  0
LINE
  5
14B
330
70
100
AcDbEntity
  8
Capa 1
 62
    18
420
        0
370
     9
100
AcDbLine
 10
118.1998855990814
 20
-146.1743061589687
 30
0.0
 11
118.1584477647718
 21
-146.1893882972595
 31
0.0
  0
LINE
  5
14C
330
70
100
AcDbEntity
  8
Capa 1
 62
    18
420
        0
370
     9
100
AcDbLine
 10
112.721256522453
 20
-144.861616495149
 30
0.0
 11
112.721256522453
 21
-144.5705748285552
 31
0.0
  0
LINE
  5
14D
330
70
100
AcDbEntity
  8
Capa 1
 62
    18
420
        0
370
     9
100
AcDbLine
 10
112.721256522453
 20
-143.2476581622192
 30
0.0
 11
112.721256522453
 21
-142.9213387178563
 31
0.0
  0
LINE
  5
14E
330
70
100
AcDbEntity
  8
Capa 1
 62
    18
420
        0
370
     9
100
AcDbLine
 10
112.8976454112978
 20
-144.861616495149
 30
0.0
 11
112.8976454112978
 21
-144.5705748285552
 31
0.0
  0
LINE
  5
14F
330
70
100
AcDbEntity
  8
Capa 1
 62
    18
420
        0
370
     9
100
AcDbLine
 10
112.8976454112978
 20
-143.2476581622192
 30
0.0
 11
112.8976454112978
 21
-142.9213387178563
 31
0.0
  0
LINE
  5
150
330
70
100
AcDbEntity
  8
Capa 1
 62
    18
420
        0
370
     9
100
AcDbLine
 10
113.0740343001426
 20
-144.861616495149
 30
0.0
 11
113.0740343001426
 21
-144.5705748285552
 31
0.0
  0
LINE
  5
151
330
70
100
AcDbEntity
  8
Capa 1
 62
    18
420
        0
370
     9
100
AcDbLine
 10
113.0740343001426
 20
-143.2476581622192
 30
0.0
 11
113.0740343001426
 21
-142.9213387178563
 31
0.0
  0
LINE
  5
152
330
70
100
AcDbEntity
  8
Capa 1
 62
    18
420
        0
370
     9
100
AcDbLine
 10
113.2504231889874
 20
-144.861616495149
 30
0.0
 11
113.2504231889874
 21
-144.5705748285552
 31
0.0
  0
LINE
  5
153
330
70
100
AcDbEntity
  8
Capa 1
 62
    18
420
        0
370
     9
100
AcDbLine
 10
113.2504231889874
 20
-143.2476581622192
 30
0.0
 11
113.2504231889874
 21
-142.9213387178563
 31
0.0
  0
LINE
  5
154
330
70
100
AcDbEntity
  8
Capa 1
 62
    18
420
        0
370
     9
100
AcDbLine
 10
113.4268120778322
 20
-144.861616495149
 30
0.0
 11
113.4268120778322
 21
-144.5705748285552
 31
0.0
  0
LINE
  5
155
330
70
100
AcDbEntity
  8
Capa 1
 62
    18
420
        0
370
     9
100
AcDbLine
 10
113.4268120778322
 20
-143.2476581622192
 30
0.0
 11
113.4268120778322
 21
-142.9213387178563
 31
0.0
  0
LINE
  5
156
330
70
100
AcDbEntity
  8
Capa 1
 62
    18
420
        0
370
     9
100
AcDbLine
 10
113.6032009666769
 20
-144.861616495149
 30
0.0
 11
113.6032009666769
 21
-144.5705748285552
 31
0.0
  0
LINE
  5
157
330
70
100
AcDbEntity
  8
Capa 1
 62
    18
420
        0
370
     9
100
AcDbLine
 10
113.6032009666769
 20
-143.2476581622192
 30
0.0
 11
113.6032009666769
 21
-142.9213387178563
 31
0.0
  0
LINE
  5
158
330
70
100
AcDbEntity
  8
Capa 1
 62
    18
420
        0
370
     9
100
AcDbLine
 10
113.7795898555218
 20
-144.861616495149
 30
0.0
 11
113.7795898555218
 21
-144.5705748285552
 31
0.0
  0
LINE
  5
159
330
70
100
AcDbEntity
  8
Capa 1
 62
    18
420
        0
370
     9
100
AcDbLine
 10
113.7795898555218
 20
-143.2476581622192
 30
0.0
 11
113.7795898555218
 21
-142.9213387178563
 31
0.0
  0
LINE
  5
15A
330
70
100
AcDbEntity
  8
Capa 1
 62
    18
420
        0
370
     9
100
AcDbLine
 10
113.9559787443665
 20
-144.861616495149
 30
0.0
 11
113.9559787443665
 21
-144.5705748285552
 31
0.0
  0
LINE
  5
15B
330
70
100
AcDbEntity
  8
Capa 1
 62
    18
420
        0
370
     9
100
AcDbLine
 10
113.9559787443665
 20
-143.2476581622192
 30
0.0
 11
113.9559787443665
 21
-142.9213387178563
 31
0.0
  0
LINE
  5
15C
330
70
100
AcDbEntity
  8
Capa 1
 62
    18
420
        0
370
     9
100
AcDbLine
 10
114.1323676332113
 20
-144.861616495149
 30
0.0
 11
114.1323676332113
 21
-144.5705748285552
 31
0.0
  0
LINE
  5
15D
330
70
100
AcDbEntity
  8
Capa 1
 62
    18
420
        0
370
     9
100
AcDbLine
 10
114.1323676332113
 20
-143.2476581622192
 30
0.0
 11
114.1323676332113
 21
-142.9213387178563
 31
0.0
  0
LINE
  5
15E
330
70
100
AcDbEntity
  8
Capa 1
 62
    18
420
        0
370
     9
100
AcDbLine
 10
117.0054109783081
 20
-144.6234914952085
 30
0.0
 11
117.0105028869204
 21
-144.6146720507664
 31
0.0
  0
LINE
  5
15F
330
70
100
AcDbEntity
  8
Capa 1
 62
    18
420
        0
370
     9
100
AcDbLine
 10
114.5732758261568
 20
-144.6234914952085
 30
0.0
 11
114.5732758261568
 21
-144.5705748285552
 31
0.0
  0
LINE
  5
160
330
70
100
AcDbEntity
  8
Capa 1
 62
    18
420
        0
370
     9
100
AcDbLine
 10
114.5732758261568
 20
-143.2476581622192
 30
0.0
 11
114.5732758261568
 21
-143.1594637177969
 31
0.0
  0
LINE
  5
161
330
70
100
AcDbEntity
  8
Capa 1
 62
    18
420
        0
370
     9
100
AcDbLine
 10
114.700539608229
 20
-144.6146720507664
 30
0.0
 11
114.700539608229
 21
-144.5705748285552
 31
0.0
  0
LINE
  5
162
330
70
100
AcDbEntity
  8
Capa 1
 62
    18
420
        0
370
     9
100
AcDbLine
 10
114.700539608229
 20
-143.2476581622192
 30
0.0
 11
114.700539608229
 21
-143.2035609400081
 31
0.0
  0
LINE
  5
163
330
70
100
AcDbEntity
  8
Capa 1
 62
    18
420
        0
370
     9
100
AcDbLine
 10
114.7360850195185
 20
-144.5705748285552
 30
0.0
 11
114.7360850195185
 21
-143.2476581622192
 31
0.0
  0
LINE
  5
164
330
70
100
AcDbEntity
  8
Capa 1
 62
    18
420
        0
370
     9
100
AcDbLine
 10
114.8393335456384
 20
-144.5027950456238
 30
0.0
 11
114.8393335456384
 21
-144.5705748285552
 31
0.0
  0
LINE
  5
165
330
70
100
AcDbEntity
  8
Capa 1
 62
    18
420
        0
370
     9
100
AcDbLine
 10
114.8393335456384
 20
-143.3154379451507
 30
0.0
 11
114.8393335456384
 21
-143.2476581622192
 31
0.0
  0
LINE
  5
166
330
70
100
AcDbEntity
  8
Capa 1
 62
    18
420
        0
370
     9
100
AcDbLine
 10
114.8406291386082
 20
-144.4823803841328
 30
0.0
 11
114.8406291386082
 21
-144.305991495288
 31
0.0
  0
LINE
  5
167
330
70
100
AcDbEntity
  8
Capa 1
 62
    18
420
        0
370
     9
100
AcDbLine
 10
114.8406291386082
 20
-143.5122414954864
 30
0.0
 11
114.8406291386082
 21
-143.3358526066417
 31
0.0
  0
LINE
  5
168
330
70
100
AcDbEntity
  8
Capa 1
 62
    18
420
        0
370
     9
100
AcDbLine
 10
114.8683766861521
 20
-143.5563387176976
 30
0.0
 11
114.8683766861521
 21
-144.2618942730768
 31
0.0
  0
LINE
  5
169
330
70
100
AcDbEntity
  8
Capa 1
 62
    18
420
        0
370
     9
100
AcDbLine
 10
114.9975023061809
 20
-143.2476581622192
 30
0.0
 11
114.9975023061809
 21
-143.5122414954864
 31
0.0
  0
LINE
  5
16A
330
70
100
AcDbEntity
  8
Capa 1
 62
    18
420
        0
370
     9
100
AcDbLine
 10
114.9975023061809
 20
-144.305991495288
 30
0.0
 11
114.9975023061809
 21
-144.5705748285552
 31
0.0
  0
LINE
  5
16B
330
70
100
AcDbEntity
  8
Capa 1
 62
    18
420
        0
370
     9
100
AcDbLine
 10
115.1502595648686
 20
-144.6146720507664
 30
0.0
 11
115.1502595648686
 21
-144.2618942730768
 31
0.0
  0
LINE
  5
16C
330
70
100
AcDbEntity
  8
Capa 1
 62
    18
420
        0
370
     9
100
AcDbLine
 10
115.1502595648686
 20
-143.5563387176976
 30
0.0
 11
115.1502595648686
 21
-143.2035609400081
 31
0.0
  0
LINE
  5
16D
330
70
100
AcDbEntity
  8
Capa 1
 62
    18
420
        0
370
     9
100
AcDbLine
 10
118.1584477647718
 20
-141.628844693515
 30
0.0
 11
117.6697829388777
 21
-142.9714402683969
 31
0.0
  0
LINE
  5
16E
330
70
100
AcDbEntity
  8
Capa 1
 62
    18
420
        0
370
     9
100
AcDbLine
 10
118.1998855990814
 20
-141.6439268317704
 30
0.0
 11
117.7112207731872
 21
-142.9865224066524
 31
0.0
  0
LINE
  5
16F
330
70
100
AcDbEntity
  8
Capa 1
 62
    18
420
        0
370
     9
100
AcDbLine
 10
118.0094460830197
 20
-143.7150920793125
 30
0.0
 11
118.536015519545
 21
-141.7499081885868
 31
0.0
  0
LINE
  5
170
330
70
100
AcDbEntity
  8
Capa 1
 62
    18
420
        0
370
     9
100
AcDbLine
 10
118.052040728826
 20
-143.7265052802789
 30
0.0
 11
118.5786101653154
 21
-141.7613213895532
 31
0.0
  0
LINE
  5
171
330
70
100
AcDbEntity
  8
Capa 1
 62
    18
420
        0
370
     9
100
AcDbLine
 10
116.2754926326758
 20
-140.3276655437062
 30
0.0
 11
116.2754926326758
 21
-141.6777970515007
 31
0.0
  0
LINE
  5
172
330
70
100
AcDbEntity
  8
Capa 1
 62
    18
420
        0
370
     9
100
AcDbLine
 10
116.2754926326758
 20
-162.0867479989744
 30
0.0
 11
116.2754926326758
 21
-160.73661649118
 31
0.0
  0
LINE
  5
173
330
70
100
AcDbEntity
  8
Capa 1
 62
    18
420
        0
370
     9
100
AcDbLine
 10
116.5776906539899
 20
-143.5563387176976
 30
0.0
 11
116.5776906539899
 21
-144.2618942730768
 31
0.0
  0
LINE
  5
174
330
70
100
AcDbEntity
  8
Capa 1
 62
    18
420
        0
370
     9
100
AcDbLine
 10
116.730447912677
 20
-143.5563387176976
 30
0.0
 11
116.730447912677
 21
-144.2618942730768
 31
0.0
  0
LINE
  5
175
330
70
100
AcDbEntity
  8
Capa 1
 62
    18
420
        0
370
     9
100
AcDbLine
 10
116.8322860851359
 20
-144.2618942730768
 30
0.0
 11
116.8322860851359
 21
-143.5563387176976
 31
0.0
  0
LINE
  5
176
330
70
100
AcDbEntity
  8
Capa 1
 62
    18
420
        0
370
     9
100
AcDbLine
 10
116.985043343823
 20
-144.2618942730768
 30
0.0
 11
116.985043343823
 21
-143.5563387176976
 31
0.0
  0
LINE
  5
177
330
70
100
AcDbEntity
  8
Capa 1
 62
    18
420
        0
370
     9
100
AcDbLine
 10
117.3073676324176
 20
-162.9061998239714
 30
0.0
 11
117.3073676324176
 21
-160.73661649118
 31
0.0
  0
LINE
  5
178
330
70
100
AcDbEntity
  8
Capa 1
 62
    18
420
        0
370
     9
100
AcDbLine
 10
117.3073676324176
 20
-141.8630053847875
 30
0.0
 11
117.3073676324176
 21
-139.6934220519967
 31
0.0
  0
LINE
  5
179
330
70
100
AcDbEntity
  8
Capa 1
 62
    18
420
        0
370
     9
100
AcDbLine
 10
117.3382802644008
 20
-144.5705748285552
 30
0.0
 11
117.3382802644008
 21
-144.6146720507664
 31
0.0
  0
LINE
  5
17A
330
70
100
AcDbEntity
  8
Capa 1
 62
    18
420
        0
370
     9
100
AcDbLine
 10
117.3382802644008
 20
-143.2476581622192
 30
0.0
 11
117.3382802644008
 21
-143.2035609400081
 31
0.0
  0
LINE
  5
17B
330
70
100
AcDbEntity
  8
Capa 1
 62
    18
420
        0
370
     9
100
AcDbLine
 10
117.587027284165
 20
-143.5563387176976
 30
0.0
 11
117.587027284165
 21
-144.2618942730768
 31
0.0
  0
LINE
  5
17C
330
70
100
AcDbEntity
  8
Capa 1
 62
    18
420
        0
370
     9
100
AcDbLine
 10
117.6311245063762
 20
-143.5122414954864
 30
0.0
 11
117.6311245063762
 21
-144.305991495288
 31
0.0
  0
LINE
  5
17D
330
70
100
AcDbEntity
  8
Capa 1
 62
    18
420
        0
370
     9
100
AcDbLine
 10
117.6601454101072
 20
-163.258977601661
 30
0.0
 11
117.6601454101072
 21
-160.295644269068
 31
0.0
  0
LINE
  5
17E
330
70
100
AcDbEntity
  8
Capa 1
 62
    18
420
        0
370
     9
100
AcDbLine
 10
117.6601454101072
 20
-142.3039776068995
 30
0.0
 11
117.6601454101072
 21
-139.3406442743072
 31
0.0
  0
LINE
  5
17F
330
70
100
AcDbEntity
  8
Capa 1
 62
    18
420
        0
370
     9
100
AcDbLine
 10
118.8948676320207
 20
-144.6234914952085
 30
0.0
 11
118.8948676320207
 21
-143.1594637177969
 31
0.0
  0
LINE
  5
180
330
70
100
AcDbEntity
  8
Capa 1
 62
    18
420
        0
370
     9
100
AcDbLine
 10
117.6697829388777
 20
-144.8467927223775
 30
0.0
 11
118.1584477647718
 21
-146.1893882972595
 31
0.0
  0
LINE
  5
181
330
70
100
AcDbEntity
  8
Capa 1
 62
    18
420
        0
370
     9
100
AcDbLine
 10
117.7112207731872
 20
-144.8317105840867
 30
0.0
 11
118.1998855990814
 21
-146.1743061589687
 31
0.0
  0
LINE
  5
182
330
70
100
AcDbEntity
  8
Capa 1
 62
    18
420
        0
370
     9
100
AcDbLine
 10
118.536015519545
 20
-146.0683248021523
 30
0.0
 11
118.0094460830197
 21
-144.1031409114266
 31
0.0
  0
LINE
  5
183
330
70
100
AcDbEntity
  8
Capa 1
 62
    18
420
        0
370
     9
100
AcDbLine
 10
118.5786101653154
 20
-146.0569116012212
 30
0.0
 11
118.052040728826
 21
-144.0917277104956
 31
0.0
  0
LINE
  5
184
330
70
100
AcDbEntity
  8
Capa 1
 62
    18
420
        0
370
     9
100
AcDbLine
 10
120.0413954095119
 20
-163.7352276015414
 30
0.0
 11
120.0413954095119
 21
-138.8643942744261
 31
0.0
  0
LINE
  5
185
330
70
100
AcDbEntity
  8
Capa 1
 62
    18
420
        0
370
     9
100
AcDbLine
 10
120.1031315206073
 20
-163.9998109348086
 30
0.0
 11
120.1031315206073
 21
-138.5998109411589
 31
0.0
  0
LINE
  5
186
330
70
100
AcDbEntity
  8
Capa 1
 62
    18
420
        0
370
     9
100
AcDbLine
 10
120.9850759648312
 20
-149.2713387162685
 30
0.0
 11
120.9616587299713
 21
-149.3493961658266
 31
0.0
  0
LINE
  5
187
330
70
100
AcDbEntity
  8
Capa 1
 62
    18
420
        0
370
     9
100
AcDbLine
 10
118.536015519545
 20
-146.0683248021523
 30
0.0
 11
118.5786101653154
 21
-146.0569116012212
 31
0.0
  0
LINE
  5
188
330
70
100
AcDbEntity
  8
Capa 1
 62
    18
420
        0
370
     9
100
AcDbLine
 10
114.5468815219963
 20
-143.1594637177969
 30
0.0
 11
114.3087565220561
 21
-142.9213387178563
 31
0.0
  0
LINE
  5
189
330
70
100
AcDbEntity
  8
Capa 1
 62
    18
420
        0
370
     9
100
AcDbLine
 10
120.8179185571471
 20
-139.0776392274013
 30
0.0
 11
120.8179185571471
 21
-163.5219826485316
 31
0.0
  0
LINE
  5
18A
330
70
100
AcDbEntity
  8
Capa 1
 62
    18
420
        0
370
     9
100
AcDbLine
 10
120.9850759648312
 20
-138.8134184963848
 30
0.0
 11
120.9850759648312
 21
-149.2713387162685
 31
0.0
  0
LINE
  5
18B
330
70
100
AcDbEntity
  8
Capa 1
 62
    18
420
        0
370
     9
100
AcDbLine
 10
120.9850759648312
 20
-149.4477276051133
 30
0.0
 11
120.9850759648312
 21
-163.7862033795478
 31
0.0
  0
LINE
  5
18C
330
70
100
AcDbEntity
  8
Capa 1
 62
    18
420
        0
370
     9
100
AcDbLine
 10
117.0105028869204
 20
-143.2035609400081
 30
0.0
 11
116.985043343823
 21
-143.1594637177969
 31
0.0
  0
LINE
  5
18D
330
70
100
AcDbEntity
  8
Capa 1
 62
    18
420
        0
370
     9
100
AcDbLine
 10
120.9850759648312
 20
-149.4477276051133
 30
0.0
 11
120.9616587299713
 21
-149.3696701555211
 31
0.0
  0
LINE
  5
18E
330
70
100
AcDbEntity
  8
Capa 1
 62
    18
420
        0
370
     9
100
AcDbLine
 10
111.3101454116947
 20
-144.861616495149
 30
0.0
 11
114.3087565220561
 21
-144.861616495149
 31
0.0
  0
LINE
  5
18F
330
70
100
AcDbEntity
  8
Capa 1
 62
    18
420
        0
370
     9
100
AcDbLine
 10
117.6311245063762
 20
-144.305991495288
 30
0.0
 11
117.587027284165
 21
-144.2618942730768
 31
0.0
  0
LINE
  5
190
330
70
100
AcDbEntity
  8
Capa 1
 62
    18
420
        0
370
     9
100
AcDbLine
 10
117.6601454101072
 20
-160.295644269068
 30
0.0
 11
117.3073676324522
 21
-160.7366164912865
 31
0.0
  0
LINE
  5
191
330
70
100
AcDbEntity
  8
Capa 1
 62
    18
420
        0
370
     9
100
AcDbLine
 10
118.0094460830197
 20
-144.1031409114266
 30
0.0
 11
118.052040728826
 21
-144.0917277104956
 31
0.0
  0
LINE
  5
192
330
70
100
AcDbEntity
  8
Capa 1
 62
    18
420
        0
370
     9
100
AcDbLine
 10
114.5468815219963
 20
-144.6234914952085
 30
0.0
 11
117.4158481302999
 21
-144.6234914952085
 31
0.0
  0
LINE
  5
193
330
70
100
AcDbEntity
  8
Capa 1
 62
    18
420
        0
370
     9
100
AcDbLine
 10
118.1945264054933
 20
-144.6234914952085
 30
0.0
 11
118.8948676320207
 21
-144.6234914952085
 31
0.0
  0
LINE
  5
194
330
70
100
AcDbEntity
  8
Capa 1
 62
    18
420
        0
370
     9
100
AcDbLine
 10
114.5732758261568
 20
-144.6146720507664
 30
0.0
 11
117.3382802644008
 21
-144.6146720507664
 31
0.0
  0
LINE
  5
195
330
70
100
AcDbEntity
  8
Capa 1
 62
    18
420
        0
370
     9
100
AcDbLine
 10
111.5747502368539
 20
-144.5705748285552
 30
0.0
 11
117.3382802644008
 21
-144.5705748285552
 31
0.0
  0
LINE
  5
196
330
70
100
AcDbEntity
  8
Capa 1
 62
    18
420
        0
370
     9
100
AcDbLine
 10
114.8406291386082
 20
-144.4823803841328
 30
0.0
 11
111.4864702713729
 21
-144.4823803841328
 31
0.0
  0
LINE
  5
197
330
70
100
AcDbEntity
  8
Capa 1
 62
    18
420
        0
370
     9
100
AcDbLine
 10
117.6311245063762
 20
-144.305991495288
 30
0.0
 11
114.8406291386082
 21
-144.305991495288
 31
0.0
  0
LINE
  5
198
330
70
100
AcDbEntity
  8
Capa 1
 62
    18
420
        0
370
     9
100
AcDbLine
 10
117.587027284165
 20
-144.2618942730768
 30
0.0
 11
114.8640715284285
 21
-144.2618942730768
 31
0.0
  0
LINE
  5
199
330
70
100
AcDbEntity
  8
Capa 1
 62
    18
420
        0
370
     9
100
AcDbLine
 10
117.3073676324176
 20
-141.8630053847875
 30
0.0
 11
117.6601454101072
 21
-142.3039776068995
 31
0.0
  0
LINE
  5
19A
330
70
100
AcDbEntity
  8
Capa 1
 62
    18
420
        0
370
     9
100
AcDbLine
 10
117.6601454101072
 20
-160.295644269068
 30
0.0
 11
117.219173187854
 21
-160.6484220467576
 31
0.0
  0
LINE
  5
19B
330
70
100
AcDbEntity
  8
Capa 1
 62
    18
420
        0
370
     9
100
AcDbLine
 10
114.8640715284285
 20
-143.5563387176976
 30
0.0
 11
117.587027284165
 21
-143.5563387176976
 31
0.0
  0
LINE
  5
19C
330
70
100
AcDbEntity
  8
Capa 1
 62
    18
420
        0
370
     9
100
AcDbLine
 10
114.8406291386082
 20
-143.5122414954864
 30
0.0
 11
117.6311245063762
 21
-143.5122414954864
 31
0.0
  0
LINE
  5
19D
330
70
100
AcDbEntity
  8
Capa 1
 62
    18
420
        0
370
     9
100
AcDbLine
 10
111.4864702713729
 20
-143.3358526066417
 30
0.0
 11
114.8406291386082
 21
-143.3358526066417
 31
0.0
  0
LINE
  5
19E
330
70
100
AcDbEntity
  8
Capa 1
 62
    18
420
        0
370
     9
100
AcDbLine
 10
111.5747502369604
 20
-143.2476581622192
 30
0.0
 11
117.3382802644008
 21
-143.2476581622192
 31
0.0
  0
LINE
  5
19F
330
70
100
AcDbEntity
  8
Capa 1
 62
    18
420
        0
370
     9
100
AcDbLine
 10
114.5732758261568
 20
-143.2035609400081
 30
0.0
 11
117.3382802644008
 21
-143.2035609400081
 31
0.0
  0
LINE
  5
1A0
330
70
100
AcDbEntity
  8
Capa 1
 62
    18
420
        0
370
     9
100
AcDbLine
 10
118.8948676320207
 20
-143.1594637177969
 30
0.0
 11
118.2039790575762
 21
-143.1594637177969
 31
0.0
  0
LINE
  5
1A1
330
70
100
AcDbEntity
  8
Capa 1
 62
    18
420
        0
370
     9
100
AcDbLine
 10
117.5088702357398
 20
-143.1594637177969
 30
0.0
 11
114.5468815219963
 21
-143.1594637177969
 31
0.0
  0
LINE
  5
1A2
330
70
100
AcDbEntity
  8
Capa 1
 62
    18
420
        0
370
     9
100
AcDbLine
 10
118.0094460830197
 20
-143.7150920793125
 30
0.0
 11
118.052040728826
 21
-143.7265052802789
 31
0.0
  0
LINE
  5
1A3
330
70
100
AcDbEntity
  8
Capa 1
 62
    18
420
        0
370
     9
100
AcDbLine
 10
117.2191731879952
 20
-141.95119982921
 30
0.0
 11
117.6601454101072
 21
-142.3039776068995
 31
0.0
  0
LINE
  5
1A4
330
70
100
AcDbEntity
  8
Capa 1
 62
    18
420
        0
370
     9
100
AcDbLine
 10
111.3101454116947
 20
-142.9213387178563
 30
0.0
 11
114.3087565220561
 21
-142.9213387178563
 31
0.0
  0
LINE
  5
1A5
330
70
100
AcDbEntity
  8
Capa 1
 62
    18
420
        0
370
     9
100
AcDbLine
 10
111.3101454116947
 20
-142.3039776068995
 30
0.0
 11
117.6601454101072
 21
-142.3039776068995
 31
0.0
  0
LINE
  5
1A6
330
70
100
AcDbEntity
  8
Capa 1
 62
    18
420
        0
370
     9
100
AcDbLine
 10
117.7112207731872
 20
-142.9865224066524
 30
0.0
 11
117.6697829388777
 21
-142.9714402683969
 31
0.0
  0
LINE
  5
1A7
330
70
100
AcDbEntity
  8
Capa 1
 62
    18
420
        0
370
     9
100
AcDbLine
 10
111.6629231893842
 20
-141.95119982921
 30
0.0
 11
117.2191731879952
 21
-141.95119982921
 31
0.0
  0
LINE
  5
1A8
330
70
100
AcDbEntity
  8
Capa 1
 62
    18
420
        0
370
     9
100
AcDbLine
 10
116.2754926326758
 20
-141.6777970515007
 30
0.0
 11
117.3073676324176
 21
-141.6777970515007
 31
0.0
  0
LINE
  5
1A9
330
70
100
AcDbEntity
  8
Capa 1
 62
    18
420
        0
370
     9
100
AcDbLine
 10
116.7299409977864
 20
-141.289741496042
 30
0.0
 11
117.3073676324176
 21
-141.289741496042
 31
0.0
  0
LINE
  5
1AA
330
70
100
AcDbEntity
  8
Capa 1
 62
    18
420
        0
370
     9
100
AcDbLine
 10
116.4298356682193
 20
-141.2368248293887
 30
0.0
 11
117.3073676324176
 21
-141.2368248293887
 31
0.0
  0
LINE
  5
1AB
330
70
100
AcDbEntity
  8
Capa 1
 62
    18
420
        0
370
     9
100
AcDbLine
 10
116.2754926326758
 20
-141.2096099879302
 30
0.0
 11
117.3073676324176
 21
-141.3915573911131
 31
0.0
  0
LINE
  5
1AC
330
70
100
AcDbEntity
  8
Capa 1
 62
    18
420
        0
370
     9
100
AcDbLine
 10
118.536015519545
 20
-141.7499081885868
 30
0.0
 11
118.5786101653154
 21
-141.7613213895532
 31
0.0
  0
LINE
  5
1AD
330
70
100
AcDbEntity
  8
Capa 1
 62
    18
420
        0
370
     9
100
AcDbLine
 10
118.1998855990814
 20
-141.6439268317704
 30
0.0
 11
118.1584477647718
 21
-141.628844693515
 31
0.0
  0
LINE
  5
1AE
330
70
100
AcDbEntity
  8
Capa 1
 62
    18
420
        0
370
     9
100
AcDbLine
 10
117.3073676324176
 20
-140.089438429063
 30
0.0
 11
116.2754926326758
 21
-140.3276655437062
 31
0.0
  0
LINE
  5
1AF
330
70
100
AcDbEntity
  8
Capa 1
 62
    18
420
        0
370
     9
100
AcDbLine
 10
120.0413954095119
 20
-140.628283162874
 30
0.0
 11
120.1031315206073
 21
-140.628283162874
 31
0.0
  0
LINE
  5
1B0
330
70
100
AcDbEntity
  8
Capa 1
 62
    18
420
        0
370
     9
100
AcDbLine
 10
117.3073676324176
 20
-139.6934220519967
 30
0.0
 11
120.0413954095119
 21
-139.6934220519967
 31
0.0
  0
LINE
  5
1B1
330
70
100
AcDbEntity
  8
Capa 1
 62
    18
420
        0
370
     9
100
AcDbLine
 10
117.6601454101072
 20
-139.3406442743072
 30
0.0
 11
120.0413954095119
 21
-139.3406442743072
 31
0.0
  0
LINE
  5
1B2
330
70
100
AcDbEntity
  8
Capa 1
 62
    18
420
        0
370
     9
100
AcDbLine
 10
120.0413954095119
 20
-139.1642553854624
 30
0.0
 11
119.4240342985551
 21
-139.1642553854624
 31
0.0
  0
LINE
  5
1B3
330
70
100
AcDbEntity
  8
Capa 1
 62
    18
420
        0
370
     9
100
AcDbLine
 10
120.8179185571471
 20
-139.0776392274013
 30
0.0
 11
120.9850759648312
 21
-139.0776392274013
 31
0.0
  0
LINE
  5
1B4
330
70
100
AcDbEntity
  8
Capa 1
 62
    18
420
        0
370
     9
100
AcDbLine
 10
120.1031315206073
 20
-139.0407831632709
 30
0.0
 11
120.0413954095119
 21
-139.0407831632709
 31
0.0
  0
LINE
  5
1B5
330
70
100
AcDbEntity
  8
Capa 1
 62
    18
420
        0
370
     9
100
AcDbLine
 10
120.1031315206073
 20
-138.8643942744261
 30
0.0
 11
120.0413954095119
 21
-138.8643942744261
 31
0.0
  0
LINE
  5
1B6
330
70
100
AcDbEntity
  8
Capa 1
 62
    18
420
        0
370
     9
100
AcDbLine
 10
120.8179185571471
 20
-139.0776392274013
 30
0.0
 11
120.1031315206073
 21
-139.0401788261512
 31
0.0
  0
LINE
  5
1B7
330
70
100
AcDbEntity
  8
Capa 1
 62
    18
420
        0
370
     9
100
AcDbLine
 10
120.8179185571471
 20
-138.6372713424089
 30
0.0
 11
120.1031315206073
 21
-138.5998109411589
 31
0.0
  0
SPLINE
  5
1B8
330
70
100
AcDbEntity
  8
Capa 1
 62
    18
420
        0
370
     9
100
AcDbSpline
210
0.0
220
0.0
230
1.0
 70
     8
 71
     3
 72
     8
 73
     4
 74
     0
 42
0.0000000001
 43
0.0000000001
 40
0.0
 40
0.0
 40
0.0
 40
0.0
 40
1.0
 40
1.0
 40
1.0
 40
1.0
 10
84.00794805861035
 20
-158.8087723141161
 30
0.0
 10
84.00794805861035
 20
-158.9061892074649
 30
0.0
 10
84.08692005410694
 20
-158.9851612029609
 30
0.0
 10
84.18433694745514
 20
-158.9851612029609
 30
0.0
  0
SPLINE
  5
1B9
330
70
100
AcDbEntity
  8
Capa 1
 62
    18
420
        0
370
     9
100
AcDbSpline
210
0.0
220
0.0
230
1.0
 70
     8
 71
     3
 72
     8
 73
     4
 74
     0
 42
0.0000000001
 43
0.0000000001
 40
0.0
 40
0.0
 40
0.0
 40
0.0
 40
1.0
 40
1.0
 40
1.0
 40
1.0
 10
91.43392027897615
 20
-153.4112723154651
 30
0.0
 10
91.38521183230173
 20
-153.4112723154651
 30
0.0
 10
91.34572583455375
 20
-153.450758313214
 30
0.0
 10
91.34572583455375
 20
-153.4994667598875
 30
0.0
  0
SPLINE
  5
1BA
330
70
100
AcDbEntity
  8
Capa 1
 62
    18
420
        0
370
     9
100
AcDbSpline
210
0.0
220
0.0
230
1.0
 70
     8
 71
     3
 72
     8
 73
     4
 74
     0
 42
0.0000000001
 43
0.0000000001
 40
0.0
 40
0.0
 40
0.0
 40
0.0
 40
1.0
 40
1.0
 40
1.0
 40
1.0
 10
88.3030175019811
 20
-155.4397445371802
 30
0.0
 10
88.3030175019811
 20
-155.4884529838549
 30
0.0
 10
88.34250349972906
 20
-155.5279389816026
 30
0.0
 10
88.39121194640348
 20
-155.5279389816026
 30
0.0
  0
SPLINE
  5
1BB
330
70
100
AcDbEntity
  8
Capa 1
 62
    18
420
        0
370
     9
100
AcDbSpline
210
0.0
220
0.0
230
1.0
 70
     8
 71
     3
 72
     8
 73
     4
 74
     0
 42
0.0000000001
 43
0.0000000001
 40
0.0
 40
0.0
 40
0.0
 40
0.0
 40
1.0
 40
1.0
 40
1.0
 40
1.0
 10
90.3314897236962
 20
-155.5279389816026
 30
0.0
 10
90.3801981703703
 20
-155.5279389816026
 30
0.0
 10
90.4196841681186
 20
-155.4884529838549
 30
0.0
 10
90.4196841681186
 20
-155.4397445371802
 30
0.0
  0
SPLINE
  5
1BC
330
70
100
AcDbEntity
  8
Capa 1
 62
    18
420
        0
370
     9
100
AcDbSpline
210
0.0
220
0.0
230
1.0
 70
     8
 71
     3
 72
     8
 73
     4
 74
     0
 42
0.0000000001
 43
0.0000000001
 40
0.0
 40
0.0
 40
0.0
 40
0.0
 40
1.0
 40
1.0
 40
1.0
 40
1.0
 10
90.4196841681186
 20
-153.4994667598875
 30
0.0
 10
90.4196841681186
 20
-153.450758313214
 30
0.0
 10
90.3801981703703
 20
-153.4112723154651
 30
0.0
 10
90.3314897236962
 20
-153.4112723154651
 30
0.0
  0
SPLINE
  5
1BD
330
70
100
AcDbEntity
  8
Capa 1
 62
    18
420
        0
370
     9
100
AcDbSpline
210
0.0
220
0.0
230
1.0
 70
     8
 71
     3
 72
     8
 73
     4
 74
     0
 42
0.0000000001
 43
0.0000000001
 40
0.0
 40
0.0
 40
0.0
 40
0.0
 40
1.0
 40
1.0
 40
1.0
 40
1.0
 10
88.39121194640348
 20
-153.4112723154651
 30
0.0
 10
88.34250349972906
 20
-153.4112723154651
 30
0.0
 10
88.3030175019811
 20
-153.450758313214
 30
0.0
 10
88.3030175019811
 20
-153.4994667598875
 30
0.0
  0
SPLINE
  5
1BE
330
70
100
AcDbEntity
  8
Capa 1
 62
    18
420
        0
370
     9
100
AcDbSpline
210
0.0
220
0.0
230
1.0
 70
     8
 71
     3
 72
     8
 73
     4
 74
     0
 42
0.0000000001
 43
0.0000000001
 40
0.0
 40
0.0
 40
0.0
 40
0.0
 40
1.0
 40
1.0
 40
1.0
 40
1.0
 10
91.34572583455375
 20
-155.4397445371802
 30
0.0
 10
91.34572583455375
 20
-155.4884529838549
 30
0.0
 10
91.38521183230173
 20
-155.5279389816026
 30
0.0
 10
91.43392027897615
 20
-155.5279389816026
 30
0.0
  0
SPLINE
  5
1BF
330
70
100
AcDbEntity
  8
Capa 1
 62
    18
420
        0
370
     9
100
AcDbSpline
210
0.0
220
0.0
230
1.0
 70
     8
 71
     3
 72
     8
 73
     4
 74
     0
 42
0.0000000001
 43
0.0000000001
 40
0.0
 40
0.0
 40
0.0
 40
0.0
 40
1.0
 40
1.0
 40
1.0
 40
1.0
 10
88.37357305751895
 20
-155.4397445371802
 30
0.0
 10
88.37357305751895
 20
-155.4494862265156
 30
0.0
 10
88.381470257069
 20
-155.4573834260651
 30
0.0
 10
88.39121194640348
 20
-155.4573834260651
 30
0.0
  0
SPLINE
  5
1C0
330
70
100
AcDbEntity
  8
Capa 1
 62
    18
420
        0
370
     9
100
AcDbSpline
210
0.0
220
0.0
230
1.0
 70
     8
 71
     3
 72
     8
 73
     4
 74
     0
 42
0.0000000001
 43
0.0000000001
 40
0.0
 40
0.0
 40
0.0
 40
0.0
 40
1.0
 40
1.0
 40
1.0
 40
1.0
 10
88.39121194640348
 20
-153.4818278710033
 30
0.0
 10
88.381470257069
 20
-153.4818278710033
 30
0.0
 10
88.37357305751895
 20
-153.4897250705533
 30
0.0
 10
88.37357305751895
 20
-153.4994667598875
 30
0.0
  0
SPLINE
  5
1C1
330
70
100
AcDbEntity
  8
Capa 1
 62
    18
420
        0
370
     9
100
AcDbSpline
210
0.0
220
0.0
230
1.0
 70
     8
 71
     3
 72
     8
 73
     4
 74
     0
 42
0.0000000001
 43
0.0000000001
 40
0.0
 40
0.0
 40
0.0
 40
0.0
 40
1.0
 40
1.0
 40
1.0
 40
1.0
 10
90.34912861258074
 20
-153.4994667598875
 30
0.0
 10
90.34912861258074
 20
-153.4897250705533
 30
0.0
 10
90.34123141303103
 20
-153.4818278710033
 30
0.0
 10
90.3314897236962
 20
-153.4818278710033
 30
0.0
  0
SPLINE
  5
1C2
330
70
100
AcDbEntity
  8
Capa 1
 62
    18
420
        0
370
     9
100
AcDbSpline
210
0.0
220
0.0
230
1.0
 70
     8
 71
     3
 72
     8
 73
     4
 74
     0
 42
0.0000000001
 43
0.0000000001
 40
0.0
 40
0.0
 40
0.0
 40
0.0
 40
1.0
 40
1.0
 40
1.0
 40
1.0
 10
90.3314897236962
 20
-155.4573834260651
 30
0.0
 10
90.34123141303103
 20
-155.4573834260651
 30
0.0
 10
90.34912861258074
 20
-155.4494862265156
 30
0.0
 10
90.34912861258074
 20
-155.4397445371802
 30
0.0
  0
SPLINE
  5
1C3
330
70
100
AcDbEntity
  8
Capa 1
 62
    18
420
        0
370
     9
100
AcDbSpline
210
0.0
220
0.0
230
1.0
 70
     8
 71
     3
 72
     8
 73
     4
 74
     0
 42
0.0000000001
 43
0.0000000001
 40
0.0
 40
0.0
 40
0.0
 40
0.0
 40
1.0
 40
1.0
 40
1.0
 40
1.0
 10
91.41628139009162
 20
-155.4397445371802
 30
0.0
 10
91.41628139009162
 20
-155.4494862265156
 30
0.0
 10
91.42417858964165
 20
-155.4573834260651
 30
0.0
 10
91.43392027897615
 20
-155.4573834260651
 30
0.0
  0
SPLINE
  5
1C4
330
70
100
AcDbEntity
  8
Capa 1
 62
    18
420
        0
370
     9
100
AcDbSpline
210
0.0
220
0.0
230
1.0
 70
     8
 71
     3
 72
     8
 73
     4
 74
     0
 42
0.0000000001
 43
0.0000000001
 40
0.0
 40
0.0
 40
0.0
 40
0.0
 40
1.0
 40
1.0
 40
1.0
 40
1.0
 10
91.43392027897615
 20
-153.4818278710033
 30
0.0
 10
91.42417858964165
 20
-153.4818278710033
 30
0.0
 10
91.41628139009162
 20
-153.4897250705533
 30
0.0
 10
91.41628139009162
 20
-153.4994667598875
 30
0.0
  0
SPLINE
  5
1C5
330
70
100
AcDbEntity
  8
Capa 1
 62
    18
420
        0
370
     9
100
AcDbSpline
210
0.0
220
0.0
230
1.0
 70
     8
 71
     3
 72
     8
 73
     4
 74
     0
 42
0.0000000001
 43
0.0000000001
 40
0.0
 40
0.0
 40
0.0
 40
0.0
 40
1.0
 40
1.0
 40
1.0
 40
1.0
 10
84.18433694745514
 20
-143.2512723180053
 30
0.0
 10
84.08692005410694
 20
-143.2512723180053
 30
0.0
 10
84.00794805861035
 20
-143.3302443135019
 30
0.0
 10
84.00794805861035
 20
-143.4276612068501
 30
0.0
  0
SPLINE
  5
1C6
330
70
100
AcDbEntity
  8
Capa 1
 62
    18
420
        0
370
     9
100
AcDbSpline
210
0.0
220
0.0
230
1.0
 70
     8
 71
     3
 72
     8
 73
     4
 74
     0
 42
0.0000000001
 43
0.0000000001
 40
0.0
 40
0.0
 40
0.0
 40
0.0
 40
1.0
 40
1.0
 40
1.0
 40
1.0
 10
79.28072583757006
 20
-144.300786206632
 30
0.0
 10
79.28072583757006
 20
-144.3494946533064
 30
0.0
 10
79.32021183531803
 20
-144.3889806510544
 30
0.0
 10
79.36892028199245
 20
-144.3889806510544
 30
0.0
  0
SPLINE
  5
1C7
330
70
100
AcDbEntity
  8
Capa 1
 62
    18
420
        0
370
     9
100
AcDbSpline
210
0.0
220
0.0
230
1.0
 70
     8
 71
     3
 72
     8
 73
     4
 74
     0
 42
0.0000000001
 43
0.0000000001
 40
0.0
 40
0.0
 40
0.0
 40
0.0
 40
1.0
 40
1.0
 40
1.0
 40
1.0
 10
79.36892028199245
 20
-143.0660639847184
 30
0.0
 10
79.32021183531803
 20
-143.0660639847184
 30
0.0
 10
79.28072583757006
 20
-143.1055499824664
 30
0.0
 10
79.28072583757006
 20
-143.1542584291408
 30
0.0
  0
SPLINE
  5
1C8
330
70
100
AcDbEntity
  8
Capa 1
 62
    18
420
        0
370
     9
100
AcDbSpline
210
0.0
220
0.0
230
1.0
 70
     8
 71
     3
 72
     8
 73
     4
 74
     0
 42
0.0000000001
 43
0.0000000001
 40
0.0
 40
0.0
 40
0.0
 40
0.0
 40
1.0
 40
1.0
 40
1.0
 40
1.0
 10
100.6237813877898
 20
-158.9851612029609
 30
0.0
 10
100.7211982811384
 20
-158.9851612029609
 30
0.0
 10
100.8001702766346
 20
-158.9061892074649
 30
0.0
 10
100.8001702766346
 20
-158.8087723141161
 30
0.0
  0
SPLINE
  5
1C9
330
70
100
AcDbEntity
  8
Capa 1
 62
    18
420
        0
370
     9
100
AcDbSpline
210
0.0
220
0.0
230
1.0
 70
     8
 71
     3
 72
     8
 73
     4
 74
     0
 42
0.0000000001
 43
0.0000000001
 40
0.0
 40
0.0
 40
0.0
 40
0.0
 40
1.0
 40
1.0
 40
1.0
 40
1.0
 10
105.5273924976749
 20
-157.9356473143342
 30
0.0
 10
105.5273924976749
 20
-157.8869388676601
 30
0.0
 10
105.4879064999273
 20
-157.8474528699119
 30
0.0
 10
105.4391980532525
 20
-157.8474528699119
 30
0.0
  0
SPLINE
  5
1CA
330
70
100
AcDbEntity
  8
Capa 1
 62
    18
420
        0
370
     9
100
AcDbSpline
210
0.0
220
0.0
230
1.0
 70
     8
 71
     3
 72
     8
 73
     4
 74
     0
 42
0.0000000001
 43
0.0000000001
 40
0.0
 40
0.0
 40
0.0
 40
0.0
 40
1.0
 40
1.0
 40
1.0
 40
1.0
 10
105.4391980532525
 20
-159.1703695362478
 30
0.0
 10
105.4879064999273
 20
-159.1703695362478
 30
0.0
 10
105.5273924976749
 20
-159.1308835385001
 30
0.0
 10
105.5273924976749
 20
-159.0821750918254
 30
0.0
  0
SPLINE
  5
1CB
330
70
100
AcDbEntity
  8
Capa 1
 62
    18
420
        0
370
     9
100
AcDbSpline
210
0.0
220
0.0
230
1.0
 70
     8
 71
     3
 72
     8
 73
     4
 74
     0
 42
0.0000000001
 43
0.0000000001
 40
0.0
 40
0.0
 40
0.0
 40
0.0
 40
1.0
 40
1.0
 40
1.0
 40
1.0
 10
93.37419805626884
 20
-155.5279389816026
 30
0.0
 10
93.42290650294296
 20
-155.5279389816026
 30
0.0
 10
93.46239250069125
 20
-155.4884529838549
 30
0.0
 10
93.46239250069125
 20
-155.4397445371802
 30
0.0
  0
SPLINE
  5
1CC
330
70
100
AcDbEntity
  8
Capa 1
 62
    18
420
        0
370
     9
100
AcDbSpline
210
0.0
220
0.0
230
1.0
 70
     8
 71
     3
 72
     8
 73
     4
 74
     0
 42
0.0000000001
 43
0.0000000001
 40
0.0
 40
0.0
 40
0.0
 40
0.0
 40
1.0
 40
1.0
 40
1.0
 40
1.0
 10
93.46239250069125
 20
-153.4994667598875
 30
0.0
 10
93.46239250069125
 20
-153.450758313214
 30
0.0
 10
93.42290650294296
 20
-153.4112723154651
 30
0.0
 10
93.37419805626884
 20
-153.4112723154651
 30
0.0
  0
SPLINE
  5
1CD
330
70
100
AcDbEntity
  8
Capa 1
 62
    18
420
        0
370
     9
100
AcDbSpline
210
0.0
220
0.0
230
1.0
 70
     8
 71
     3
 72
     8
 73
     4
 74
     0
 42
0.0000000001
 43
0.0000000001
 40
0.0
 40
0.0
 40
0.0
 40
0.0
 40
1.0
 40
1.0
 40
1.0
 40
1.0
 10
94.38843416712641
 20
-155.4397445371802
 30
0.0
 10
94.38843416712641
 20
-155.4884529838549
 30
0.0
 10
94.42792016487437
 20
-155.5279389816026
 30
0.0
 10
94.4766286115488
 20
-155.5279389816026
 30
0.0
  0
SPLINE
  5
1CE
330
70
100
AcDbEntity
  8
Capa 1
 62
    18
420
        0
370
     9
100
AcDbSpline
210
0.0
220
0.0
230
1.0
 70
     8
 71
     3
 72
     8
 73
     4
 74
     0
 42
0.0000000001
 43
0.0000000001
 40
0.0
 40
0.0
 40
0.0
 40
0.0
 40
1.0
 40
1.0
 40
1.0
 40
1.0
 10
96.41690638884151
 20
-155.5279389816026
 30
0.0
 10
96.46561483551563
 20
-155.5279389816026
 30
0.0
 10
96.50510083326391
 20
-155.4884529838549
 30
0.0
 10
96.50510083326391
 20
-155.4397445371802
 30
0.0
  0
SPLINE
  5
1CF
330
70
100
AcDbEntity
  8
Capa 1
 62
    18
420
        0
370
     9
100
AcDbSpline
210
0.0
220
0.0
230
1.0
 70
     8
 71
     3
 72
     8
 73
     4
 74
     0
 42
0.0000000001
 43
0.0000000001
 40
0.0
 40
0.0
 40
0.0
 40
0.0
 40
1.0
 40
1.0
 40
1.0
 40
1.0
 10
96.50510083326391
 20
-153.4994667598875
 30
0.0
 10
96.50510083326391
 20
-153.450758313214
 30
0.0
 10
96.46561483551563
 20
-153.4112723154651
 30
0.0
 10
96.41690638884151
 20
-153.4112723154651
 30
0.0
  0
SPLINE
  5
1D0
330
70
100
AcDbEntity
  8
Capa 1
 62
    18
420
        0
370
     9
100
AcDbSpline
210
0.0
220
0.0
230
1.0
 70
     8
 71
     3
 72
     8
 73
     4
 74
     0
 42
0.0000000001
 43
0.0000000001
 40
0.0
 40
0.0
 40
0.0
 40
0.0
 40
1.0
 40
1.0
 40
1.0
 40
1.0
 10
94.4766286115488
 20
-153.4112723154651
 30
0.0
 10
94.42792016487437
 20
-153.4112723154651
 30
0.0
 10
94.38843416712641
 20
-153.450758313214
 30
0.0
 10
94.38843416712641
 20
-153.4994667598875
 30
0.0
  0
SPLINE
  5
1D1
330
70
100
AcDbEntity
  8
Capa 1
 62
    18
420
        0
370
     9
100
AcDbSpline
210
0.0
220
0.0
230
1.0
 70
     8
 71
     3
 72
     8
 73
     4
 74
     0
 42
0.0000000001
 43
0.0000000001
 40
0.0
 40
0.0
 40
0.0
 40
0.0
 40
1.0
 40
1.0
 40
1.0
 40
1.0
 10
93.39183694515339
 20
-153.4994667598875
 30
0.0
 10
93.39183694515339
 20
-153.4897250705533
 30
0.0
 10
93.38393974560368
 20
-153.4818278710033
 30
0.0
 10
93.37419805626884
 20
-153.4818278710033
 30
0.0
  0
SPLINE
  5
1D2
330
70
100
AcDbEntity
  8
Capa 1
 62
    18
420
        0
370
     9
100
AcDbSpline
210
0.0
220
0.0
230
1.0
 70
     8
 71
     3
 72
     8
 73
     4
 74
     0
 42
0.0000000001
 43
0.0000000001
 40
0.0
 40
0.0
 40
0.0
 40
0.0
 40
1.0
 40
1.0
 40
1.0
 40
1.0
 10
93.37419805626884
 20
-155.4573834260651
 30
0.0
 10
93.38393974560368
 20
-155.4573834260651
 30
0.0
 10
93.39183694515339
 20
-155.4494862265156
 30
0.0
 10
93.39183694515339
 20
-155.4397445371802
 30
0.0
  0
SPLINE
  5
1D3
330
70
100
AcDbEntity
  8
Capa 1
 62
    18
420
        0
370
     9
100
AcDbSpline
210
0.0
220
0.0
230
1.0
 70
     8
 71
     3
 72
     8
 73
     4
 74
     0
 42
0.0000000001
 43
0.0000000001
 40
0.0
 40
0.0
 40
0.0
 40
0.0
 40
1.0
 40
1.0
 40
1.0
 40
1.0
 10
94.45898972266425
 20
-155.4397445371802
 30
0.0
 10
94.45898972266425
 20
-155.4494862265156
 30
0.0
 10
94.4668869222143
 20
-155.4573834260651
 30
0.0
 10
94.4766286115488
 20
-155.4573834260651
 30
0.0
  0
SPLINE
  5
1D4
330
70
100
AcDbEntity
  8
Capa 1
 62
    18
420
        0
370
     9
100
AcDbSpline
210
0.0
220
0.0
230
1.0
 70
     8
 71
     3
 72
     8
 73
     4
 74
     0
 42
0.0000000001
 43
0.0000000001
 40
0.0
 40
0.0
 40
0.0
 40
0.0
 40
1.0
 40
1.0
 40
1.0
 40
1.0
 10
94.4766286115488
 20
-153.4818278710033
 30
0.0
 10
94.4668869222143
 20
-153.4818278710033
 30
0.0
 10
94.45898972266425
 20
-153.4897250705533
 30
0.0
 10
94.45898972266425
 20
-153.4994667598875
 30
0.0
  0
SPLINE
  5
1D5
330
70
100
AcDbEntity
  8
Capa 1
 62
    18
420
        0
370
     9
100
AcDbSpline
210
0.0
220
0.0
230
1.0
 70
     8
 71
     3
 72
     8
 73
     4
 74
     0
 42
0.0000000001
 43
0.0000000001
 40
0.0
 40
0.0
 40
0.0
 40
0.0
 40
1.0
 40
1.0
 40
1.0
 40
1.0
 10
96.43454527772606
 20
-153.4994667598875
 30
0.0
 10
96.43454527772606
 20
-153.4897250705533
 30
0.0
 10
96.42664807817633
 20
-153.4818278710033
 30
0.0
 10
96.41690638884151
 20
-153.4818278710033
 30
0.0
  0
SPLINE
  5
1D6
330
70
100
AcDbEntity
  8
Capa 1
 62
    18
420
        0
370
     9
100
AcDbSpline
210
0.0
220
0.0
230
1.0
 70
     8
 71
     3
 72
     8
 73
     4
 74
     0
 42
0.0000000001
 43
0.0000000001
 40
0.0
 40
0.0
 40
0.0
 40
0.0
 40
1.0
 40
1.0
 40
1.0
 40
1.0
 10
96.41690638884151
 20
-155.4573834260651
 30
0.0
 10
96.42664807817633
 20
-155.4573834260651
 30
0.0
 10
96.43454527772606
 20
-155.4494862265156
 30
0.0
 10
96.43454527772606
 20
-155.4397445371802
 30
0.0
  0
SPLINE
  5
1D7
330
70
100
AcDbEntity
  8
Capa 1
 62
    18
420
        0
370
     9
100
AcDbSpline
210
0.0
220
0.0
230
1.0
 70
     8
 71
     3
 72
     8
 73
     4
 74
     0
 42
0.0000000001
 43
0.0000000001
 40
0.0
 40
0.0
 40
0.0
 40
0.0
 40
1.0
 40
1.0
 40
1.0
 40
1.0
 10
100.8001702766346
 20
-143.4276612068501
 30
0.0
 10
100.8001702766346
 20
-143.3302443135019
 30
0.0
 10
100.7211982811384
 20
-143.2512723180053
 30
0.0
 10
100.6237813877898
 20
-143.2512723180053
 30
0.0
  0
SPLINE
  5
1D8
330
70
100
AcDbEntity
  8
Capa 1
 62
    18
420
        0
370
     9
100
AcDbSpline
210
0.0
220
0.0
230
1.0
 70
     8
 71
     3
 72
     8
 73
     4
 74
     0
 42
0.0000000001
 43
0.0000000001
 40
0.0
 40
0.0
 40
0.0
 40
0.0
 40
1.0
 40
1.0
 40
1.0
 40
1.0
 10
111.3101454116947
 20
-160.295644269068
 30
0.0
 10
111.3101454116947
 20
-160.4904780557657
 30
0.0
 10
111.4680894026866
 20
-160.6484220467576
 30
0.0
 10
111.6629231893842
 20
-160.6484220467576
 30
0.0
  0
SPLINE
  5
1D9
330
70
100
AcDbEntity
  8
Capa 1
 62
    18
420
        0
370
     9
100
AcDbSpline
210
0.0
220
0.0
230
1.0
 70
     8
 71
     3
 72
     8
 73
     4
 74
     0
 42
0.0000000001
 43
0.0000000001
 40
0.0
 40
0.0
 40
0.0
 40
0.0
 40
1.0
 40
1.0
 40
1.0
 40
1.0
 10
111.6629231893842
 20
-141.95119982921
 30
0.0
 10
111.4680894026866
 20
-141.95119982921
 30
0.0
 10
111.3101454116947
 20
-142.1091438202025
 30
0.0
 10
111.3101454116947
 20
-142.3039776068995
 30
0.0
  0
SPLINE
  5
1DA
330
70
100
AcDbEntity
  8
Capa 1
 62
    18
420
        0
370
     9
100
AcDbSpline
210
0.0
220
0.0
230
1.0
 70
     8
 71
     3
 72
     8
 73
     4
 74
     0
 42
0.0000000001
 43
0.0000000001
 40
0.0
 40
0.0
 40
0.0
 40
0.0
 40
1.0
 40
1.0
 40
1.0
 40
1.0
 10
114.8393335456423
 20
-144.5027950456221
 30
0.0
 10
114.8402008442103
 20
-144.4960248007753
 30
0.0
 10
114.8406335944778
 20
-144.4892059538696
 30
0.0
 10
114.8406291386262
 20
-144.4823803841321
 30
0.0
  0
SPLINE
  5
1DB
330
70
100
AcDbEntity
  8
Capa 1
 62
    18
420
        0
370
     9
100
AcDbSpline
210
0.0
220
0.0
230
1.0
 70
     8
 71
     3
 72
     8
 73
     4
 74
     0
 42
0.0000000001
 43
0.0000000001
 40
0.0
 40
0.0
 40
0.0
 40
0.0
 40
1.0
 40
1.0
 40
1.0
 40
1.0
 10
114.8406291386262
 20
-143.3358526066423
 30
0.0
 10
114.8406335944778
 20
-143.3290270369048
 30
0.0
 10
114.8402008442103
 20
-143.3222081899992
 30
0.0
 10
114.8393335456423
 20
-143.3154379451523
 30
0.0
  0
SPLINE
  5
1DC
330
70
100
AcDbEntity
  8
Capa 1
 62
    18
420
        0
370
     9
100
AcDbSpline
210
0.0
220
0.0
230
1.0
 70
     8
 71
     3
 72
     8
 73
     4
 74
     0
 42
0.0000000001
 43
0.0000000001
 40
0.0
 40
0.0
 40
0.0
 40
0.0
 40
1.0
 40
1.0
 40
1.0
 40
1.0
 10
111.4864702713729
 20
-144.4823803841328
 30
0.0
 10
111.4864702713729
 20
-144.5310888308072
 30
0.0
 10
111.5259562691206
 20
-144.5705748285552
 30
0.0
 10
111.5746647157953
 20
-144.5705748285552
 30
0.0
  0
SPLINE
  5
1DD
330
70
100
AcDbEntity
  8
Capa 1
 62
    18
420
        0
370
     9
100
AcDbSpline
210
0.0
220
0.0
230
1.0
 70
     8
 71
     3
 72
     8
 73
     4
 74
     0
 42
0.0000000001
 43
0.0000000001
 40
0.0
 40
0.0
 40
0.0
 40
0.0
 40
1.0
 40
1.0
 40
1.0
 40
1.0
 10
112.0156369379073
 20
-144.5705748285552
 30
0.0
 10
112.0643453845814
 20
-144.5705748285552
 30
0.0
 10
112.1038313823297
 20
-144.5310888308072
 30
0.0
 10
112.1038313823297
 20
-144.4823803841328
 30
0.0
  0
SPLINE
  5
1DE
330
70
100
AcDbEntity
  8
Capa 1
 62
    18
420
        0
370
     9
100
AcDbSpline
210
0.0
220
0.0
230
1.0
 70
     8
 71
     3
 72
     8
 73
     4
 74
     0
 42
0.0000000001
 43
0.0000000001
 40
0.0
 40
0.0
 40
0.0
 40
0.0
 40
1.0
 40
1.0
 40
1.0
 40
1.0
 10
111.5746647157953
 20
-143.2476581622192
 30
0.0
 10
111.5259562691206
 20
-143.2476581622192
 30
0.0
 10
111.4864702713729
 20
-143.2871441599672
 30
0.0
 10
111.4864702713729
 20
-143.3358526066417
 30
0.0
  0
SPLINE
  5
1DF
330
70
100
AcDbEntity
  8
Capa 1
 62
    18
420
        0
370
     9
100
AcDbSpline
210
0.0
220
0.0
230
1.0
 70
     8
 71
     3
 72
     8
 73
     4
 74
     0
 42
0.0000000001
 43
0.0000000001
 40
0.0
 40
0.0
 40
0.0
 40
0.0
 40
1.0
 40
1.0
 40
1.0
 40
1.0
 10
112.1038313823297
 20
-143.3358526066417
 30
0.0
 10
112.1038313823297
 20
-143.2871441599672
 30
0.0
 10
112.0643453845814
 20
-143.2476581622192
 30
0.0
 10
112.0156369379073
 20
-143.2476581622192
 30
0.0
  0
SPLINE
  5
1E0
330
70
100
AcDbEntity
  8
Capa 1
 62
    18
420
        0
370
     9
100
AcDbSpline
210
0.0
220
0.0
230
1.0
 70
     8
 71
     3
 72
     8
 73
     4
 74
     0
 42
0.0000000001
 43
0.0000000001
 40
0.0
 40
0.0
 40
0.0
 40
0.0
 40
1.0
 40
1.0
 40
1.0
 40
1.0
 10
117.3073676324176
 20
-162.9061998239714
 30
0.0
 10
117.3073676324176
 20
-163.1010336106684
 30
0.0
 10
117.4653116234095
 20
-163.258977601661
 30
0.0
 10
117.6601454101072
 20
-163.258977601661
 30
0.0
  0
SPLINE
  5
1E1
330
70
100
AcDbEntity
  8
Capa 1
 62
    18
420
        0
370
     9
100
AcDbSpline
210
0.0
220
0.0
230
1.0
 70
     8
 71
     3
 72
     8
 73
     4
 74
     0
 42
0.0000000001
 43
0.0000000001
 40
0.0
 40
0.0
 40
0.0
 40
0.0
 40
1.0
 40
1.0
 40
1.0
 40
1.0
 10
120.8179185571548
 20
-163.9623505335509
 30
0.0
 10
120.9116193419361
 20
-163.9574398835037
 30
0.0
 10
120.9850759648312
 20
-163.8800327542257
 30
0.0
 10
120.9850759648312
 20
-163.7862033795478
 30
0.0
  0
SPLINE
  5
1E2
330
70
100
AcDbEntity
  8
Capa 1
 62
    18
420
        0
370
     9
100
AcDbSpline
210
0.0
220
0.0
230
1.0
 70
     8
 71
     3
 72
     8
 73
     4
 74
     0
 42
0.0000000001
 43
0.0000000001
 40
0.0
 40
0.0
 40
0.0
 40
0.0
 40
1.0
 40
1.0
 40
1.0
 40
1.0
 10
117.3073676324176
 20
-160.73661649118
 30
0.0
 10
117.3073676324176
 20
-160.6879080445065
 30
0.0
 10
117.2678816346699
 20
-160.6484220467576
 30
0.0
 10
117.2191731879952
 20
-160.6484220467576
 30
0.0
  0
SPLINE
  5
1E3
330
70
100
AcDbEntity
  8
Capa 1
 62
    18
420
        0
370
     9
100
AcDbSpline
210
0.0
220
0.0
230
1.0
 70
     8
 71
     3
 72
     8
 73
     4
 74
     0
 42
0.0000000001
 43
0.0000000001
 40
0.0
 40
0.0
 40
0.0
 40
0.0
 40
1.0
 40
1.0
 40
1.0
 40
1.0
 10
118.0094460884844
 20
-143.7150920807936
 30
0.0
 10
117.9753876901188
 20
-143.8421997539179
 30
0.0
 10
117.9753876901188
 20
-143.9760332368565
 30
0.0
 10
118.0094460884844
 20
-144.1031409099809
 30
0.0
  0
SPLINE
  5
1E4
330
70
100
AcDbEntity
  8
Capa 1
 62
    18
420
        0
370
     9
100
AcDbSpline
210
0.0
220
0.0
230
1.0
 70
     8
 71
     3
 72
     8
 73
     4
 74
     0
 42
0.0000000001
 43
0.0000000001
 40
0.0
 40
0.0
 40
0.0
 40
0.0
 40
1.0
 40
1.0
 40
1.0
 40
1.0
 10
118.0520407288337
 20
-143.7265052802773
 30
0.0
 10
118.0199857654248
 20
-143.8461360323543
 30
0.0
 10
118.0199857654248
 20
-143.9720969584202
 30
0.0
 10
118.0520407288337
 20
-144.0917277104972
 30
0.0
  0
SPLINE
  5
1E5
330
70
100
AcDbEntity
  8
Capa 1
 62
    18
420
        0
370
     9
100
AcDbSpline
210
0.0
220
0.0
230
1.0
 70
     8
 71
     3
 72
     8
 73
     4
 74
     0
 42
0.0000000001
 43
0.0000000001
 40
0.0
 40
0.0
 40
0.0
 40
0.0
 40
1.0
 40
1.0
 40
1.0
 40
1.0
 10
117.3382802644008
 20
-143.2476581476495
 30
0.0
 10
117.5051258673492
 20
-143.2476581476495
 30
0.0
 10
117.6541562024572
 20
-143.143305983585
 30
0.0
 10
117.7112207594908
 20
-142.9865224016837
 30
0.0
  0
SPLINE
  5
1E6
330
70
100
AcDbEntity
  8
Capa 1
 62
    18
420
        0
370
     9
100
AcDbSpline
210
0.0
220
0.0
230
1.0
 70
     8
 71
     3
 72
     8
 73
     4
 74
     0
 42
0.0000000001
 43
0.0000000001
 40
0.0
 40
0.0
 40
0.0
 40
0.0
 40
1.0
 40
1.0
 40
1.0
 40
1.0
 10
117.7112207594908
 20
-144.8317105890907
 30
0.0
 10
117.6541562024572
 20
-144.6749270071894
 30
0.0
 10
117.5051258673492
 20
-144.570574843125
 30
0.0
 10
117.3382802644008
 20
-144.570574843125
 30
0.0
  0
SPLINE
  5
1E7
330
70
100
AcDbEntity
  8
Capa 1
 62
    18
420
        0
370
     9
100
AcDbSpline
210
0.0
220
0.0
230
1.0
 70
     8
 71
     3
 72
     8
 73
     4
 74
     0
 42
0.0000000001
 43
0.0000000001
 40
0.0
 40
0.0
 40
0.0
 40
0.0
 40
1.0
 40
1.0
 40
1.0
 40
1.0
 10
117.3382802644008
 20
-143.2035609400081
 30
0.0
 10
117.4865874724664
 20
-143.2035609400081
 30
0.0
 10
117.6190588863138
 20
-143.1108034574343
 30
0.0
 10
117.6697829388725
 20
-142.9714402684062
 30
0.0
  0
SPLINE
  5
1E8
330
70
100
AcDbEntity
  8
Capa 1
 62
    18
420
        0
370
     9
100
AcDbSpline
210
0.0
220
0.0
230
1.0
 70
     8
 71
     3
 72
     8
 73
     4
 74
     0
 42
0.0000000001
 43
0.0000000001
 40
0.0
 40
0.0
 40
0.0
 40
0.0
 40
1.0
 40
1.0
 40
1.0
 40
1.0
 10
117.6697829388725
 20
-144.8467927223688
 30
0.0
 10
117.6190588863138
 20
-144.7074295333401
 30
0.0
 10
117.4865874724664
 20
-144.6146720507664
 30
0.0
 10
117.3382802644008
 20
-144.6146720507664
 30
0.0
  0
SPLINE
  5
1E9
330
70
100
AcDbEntity
  8
Capa 1
 62
    18
420
        0
370
     9
100
AcDbSpline
210
0.0
220
0.0
230
1.0
 70
     8
 71
     3
 72
     8
 73
     4
 74
     0
 42
0.0000000001
 43
0.0000000001
 40
0.0
 40
0.0
 40
0.0
 40
0.0
 40
1.0
 40
1.0
 40
1.0
 40
1.0
 10
117.6601454101072
 20
-139.3406442743072
 30
0.0
 10
117.4653116234095
 20
-139.3406442743072
 30
0.0
 10
117.3073676324176
 20
-139.4985882652994
 30
0.0
 10
117.3073676324176
 20
-139.6934220519967
 30
0.0
  0
SPLINE
  5
1EA
330
70
100
AcDbEntity
  8
Capa 1
 62
    18
420
        0
370
     9
100
AcDbSpline
210
0.0
220
0.0
230
1.0
 70
     8
 71
     3
 72
    11
 73
     7
 74
     0
 42
0.0000000001
 43
0.0000000001
 40
0.0
 40
0.0
 40
0.0
 40
0.0
 40
1.0
 40
1.0
 40
1.0
 40
2.0
 40
2.0
 40
2.0
 40
2.0
 10
118.5786101653269
 20
-141.7613213895497
 30
0.0
 10
118.6101268494686
 20
-141.6436995230463
 30
0.0
 10
118.5403248075439
 20
-141.5227988399619
 30
0.0
 10
118.4227029410418
 20
-141.4912821558202
 30
0.0
 10
118.3122752620881
 20
-141.4616931484228
 30
0.0
 10
118.1975485834449
 20
-141.5214160771438
 30
0.0
 10
118.1584477647744
 20
-141.6288446935227
 30
0.0
  0
SPLINE
  5
1EB
330
70
100
AcDbEntity
  8
Capa 1
 62
    18
420
        0
370
     9
100
AcDbSpline
210
0.0
220
0.0
230
1.0
 70
     8
 71
     3
 72
    11
 73
     7
 74
     0
 42
0.0000000001
 43
0.0000000001
 40
0.0
 40
0.0
 40
0.0
 40
0.0
 40
1.0
 40
1.0
 40
1.0
 40
2.0
 40
2.0
 40
2.0
 40
2.0
 10
118.1584477647744
 20
-146.1893882972514
 30
0.0
 10
118.2000959395561
 20
-146.3038157170264
 30
0.0
 10
118.3266202078499
 20
-146.362814952274
 30
0.0
 10
118.4410476276242
 20
-146.3211667774922
 30
0.0
 10
118.5484762440027
 20
-146.282065958822
 30
0.0
 10
118.6081991727241
 20
-146.1673392801785
 30
0.0
 10
118.5786101653269
 20
-146.0569116012251
 30
0.0
  0
SPLINE
  5
1EC
330
70
100
AcDbEntity
  8
Capa 1
 62
    18
420
        0
370
     9
100
AcDbSpline
210
0.0
220
0.0
230
1.0
 70
     8
 71
     3
 72
     8
 73
     4
 74
     0
 42
0.0000000001
 43
0.0000000001
 40
0.0
 40
0.0
 40
0.0
 40
0.0
 40
1.0
 40
1.0
 40
1.0
 40
1.0
 10
120.9850759648312
 20
-138.8134184963848
 30
0.0
 10
120.9850759648312
 20
-138.7195891217072
 30
0.0
 10
120.9116193419361
 20
-138.6421819924292
 30
0.0
 10
120.8179185571548
 20
-138.6372713423817
 30
0.0
  0
SPLINE
  5
1ED
330
70
100
AcDbEntity
  8
Capa 1
 62
    18
420
        0
370
     9
100
AcDbSpline
210
0.0
220
0.0
230
1.0
 70
     8
 71
     3
 72
    11
 73
     7
 74
     0
 42
0.0000000001
 43
0.0000000001
 40
0.0
 40
0.0
 40
0.0
 40
0.0
 40
1.0
 40
1.0
 40
1.0
 40
2.0
 40
2.0
 40
2.0
 40
2.0
 10
118.5360155052813
 20
-141.7499081847883
 30
0.0
 10
118.5612288504868
 20
-141.6558106994524
 30
0.0
 10
118.505387221616
 20
-141.5590901610713
 30
0.0
 10
118.4112897362811
 20
-141.5338768158658
 30
0.0
 10
118.3229476005036
 20
-141.5102056119262
 30
0.0
 10
118.2311662652615
 20
-141.5579839509086
 30
0.0
 10
118.1998856129408
 20
-141.643926836827
 30
0.0
  0
SPLINE
  5
1EE
330
70
100
AcDbEntity
  8
Capa 1
 62
    18
420
        0
370
     9
100
AcDbSpline
210
0.0
220
0.0
230
1.0
 70
     8
 71
     3
 72
    11
 73
     7
 74
     0
 42
0.0000000001
 43
0.0000000001
 40
0.0
 40
0.0
 40
0.0
 40
0.0
 40
1.0
 40
1.0
 40
1.0
 40
2.0
 40
2.0
 40
2.0
 40
2.0
 10
118.1998856133387
 20
-146.1743061538027
 30
0.0
 10
118.2332041502982
 20
-146.2658480817495
 30
0.0
 10
118.334423556228
 20
-146.3130474658888
 30
0.0
 10
118.4259654841748
 20
-146.2797289289286
 30
0.0
 10
118.5119083698865
 20
-146.2484482766824
 30
0.0
 10
118.5596867087544
 20
-146.1566669416613
 30
0.0
 10
118.5360155048732
 20
-146.0683248060959
 30
0.0
  0
SPLINE
  5
1EF
330
70
100
AcDbEntity
  8
Capa 1
 62
    18
420
        0
370
     9
100
AcDbSpline
210
0.0
220
0.0
230
1.0
 70
     8
 71
     3
 72
     8
 73
     4
 74
     0
 42
0.0000000001
 43
0.0000000001
 40
0.0
 40
0.0
 40
0.0
 40
0.0
 40
1.0
 40
1.0
 40
1.0
 40
1.0
 10
117.2191731880003
 20
-141.9511999915229
 30
0.0
 10
117.2678816122682
 20
-141.9512001035694
 30
0.0
 10
117.3073676826844
 20
-141.9117142148159
 30
0.0
 10
117.3073677947302
 20
-141.8630057905477
 30
0.0
  0
SPLINE
  5
1F0
330
70
100
AcDbEntity
  8
Capa 1
 62
    18
420
        0
370
     9
100
AcDbSpline
210
0.0
220
0.0
230
1.0
 70
     8
 71
     3
 72
     8
 73
     4
 74
     0
 42
0.0000000001
 43
0.0000000001
 40
0.0
 40
0.0
 40
0.0
 40
0.0
 40
1.0
 40
1.0
 40
1.0
 40
1.0
 10
120.9616587299572
 20
-149.3493961658376
 30
0.0
 10
120.9596756556913
 20
-149.3560086835103
 30
0.0
 10
120.9596756556913
 20
-149.3630576378728
 30
0.0
 10
120.9616587299572
 20
-149.3696701555449
 30
0.0
  0
SPLINE
  5
1F1
330
70
100
AcDbEntity
  8
Capa 1
 62
    18
420
        0
370
     9
100
AcDbSpline
210
0.0
220
0.0
230
1.0
 70
     8
 71
     3
 72
    17
 73
    13
 74
     0
 42
0.0000000001
 43
0.0000000001
 40
0.0
 40
0.0
 40
0.0
 40
0.0
 40
1.0
 40
1.0
 40
1.0
 40
2.0
 40
2.0
 40
2.0
 40
3.0
 40
3.0
 40
3.0
 40
4.0
 40
4.0
 40
4.0
 40
4.0
 10
100.7089287045265
 20
-143.1663667361024
 30
0.0
 10
100.7318557735735
 20
-143.1663043987523
 30
0.0
 10
100.7550499088736
 20
-143.1708065914611
 30
0.0
 10
100.7764290402264
 20
-143.1795801421854
 30
0.0
 10
100.7978215262308
 20
-143.188359173381
 30
0.0
 10
100.8173967400651
 20
-143.2014149005372
 30
0.0
 10
100.8337122116879
 20
-143.2177303703289
 30
0.0
 10
100.8500276828666
 20
-143.2340458396775
 30
0.0
 10
100.8630834120108
 20
-143.2536210514847
 30
0.0
 10
100.8718624451761
 20
-143.2750135359897
 30
0.0
 10
100.8806360005928
 20
-143.296392672482
 30
0.0
 10
100.8851381953233
 20
-143.3195868145753
 30
0.0
 10
100.8850758585376
 20
-143.3425138901135
 30
0.0
  0
SPLINE
  5
1F2
330
70
100
AcDbEntity
  8
Capa 1
 62
    18
420
        0
370
     9
100
AcDbSpline
210
0.0
220
0.0
230
1.0
 70
     8
 71
     3
 72
    17
 73
    13
 74
     0
 42
0.0000000001
 43
0.0000000001
 40
0.0
 40
0.0
 40
0.0
 40
0.0
 40
1.0
 40
1.0
 40
1.0
 40
2.0
 40
2.0
 40
2.0
 40
3.0
 40
3.0
 40
3.0
 40
4.0
 40
4.0
 40
4.0
 40
4.0
 10
83.92304247674271
 20
-143.3425138901135
 30
0.0
 10
83.9229801393926
 20
-143.3195868211018
 30
0.0
 10
83.92748233208383
 20
-143.2963926857844
 30
0.0
 10
83.93625588280517
 20
-143.2750135544222
 30
0.0
 10
83.94503491399758
 20
-143.2536210684092
 30
0.0
 10
83.95809064116537
 20
-143.2340458545748
 30
0.0
 10
83.97440611096312
 20
-143.2177303829521
 30
0.0
 10
83.99072158031746
 20
-143.2014149117734
 30
0.0
 10
84.01029679212497
 20
-143.1883591826292
 30
0.0
 10
84.03168927662973
 20
-143.1795801494729
 30
0.0
 10
84.05306841312196
 20
-143.1708065940645
 30
0.0
 10
84.07626255521567
 20
-143.166304399352
 30
0.0
 10
84.0991896307185
 20
-143.1663667361024
 30
0.0
  0
SPLINE
  5
1F3
330
70
100
AcDbEntity
  8
Capa 1
 62
    18
420
        0
370
     9
100
AcDbSpline
210
0.0
220
0.0
230
1.0
 70
     8
 71
     3
 72
    29
 73
    25
 74
     0
 42
0.0000000001
 43
0.0000000001
 40
0.0
 40
0.0
 40
0.0
 40
0.0
 40
1.0
 40
1.0
 40
1.0
 40
2.0
 40
2.0
 40
2.0
 40
3.0
 40
3.0
 40
3.0
 40
4.0
 40
4.0
 40
4.0
 40
5.0
 40
5.0
 40
5.0
 40
6.0
 40
6.0
 40
6.0
 40
7.0
 40
7.0
 40
7.0
 40
8.0
 40
8.0
 40
8.0
 40
8.0
 10
104.6262308782055
 20
-163.6046092020469
 30
0.0
 10
104.6434985106708
 20
-163.6046091283517
 30
0.0
 10
104.6608139234196
 20
-163.6029101971596
 30
0.0
 10
104.677785362352
 20
-163.5995421173079
 30
0.0
 10
104.6947567776875
 20
-163.59617404214
 30
0.0
 10
104.711384220163
 20
-163.5911368229534
 30
0.0
 10
104.7273637785364
 20
-163.5845250147252
 30
0.0
 10
104.7433432642601
 20
-163.5779132365567
 30
0.0
 10
104.7586748717725
 20
-163.5697268836624
 30
0.0
 10
104.7730584642369
 20
-163.5601220636985
 30
0.0
 10
104.7874420305118
 20
-163.5505172612229
 30
0.0
 10
104.8008775851905
 20
-163.5394939968435
 30
0.0
 10
104.813106994712
 20
-163.5272645873095
 30
0.0
 10
104.8253364042238
 20
-163.5150351777857
 30
0.0
 10
104.8363596685801
 20
-163.5015996231087
 30
0.0
 10
104.8459644710272
 20
-163.4872160568366
 30
0.0
 10
104.8555692909782
 20
-163.4728324643512
 30
0.0
 10
104.8637556438497
 20
-163.4575008568144
 30
0.0
 10
104.8703674219999
 20
-163.4415213710665
 30
0.0
 10
104.8769792301887
 20
-163.4255418127208
 30
0.0
 10
104.8820164493484
 20
-163.4089143702777
 30
0.0
 10
104.8853845245031
 20
-163.3919429549864
 30
0.0
 10
104.8887526043355
 20
-163.374971516125
 30
0.0
 10
104.8904515355264
 20
-163.3576561034611
 30
0.0
 10
104.8904516092216
 20
-163.3403884710308
 30
0.0
  0
SPLINE
  5
1F4
330
70
100
AcDbEntity
  8
Capa 1
 62
    18
420
        0
370
     9
100
AcDbSpline
210
0.0
220
0.0
230
1.0
 70
     8
 71
     3
 72
    29
 73
    25
 74
     0
 42
0.0000000001
 43
0.0000000001
 40
0.0
 40
0.0
 40
0.0
 40
0.0
 40
1.0
 40
1.0
 40
1.0
 40
2.0
 40
2.0
 40
2.0
 40
3.0
 40
3.0
 40
3.0
 40
4.0
 40
4.0
 40
4.0
 40
5.0
 40
5.0
 40
5.0
 40
6.0
 40
6.0
 40
6.0
 40
7.0
 40
7.0
 40
7.0
 40
8.0
 40
8.0
 40
8.0
 40
8.0
 10
79.91766672605864
 20
-163.3403884710308
 30
0.0
 10
79.9176667997536
 20
-163.3576561035317
 30
0.0
 10
79.91936573094605
 20
-163.3749715162623
 30
0.0
 10
79.92273381080348
 20
-163.3919429551866
 30
0.0
 10
79.92610188597779
 20
-163.4089143705132
 30
0.0
 10
79.93113910517566
 20
-163.425541812989
 30
0.0
 10
79.93775091340419
 20
-163.4415213713618
 30
0.0
 10
79.94436269157296
 20
-163.4575008570858
 30
0.0
 10
79.95254904445513
 20
-163.4728324645976
 30
0.0
 10
79.96215386441287
 20
-163.4872160570625
 30
0.0
 10
79.97175866688239
 20
-163.5015996233372
 30
0.0
 10
79.98278193126214
 20
-163.5150351780155
 30
0.0
 10
79.99501134079614
 20
-163.5272645875379
 30
0.0
 10
80.00724075032017
 20
-163.5394939970488
 30
0.0
 10
80.02067630499686
 20
-163.5505172614051
 30
0.0
 10
80.03505987127571
 20
-163.5601220638583
 30
0.0
 10
80.04944346376634
 20
-163.5697268838157
 30
0.0
 10
80.06477507131499
 20
-163.5779132366991
 30
0.0
 10
80.08075455706247
 20
-163.5845250148484
 30
0.0
 10
80.09673411540825
 20
-163.5911368230374
 30
0.0
 10
80.11336155783979
 20
-163.5961740421856
 30
0.0
 10
80.13033297312526
 20
-163.5995421173432
 30
0.0
 10
80.14730441198032
 20
-163.6029101971782
 30
0.0
 10
80.16461982464447
 20
-163.6046091283876
 30
0.0
 10
80.18188745707513
 20
-163.6046092020469
 30
0.0
  0
SPLINE
  5
1F5
330
70
100
AcDbEntity
  8
Capa 1
 62
    18
420
        0
370
     9
100
AcDbSpline
210
0.0
220
0.0
230
1.0
 70
     8
 71
     3
 72
    29
 73
    25
 74
     0
 42
0.0000000001
 43
0.0000000001
 40
0.0
 40
0.0
 40
0.0
 40
0.0
 40
1.0
 40
1.0
 40
1.0
 40
2.0
 40
2.0
 40
2.0
 40
3.0
 40
3.0
 40
3.0
 40
4.0
 40
4.0
 40
4.0
 40
5.0
 40
5.0
 40
5.0
 40
6.0
 40
6.0
 40
6.0
 40
7.0
 40
7.0
 40
7.0
 40
8.0
 40
8.0
 40
8.0
 40
8.0
 10
84.0991896307185
 20
-159.2462139388396
 30
0.0
 10
84.07616622042395
 20
-159.2462138366042
 30
0.0
 10
84.05307910323342
 20
-159.2439486307799
 30
0.0
 10
84.03045061139573
 20
-159.2394579031002
 30
0.0
 10
84.0078219989029
 20
-159.2349671514762
 30
0.0
 10
83.98565201665361
 20
-159.228250854264
 30
0.0
 10
83.96434588711743
 20
-159.2194350886273
 30
0.0
 10
83.94303988328722
 20
-159.2106193750035
 30
0.0
 10
83.92259772197609
 20
-159.1997042177299
 30
0.0
 10
83.90341958703023
 20
-159.1868977663923
 30
0.0
 10
83.88424149643894
 20
-159.1740913446737
 30
0.0
 10
83.86632742636569
 20
-159.1593936376393
 30
0.0
 10
83.85002153688372
 20
-159.1430877498245
 30
0.0
 10
83.83371564574485
 20
-159.126781860354
 30
0.0
 10
83.81901793552447
 20
-159.1088677897745
 30
0.0
 10
83.80621151088963
 20
-159.0896896983243
 30
0.0
 10
83.79340505993452
 20
-159.070511567459
 30
0.0
 10
83.78248990233943
 20
-159.0500694105265
 30
0.0
 10
83.77367418755962
 20
-159.0287634110476
 30
0.0
 10
83.76485841923004
 20
-159.0074572821484
 30
0.0
 10
83.75814211922101
 20
-158.9852873002071
 30
0.0
 10
83.75365136550177
 20
-158.9626586877319
 30
0.0
 10
83.74916063333499
 20
-158.9400301838553
 30
0.0
 10
83.74689542609521
 20
-158.9169430538475
 30
0.0
 10
83.74689532273192
 20
-158.8939196308527
 30
0.0
  0
SPLINE
  5
1F6
330
70
100
AcDbEntity
  8
Capa 1
 62
    18
420
        0
370
     9
100
AcDbSpline
210
0.0
220
0.0
230
1.0
 70
     8
 71
     3
 72
    29
 73
    25
 74
     0
 42
0.0000000001
 43
0.0000000001
 40
0.0
 40
0.0
 40
0.0
 40
0.0
 40
1.0
 40
1.0
 40
1.0
 40
2.0
 40
2.0
 40
2.0
 40
3.0
 40
3.0
 40
3.0
 40
4.0
 40
4.0
 40
4.0
 40
5.0
 40
5.0
 40
5.0
 40
6.0
 40
6.0
 40
6.0
 40
7.0
 40
7.0
 40
7.0
 40
8.0
 40
8.0
 40
8.0
 40
8.0
 10
101.0612230125484
 20
-158.8939196308527
 30
0.0
 10
101.0612229103135
 20
-158.9169430411476
 30
0.0
 10
101.0589577044893
 20
-158.9400301583375
 30
0.0
 10
101.0544669768096
 20
-158.962658650181
 30
0.0
 10
101.0499762251852
 20
-158.9852872626805
 30
0.0
 10
101.0432599279724
 20
-159.0074572449414
 30
0.0
 10
101.0344441623363
 20
-159.0287633744772
 30
0.0
 10
101.0256284487125
 20
-159.0500693783081
 30
0.0
 10
101.0147132914389
 20
-159.0705115396067
 30
0.0
 10
101.0019068400956
 20
-159.0896896745474
 30
0.0
 10
100.9891004183708
 20
-159.1088677651326
 30
0.0
 10
100.974402711325
 20
-159.1267818352058
 30
0.0
 10
100.9580968235104
 20
-159.1430877246878
 30
0.0
 10
100.941790934039
 20
-159.1593936158267
 30
0.0
 10
100.9238768634717
 20
-159.1740913260471
 30
0.0
 10
100.9046987720272
 20
-159.1868977506823
 30
0.0
 10
100.8855206411677
 20
-159.1997042016367
 30
0.0
 10
100.8650784842352
 20
-159.2106193592318
 30
0.0
 10
100.8437724847567
 20
-159.2194350740113
 30
0.0
 10
100.8224663558568
 20
-159.2282508423412
 30
0.0
 10
100.8002963739161
 20
-159.2349671423499
 30
0.0
 10
100.7776677614323
 20
-159.2394578960698
 30
0.0
 10
100.755039257547
 20
-159.2439486282362
 30
0.0
 10
100.7319521275212
 20
-159.246213835476
 30
0.0
 10
100.7089287045265
 20
-159.2462139388396
 30
0.0
  0
SPLINE
  5
1F7
330
70
100
AcDbEntity
  8
Capa 1
 62
    18
420
        0
370
     9
100
AcDbSpline
210
0.0
220
0.0
230
1.0
 70
     8
 71
     3
 72
    29
 73
    25
 74
     0
 42
0.0000000001
 43
0.0000000001
 40
0.0
 40
0.0
 40
0.0
 40
0.0
 40
1.0
 40
1.0
 40
1.0
 40
2.0
 40
2.0
 40
2.0
 40
3.0
 40
3.0
 40
3.0
 40
4.0
 40
4.0
 40
4.0
 40
5.0
 40
5.0
 40
5.0
 40
6.0
 40
6.0
 40
6.0
 40
7.0
 40
7.0
 40
7.0
 40
8.0
 40
8.0
 40
8.0
 40
8.0
 10
100.7089287045265
 20
-142.9902195820916
 30
0.0
 10
100.7319521148563
 20
-142.9902196843265
 30
0.0
 10
100.7550392320469
 20
-142.9924848901686
 30
0.0
 10
100.7776677238845
 20
-142.9969756178512
 30
0.0
 10
100.8002963363774
 20
-143.0014663694782
 30
0.0
 10
100.8224663186267
 20
-143.0081826666795
 30
0.0
 10
100.8437724481628
 20
-143.0169984323097
 30
0.0
 10
100.8650784519934
 20
-143.0258141459274
 30
0.0
 10
100.8855206133045
 20
-143.0367293032014
 30
0.0
 10
100.9046987482504
 20
-143.0495357545447
 30
0.0
 10
100.9238768388414
 20
-143.0623421762691
 30
0.0
 10
100.9417909089146
 20
-143.077039883315
 30
0.0
 10
100.9580967983966
 20
-143.0933457711295
 30
0.0
 10
100.9744026895354
 20
-143.1096516606009
 30
0.0
 10
100.9891003997558
 20
-143.1275657311683
 30
0.0
 10
101.0019068243849
 20
-143.1467438226124
 30
0.0
 10
101.0147132753339
 20
-143.1659219534722
 30
0.0
 10
101.0256284329174
 20
-143.1863641104047
 30
0.0
 10
101.0344441476969
 20
-143.2076701098833
 30
0.0
 10
101.0432599160268
 20
-143.2289762387832
 30
0.0
 10
101.0499762160474
 20
-143.2511462207241
 30
0.0
 10
101.0544669697724
 20
-143.2737748332077
 30
0.0
 10
101.0589577019453
 20
-143.296403337093
 30
0.0
 10
101.0612229091848
 20
-143.319490467119
 30
0.0
 10
101.0612230125484
 20
-143.3425138901135
 30
0.0
  0
SPLINE
  5
1F8
330
70
100
AcDbEntity
  8
Capa 1
 62
    18
420
        0
370
     9
100
AcDbSpline
210
0.0
220
0.0
230
1.0
 70
     8
 71
     3
 72
    29
 73
    25
 74
     0
 42
0.0000000001
 43
0.0000000001
 40
0.0
 40
0.0
 40
0.0
 40
0.0
 40
1.0
 40
1.0
 40
1.0
 40
2.0
 40
2.0
 40
2.0
 40
3.0
 40
3.0
 40
3.0
 40
4.0
 40
4.0
 40
4.0
 40
5.0
 40
5.0
 40
5.0
 40
6.0
 40
6.0
 40
6.0
 40
7.0
 40
7.0
 40
7.0
 40
8.0
 40
8.0
 40
8.0
 40
8.0
 10
83.74689532273192
 20
-143.3425138901135
 30
0.0
 10
83.74689542496676
 20
-143.3194904798189
 30
0.0
 10
83.74916063079096
 20
-143.2964033626284
 30
0.0
 10
83.75365135847101
 20
-143.2737748707849
 30
0.0
 10
83.75814211009508
 20
-143.251146258286
 30
0.0
 10
83.7648584073079
 20
-143.2289762760255
 30
0.0
 10
83.77367417294397
 20
-143.207670146489
 30
0.0
 10
83.78248988656777
 20
-143.1863641426585
 30
0.0
 10
83.79340504384135
 20
-143.1659219813595
 30
0.0
 10
83.80621149518468
 20
-143.1467438464191
 30
0.0
 10
83.81901791690943
 20
-143.1275657558339
 30
0.0
 10
83.83371562395501
 20
-143.1096516857607
 30
0.0
 10
83.85002151176985
 20
-143.0933457962787
 30
0.0
 10
83.86632740124126
 20
-143.0770399051398
 30
0.0
 10
83.88424147180826
 20
-143.0623421949194
 30
0.0
 10
83.90341956325336
 20
-143.0495357702846
 30
0.0
 10
83.92259769411223
 20
-143.0367293193295
 30
0.0
 10
83.94303985104473
 20
-143.0258141617344
 30
0.0
 10
83.96434585052327
 20
-143.0169984469488
 30
0.0
 10
83.98565197942351
 20
-143.0081826786131
 30
0.0
 10
84.00782196136415
 20
-143.0014663785925
 30
0.0
 10
84.03045057384799
 20
-142.9969756248676
 30
0.0
 10
84.05307907773325
 20
-142.9924848926947
 30
0.0
 10
84.07616620775938
 20
-142.9902196854555
 30
0.0
 10
84.0991896307185
 20
-142.9902195820916
 30
0.0
  0
SPLINE
  5
1F9
330
70
100
AcDbEntity
  8
Capa 1
 62
    18
420
        0
370
     9
100
AcDbSpline
210
0.0
220
0.0
230
1.0
 70
     8
 71
     3
 72
    29
 73
    25
 74
     0
 42
0.0000000001
 43
0.0000000001
 40
0.0
 40
0.0
 40
0.0
 40
0.0
 40
1.0
 40
1.0
 40
1.0
 40
2.0
 40
2.0
 40
2.0
 40
3.0
 40
3.0
 40
3.0
 40
4.0
 40
4.0
 40
4.0
 40
5.0
 40
5.0
 40
5.0
 40
6.0
 40
6.0
 40
6.0
 40
7.0
 40
7.0
 40
7.0
 40
8.0
 40
8.0
 40
8.0
 40
8.0
 10
80.18188745707513
 20
-138.631824318884
 30
0.0
 10
80.16461982457419
 20
-138.6318243925792
 30
0.0
 10
80.14730441184301
 20
-138.633523323789
 30
0.0
 10
80.13033297291928
 20
-138.6368914036497
 30
0.0
 10
80.11336155759275
 20
-138.6402594788268
 30
0.0
 10
80.09673411511659
 20
-138.6452966980128
 30
0.0
 10
80.08075455674386
 20
-138.6519085062356
 30
0.0
 10
80.06477507101982
 20
-138.6585202843983
 30
0.0
 10
80.04944346350773
 20
-138.6667066372804
 30
0.0
 10
80.03505987104341
 20
-138.6763114572388
 30
0.0
 10
80.02067630476874
 20
-138.6859162597077
 30
0.0
 10
80.0072407500898
 20
-138.6969395240875
 30
0.0
 10
79.99501134056801
 20
-138.7091689336275
 30
0.0
 10
79.98278193105615
 20
-138.7213983431573
 30
0.0
 10
79.97175866670047
 20
-138.7348338978456
 30
0.0
 10
79.96215386425309
 20
-138.7492174641241
 30
0.0
 10
79.95254904430209
 20
-138.7636010566154
 30
0.0
 10
79.94436269143051
 20
-138.7789326641522
 30
0.0
 10
79.93775091328034
 20
-138.7949121499
 30
0.0
 10
79.9311391050916
 20
-138.8108917082454
 30
0.0
 10
79.92610188593191
 20
-138.8275191506889
 30
0.0
 10
79.92273381076819
 20
-138.8444905659798
 30
0.0
 10
79.91936573092712
 20
-138.8614620048409
 30
0.0
 10
79.91766679971863
 20
-138.8787774175057
 30
0.0
 10
79.91766672605864
 20
-138.8960450499004
 30
0.0
  0
SPLINE
  5
1FA
330
70
100
AcDbEntity
  8
Capa 1
 62
    18
420
        0
370
     9
100
AcDbSpline
210
0.0
220
0.0
230
1.0
 70
     8
 71
     3
 72
    29
 73
    25
 74
     0
 42
0.0000000001
 43
0.0000000001
 40
0.0
 40
0.0
 40
0.0
 40
0.0
 40
1.0
 40
1.0
 40
1.0
 40
2.0
 40
2.0
 40
2.0
 40
3.0
 40
3.0
 40
3.0
 40
4.0
 40
4.0
 40
4.0
 40
5.0
 40
5.0
 40
5.0
 40
6.0
 40
6.0
 40
6.0
 40
7.0
 40
7.0
 40
7.0
 40
8.0
 40
8.0
 40
8.0
 40
8.0
 10
104.8904516092216
 20
-138.8960450499004
 30
0.0
 10
104.8904515355264
 20
-138.8787774174348
 30
0.0
 10
104.8887526043166
 20
-138.861462004686
 30
0.0
 10
104.8853845244563
 20
-138.8444905657594
 30
0.0
 10
104.8820164492787
 20
-138.8275191504299
 30
0.0
 10
104.8769792300928
 20
-138.810891707966
 30
0.0
 10
104.87036742187
 20
-138.7949121495926
 30
0.0
 10
104.8637556437073
 20
-138.7789326638692
 30
0.0
 10
104.8555692908255
 20
-138.7636010563449
 30
0.0
 10
104.8459644708674
 20
-138.7492174638748
 30
0.0
 10
104.8363596683979
 20
-138.7348338975941
 30
0.0
 10
104.8253364040181
 20
-138.7213983429155
 30
0.0
 10
104.8131069944842
 20
-138.7091689333936
 30
0.0
 10
104.8008775849598
 20
-138.6969395238818
 30
0.0
 10
104.7874420302834
 20
-138.6859162595258
 30
0.0
 10
104.7730584640049
 20
-138.6763114570784
 30
0.0
 10
104.7586748715139
 20
-138.6667066371277
 30
0.0
 10
104.7433432639653
 20
-138.6585202842558
 30
0.0
 10
104.7273637782178
 20
-138.6519085061057
 30
0.0
 10
104.711384219872
 20
-138.6452966979172
 30
0.0
 10
104.6947567774405
 20
-138.6402594787572
 30
0.0
 10
104.6777853621464
 20
-138.6368914036025
 30
0.0
 10
104.6608139232823
 20
-138.6335233237701
 30
0.0
 10
104.6434985106002
 20
-138.6318243925792
 30
0.0
 10
104.6262308782055
 20
-138.631824318884
 30
0.0
  0
SPLINE
  5
1FB
330
70
100
AcDbEntity
  8
Capa 1
 62
    18
420
        0
370
     9
100
AcDbSpline
210
0.0
220
0.0
230
1.0
 70
     8
 71
     3
 72
    17
 73
    13
 74
     0
 42
0.0000000001
 43
0.0000000001
 40
0.0
 40
0.0
 40
0.0
 40
0.0
 40
1.0
 40
1.0
 40
1.0
 40
2.0
 40
2.0
 40
2.0
 40
3.0
 40
3.0
 40
3.0
 40
4.0
 40
4.0
 40
4.0
 40
4.0
 10
100.8850758585376
 20
-158.8939196308527
 30
0.0
 10
100.8851381958877
 20
-158.9168466998651
 30
0.0
 10
100.8806360031964
 20
-158.9400408351648
 30
0.0
 10
100.8718624524751
 20
-158.9614199665177
 30
0.0
 10
100.8630834212827
 20
-158.9828124525221
 30
0.0
 10
100.8500276941149
 20
-159.0023876663564
 30
0.0
 10
100.8337122243168
 20
-159.0187031379791
 30
0.0
 10
100.8173967549625
 20
-159.0350186091578
 30
0.0
 10
100.7978215431553
 20
-159.0480743383021
 30
0.0
 10
100.7764290586502
 20
-159.0568533714667
 30
0.0
 10
100.755049922158
 20
-159.0656269268844
 30
0.0
 10
100.7318557800646
 20
-159.0701291216143
 30
0.0
 10
100.7089287045265
 20
-159.0700667848635
 30
0.0
  0
SPLINE
  5
1FC
330
70
100
AcDbEntity
  8
Capa 1
 62
    18
420
        0
370
     9
100
AcDbSpline
210
0.0
220
0.0
230
1.0
 70
     8
 71
     3
 72
    17
 73
    13
 74
     0
 42
0.0000000001
 43
0.0000000001
 40
0.0
 40
0.0
 40
0.0
 40
0.0
 40
1.0
 40
1.0
 40
1.0
 40
2.0
 40
2.0
 40
2.0
 40
3.0
 40
3.0
 40
3.0
 40
4.0
 40
4.0
 40
4.0
 40
4.0
 10
84.0991896307185
 20
-159.0700667848635
 30
0.0
 10
84.07626256170678
 20
-159.0701291222136
 30
0.0
 10
84.05306842640705
 20
-159.0656269295051
 30
0.0
 10
84.03168929505387
 20
-159.056853378775
 30
0.0
 10
84.01029680904946
 20
-159.0480743475733
 30
0.0
 10
83.99072159521482
 20
-159.0350186204062
 30
0.0
 10
83.97440612359238
 20
-159.0187031506078
 30
0.0
 10
83.95809065241339
 20
-159.0023876812534
 30
0.0
 10
83.94503492326951
 20
-158.9828124694463
 30
0.0
 10
83.93625589010417
 20
-158.9614199849415
 30
0.0
 10
83.92748233468752
 20
-158.9400408484493
 30
0.0
 10
83.92298013995699
 20
-158.9168467063553
 30
0.0
 10
83.92304247674271
 20
-158.8939196308527
 30
0.0
  0
SPLINE
  5
1FD
330
70
100
AcDbEntity
  8
Capa 1
 62
    18
420
        0
370
     9
100
AcDbSpline
210
0.0
220
0.0
230
1.0
 70
     8
 71
     3
 72
    11
 73
     7
 74
     0
 42
0.0000000001
 43
0.0000000001
 40
0.0
 40
0.0
 40
0.0
 40
0.0
 40
1.0
 40
1.0
 40
1.0
 40
2.0
 40
2.0
 40
2.0
 40
2.0
 10
83.83471737683684
 20
-149.1678019883258
 30
0.0
 10
83.83633075548546
 20
-149.1708894933682
 30
0.0
 10
83.83725878479866
 20
-149.1744143385279
 30
0.0
 10
83.83725875431828
 20
-149.1779391724952
 30
0.0
 10
83.83725872383918
 20
-149.1814638825895
 30
0.0
 10
83.83633069879424
 20
-149.1849885814918
 30
0.0
 10
83.83471737683684
 20
-149.1880759780203
 30
0.0
  0
SPLINE
  5
1FE
330
70
100
AcDbEntity
  8
Capa 1
 62
    18
420
        0
370
     9
100
AcDbSpline
210
0.0
220
0.0
230
1.0
 70
     8
 71
     3
 72
    11
 73
     7
 74
     0
 42
0.0000000001
 43
0.0000000001
 40
0.0
 40
0.0
 40
0.0
 40
0.0
 40
1.0
 40
1.0
 40
1.0
 40
2.0
 40
2.0
 40
2.0
 40
2.0
 10
100.9734009584431
 20
-149.1880759780203
 30
0.0
 10
100.971787636486
 20
-149.1849885814918
 30
0.0
 10
100.9708596114414
 20
-149.1814638825895
 30
0.0
 10
100.970859580962
 20
-149.1779391724952
 30
0.0
 10
100.9708595504816
 20
-149.1744143385279
 30
0.0
 10
100.9717875797948
 20
-149.1708894933682
 30
0.0
 10
100.9734009584431
 20
-149.1678019883258
 30
0.0
  0
SPLINE
  5
1FF
330
70
100
AcDbEntity
  8
Capa 1
 62
    18
420
        0
370
     9
100
AcDbSpline
210
0.0
220
0.0
230
1.0
 70
     8
 71
     3
 72
    29
 73
    25
 74
     0
 42
0.0000000001
 43
0.0000000001
 40
0.0
 40
0.0
 40
0.0
 40
0.0
 40
1.0
 40
1.0
 40
1.0
 40
2.0
 40
2.0
 40
2.0
 40
3.0
 40
3.0
 40
3.0
 40
4.0
 40
4.0
 40
4.0
 40
5.0
 40
5.0
 40
5.0
 40
6.0
 40
6.0
 40
6.0
 40
7.0
 40
7.0
 40
7.0
 40
8.0
 40
8.0
 40
8.0
 40
8.0
 10
104.6262308782055
 20
-163.7807563560578
 30
0.0
 10
104.6549960619681
 20
-163.7807248510978
 30
0.0
 10
104.6838375928595
 20
-163.7778614022221
 30
0.0
 10
104.7121032352051
 20
-163.7722199972958
 30
0.0
 10
104.7403711316251
 20
-163.766578142489
 30
0.0
 10
104.7680630476457
 20
-163.7581578885519
 30
0.0
 10
104.7946750206819
 20
-163.7471198153084
 30
0.0
 10
104.8212885255079
 20
-163.7360811067103
 30
0.0
 10
104.8468219630221
 20
-163.7224242774343
 30
0.0
 10
104.8707784407191
 20
-163.7064105312516
 30
0.0
 10
104.89473568022
 20
-163.6903962758396
 30
0.0
 10
104.9171158596086
 20
-163.6720249536225
 30
0.0
 10
104.9374916103994
 20
-163.6516492028118
 30
0.0
 10
104.9578673611578
 20
-163.6312734520345
 30
0.0
 10
104.9762386833239
 20
-163.6088932726699
 30
0.0
 10
104.9922529386852
 20
-163.5849360331937
 30
0.0
 10
105.0082666848682
 20
-163.5609795554451
 30
0.0
 10
105.0219235141307
 20
-163.5354461178689
 30
0.0
 10
105.0329622227051
 20
-163.5088326129839
 30
0.0
 10
105.0440002958828
 20
-163.4822206399943
 30
0.0
 10
105.0524205497664
 20
-163.4545287240314
 30
0.0
 10
105.0580624045362
 20
-163.4262608276897
 30
0.0
 10
105.0637038094166
 20
-163.397995185468
 30
0.0
 10
105.0665672582721
 20
-163.3691536547228
 30
0.0
 10
105.0665987632327
 20
-163.3403884710308
 30
0.0
  0
SPLINE
  5
200
330
70
100
AcDbEntity
  8
Capa 1
 62
    18
420
        0
370
     9
100
AcDbSpline
210
0.0
220
0.0
230
1.0
 70
     8
 71
     3
 72
    29
 73
    25
 74
     0
 42
0.0000000001
 43
0.0000000001
 40
0.0
 40
0.0
 40
0.0
 40
0.0
 40
1.0
 40
1.0
 40
1.0
 40
2.0
 40
2.0
 40
2.0
 40
3.0
 40
3.0
 40
3.0
 40
4.0
 40
4.0
 40
4.0
 40
5.0
 40
5.0
 40
5.0
 40
6.0
 40
6.0
 40
6.0
 40
7.0
 40
7.0
 40
7.0
 40
8.0
 40
8.0
 40
8.0
 40
8.0
 10
105.0665987632327
 20
-138.8960450499004
 30
0.0
 10
105.0665672582721
 20
-138.8672798661375
 30
0.0
 10
105.0637038093967
 20
-138.8384383352637
 30
0.0
 10
105.0580624044704
 20
-138.810172692921
 30
0.0
 10
105.052420549664
 20
-138.7819047965039
 30
0.0
 10
105.0440002957266
 20
-138.7542128804721
 30
0.0
 10
105.0329622224827
 20
-138.7276009074356
 30
0.0
 10
105.0219235138852
 20
-138.7009874026096
 30
0.0
 10
105.0082666846086
 20
-138.6754539651069
 30
0.0
 10
104.9922529384259
 20
-138.6514974874103
 30
0.0
 10
104.9762386830143
 20
-138.627540247909
 30
0.0
 10
104.9578673607969
 20
-138.6051600685085
 30
0.0
 10
104.9374916099804
 20
-138.584784317718
 30
0.0
 10
104.9171158591966
 20
-138.5644085669599
 30
0.0
 10
104.8947356798205
 20
-138.5460372448051
 30
0.0
 10
104.8707784403447
 20
-138.5300229894442
 30
0.0
 10
104.8468219625957
 20
-138.5140092432611
 30
0.0
 10
104.8212885250317
 20
-138.5003524139867
 30
0.0
 10
104.7946750201525
 20
-138.489313705406
 30
0.0
 10
104.7680630471693
 20
-138.4782756322227
 30
0.0
 10
104.740371131206
 20
-138.4698553783392
 30
0.0
 10
104.7121032348554
 20
-138.4642135235691
 30
0.0
 10
104.683837592625
 20
-138.4585721186889
 30
0.0
 10
104.6549960618622
 20
-138.4557086698335
 30
0.0
 10
104.6262308782055
 20
-138.4556771649081
 30
0.0
  0
SPLINE
  5
201
330
70
100
AcDbEntity
  8
Capa 1
 62
    18
420
        0
370
     9
100
AcDbSpline
210
0.0
220
0.0
230
1.0
 70
     8
 71
     3
 72
    29
 73
    25
 74
     0
 42
0.0000000001
 43
0.0000000001
 40
0.0
 40
0.0
 40
0.0
 40
0.0
 40
1.0
 40
1.0
 40
1.0
 40
2.0
 40
2.0
 40
2.0
 40
3.0
 40
3.0
 40
3.0
 40
4.0
 40
4.0
 40
4.0
 40
5.0
 40
5.0
 40
5.0
 40
6.0
 40
6.0
 40
6.0
 40
7.0
 40
7.0
 40
7.0
 40
8.0
 40
8.0
 40
8.0
 40
8.0
 10
79.74151957204753
 20
-163.3403884710308
 30
0.0
 10
79.74155107700818
 20
-163.3691536548287
 30
0.0
 10
79.74441452588354
 20
-163.3979951857028
 30
0.0
 10
79.75005593080985
 20
-163.4262608280452
 30
0.0
 10
79.75569778561627
 20
-163.4545287244626
 30
0.0
 10
79.76411803955368
 20
-163.4822206404948
 30
0.0
 10
79.77515611279756
 20
-163.5088326135306
 30
0.0
 10
79.78619482139503
 20
-163.5354461183566
 30
0.0
 10
79.79985165067164
 20
-163.5609795558596
 30
0.0
 10
79.81586539685403
 20
-163.5849360335505
 30
0.0
 10
79.83187965226568
 20
-163.608893273046
 30
0.0
 10
79.85025097448339
 20
-163.6312734524343
 30
0.0
 10
79.87062672529955
 20
-163.6516492032245
 30
0.0
 10
79.8910024760833
 20
-163.6720249539832
 30
0.0
 10
79.91338265545974
 20
-163.6903962761495
 30
0.0
 10
79.93733989493595
 20
-163.7064105315108
 30
0.0
 10
79.96129637268426
 20
-163.7224242776935
 30
0.0
 10
79.98682981024856
 20
-163.736081106956
 30
0.0
 10
80.01344331512749
 20
-163.7471198155304
 30
0.0
 10
80.04005528811134
 20
-163.7581578887078
 30
0.0
 10
80.06774720407422
 20
-163.7665781425917
 30
0.0
 10
80.09601510042456
 20
-163.7722199973618
 30
0.0
 10
80.12428074265526
 20
-163.777861402242
 30
0.0
 10
80.15312227341809
 20
-163.7807248510978
 30
0.0
 10
80.18188745707513
 20
-163.7807563560578
 30
0.0
  0
SPLINE
  5
202
330
70
100
AcDbEntity
  8
Capa 1
 62
    18
420
        0
370
     9
100
AcDbSpline
210
0.0
220
0.0
230
1.0
 70
     8
 71
     3
 72
    29
 73
    25
 74
     0
 42
0.0000000001
 43
0.0000000001
 40
0.0
 40
0.0
 40
0.0
 40
0.0
 40
1.0
 40
1.0
 40
1.0
 40
2.0
 40
2.0
 40
2.0
 40
3.0
 40
3.0
 40
3.0
 40
4.0
 40
4.0
 40
4.0
 40
5.0
 40
5.0
 40
5.0
 40
6.0
 40
6.0
 40
6.0
 40
7.0
 40
7.0
 40
7.0
 40
8.0
 40
8.0
 40
8.0
 40
8.0
 10
80.18188745707513
 20
-138.4556771649081
 30
0.0
 10
80.1531222732769
 20
-138.4557086698335
 30
0.0
 10
80.12428074240276
 20
-138.4585721187088
 30
0.0
 10
80.0960151000604
 20
-138.4642135236355
 30
0.0
 10
80.06774720364331
 20
-138.4698553784416
 30
0.0
 10
80.04005528761146
 20
-138.478275632379
 30
0.0
 10
80.01344331457499
 20
-138.4893137056232
 30
0.0
 10
79.986829809749
 20
-138.5003524142204
 30
0.0
 10
79.9612963722463
 20
-138.5140092434969
 30
0.0
 10
79.9373398945551
 20
-138.5300229896797
 30
0.0
 10
79.91338265505996
 20
-138.5460372450913
 30
0.0
 10
79.89100247567133
 20
-138.564408567309
 30
0.0
 10
79.87062672488083
 20
-138.5847843181255
 30
0.0
 10
79.85025097412275
 20
-138.6051600689089
 30
0.0
 10
79.83187965195607
 20
-138.627540248285
 30
0.0
 10
79.81586539659511
 20
-138.6514974877613
 30
0.0
 10
79.79985165041206
 20
-138.6754539655099
 30
0.0
 10
79.78619482114957
 20
-138.7009874030739
 30
0.0
 10
79.77515611257489
 20
-138.7276009079528
 30
0.0
 10
79.76411803939743
 20
-138.7542128809367
 30
0.0
 10
79.75569778551393
 20
-138.7819047968996
 30
0.0
 10
79.75005593074439
 20
-138.8101726932502
 30
0.0
 10
79.74441452586397
 20
-138.8384383354806
 30
0.0
 10
79.74155107700818
 20
-138.8672798662434
 30
0.0
 10
79.74151957204753
 20
-138.8960450499004
 30
0.0
  0
SPLINE
  5
203
330
70
100
AcDbEntity
  8
Capa 1
 62
    18
420
        0
370
     9
100
AcDbSpline
210
0.0
220
0.0
230
1.0
 70
     8
 71
     3
 72
    11
 73
     7
 74
     0
 42
0.0000000001
 43
0.0000000001
 40
0.0
 40
0.0
 40
0.0
 40
0.0
 40
1.0
 40
1.0
 40
1.0
 40
2.0
 40
2.0
 40
2.0
 40
2.0
 10
79.8298446719534
 20
-149.1880759780203
 30
0.0
 10
79.82823134999631
 20
-149.1849885814918
 30
0.0
 10
79.82730332495139
 20
-149.1814638825895
 30
0.0
 10
79.82730329447196
 20
-149.1779391724952
 30
0.0
 10
79.82730326399158
 20
-149.1744143385279
 30
0.0
 10
79.82823129330478
 20
-149.1708894933682
 30
0.0
 10
79.8298446719534
 20
-149.1678019883258
 30
0.0
  0
SPLINE
  5
204
330
70
100
AcDbEntity
  8
Capa 1
 62
    18
420
        0
370
     9
100
AcDbSpline
210
0.0
220
0.0
230
1.0
 70
     8
 71
     3
 72
    11
 73
     7
 74
     0
 42
0.0000000001
 43
0.0000000001
 40
0.0
 40
0.0
 40
0.0
 40
0.0
 40
1.0
 40
1.0
 40
1.0
 40
2.0
 40
2.0
 40
2.0
 40
2.0
 10
104.9782736633269
 20
-149.1678019883258
 30
0.0
 10
104.9798870419755
 20
-149.1708894933682
 30
0.0
 10
104.9808150712887
 20
-149.1744143385279
 30
0.0
 10
104.9808150407993
 20
-149.1779391724952
 30
0.0
 10
104.9808150103109
 20
-149.1814638825895
 30
0.0
 10
104.979886985249
 20
-149.1849885814918
 30
0.0
 10
104.9782736633269
 20
-149.1880759780203
 30
0.0
  0
SPLINE
  5
205
330
70
100
AcDbEntity
  8
Capa 1
 62
    18
420
        0
370
     9
100
AcDbSpline
210
0.0
220
0.0
230
1.0
 70
     8
 71
     3
 72
    14
 73
    10
 74
     0
 42
0.0000000001
 43
0.0000000001
 40
0.0
 40
0.0
 40
0.0
 40
0.0
 40
1.0
 40
1.0
 40
1.0
 40
2.0
 40
2.0
 40
2.0
 40
3.0
 40
3.0
 40
3.0
 40
3.0
 10
114.9975023061809
 20
-143.2476581622192
 30
0.0
 10
114.9975023061809
 20
-143.2366158422102
 30
0.0
 10
115.001402676868
 20
-143.2249596735128
 30
0.0
 10
115.0086876975083
 20
-143.2164767173414
 30
0.0
 10
115.0121289942161
 20
-143.2124695400677
 30
0.0
 10
115.0163255508212
 20
-143.209170441974
 30
0.0
 10
115.0210772028621
 20
-143.2069176411603
 30
0.0
 10
115.0256304042799
 20
-143.2047589275658
 30
0.0
 10
115.0306933027477
 20
-143.2035609400081
 30
0.0
 10
115.0356916208616
 20
-143.2035609400081
 30
0.0
  0
SPLINE
  5
206
330
70
100
AcDbEntity
  8
Capa 1
 62
    18
420
        0
370
     9
100
AcDbSpline
210
0.0
220
0.0
230
1.0
 70
     8
 71
     3
 72
    14
 73
    10
 74
     0
 42
0.0000000001
 43
0.0000000001
 40
0.0
 40
0.0
 40
0.0
 40
0.0
 40
1.0
 40
1.0
 40
1.0
 40
2.0
 40
2.0
 40
2.0
 40
3.0
 40
3.0
 40
3.0
 40
3.0
 10
114.8393335456384
 20
-143.2476581622192
 30
0.0
 10
114.8393335456384
 20
-143.2366158422102
 30
0.0
 10
114.8432339163012
 20
-143.2249596735151
 30
0.0
 10
114.8505189369319
 20
-143.216476717345
 30
0.0
 10
114.8539602336371
 20
-143.212469540069
 30
0.0
 10
114.8581567902441
 20
-143.209170441974
 30
0.0
 10
114.862908442287
 20
-143.2069176411596
 30
0.0
 10
114.8674616437035
 20
-143.2047589275658
 30
0.0
 10
114.87252454217
 20
-143.2035609400081
 30
0.0
 10
114.8775228602839
 20
-143.2035609400081
 30
0.0
  0
SPLINE
  5
207
330
70
100
AcDbEntity
  8
Capa 1
 62
    18
420
        0
370
     9
100
AcDbSpline
210
0.0
220
0.0
230
1.0
 70
     8
 71
     3
 72
    14
 73
    10
 74
     0
 42
0.0000000001
 43
0.0000000001
 40
0.0
 40
0.0
 40
0.0
 40
0.0
 40
1.0
 40
1.0
 40
1.0
 40
2.0
 40
2.0
 40
2.0
 40
3.0
 40
3.0
 40
3.0
 40
3.0
 10
114.9975023061809
 20
-143.5122414954864
 30
0.0
 10
114.9975023061809
 20
-143.5232838156716
 30
0.0
 10
115.0014026769771
 20
-143.5349399845754
 30
0.0
 10
115.0086876978446
 20
-143.5434229407855
 30
0.0
 10
115.0121289945594
 20
-143.5474301179595
 30
0.0
 10
115.0163255511523
 20
-143.5507292159585
 30
0.0
 10
115.0210772031573
 20
-143.5529820166962
 30
0.0
 10
115.0256304044955
 20
-143.5551407301973
 30
0.0
 10
115.030693302853
 20
-143.5563387176976
 30
0.0
 10
115.0356916208616
 20
-143.5563387176976
 30
0.0
  0
SPLINE
  5
208
330
70
100
AcDbEntity
  8
Capa 1
 62
    18
420
        0
370
     9
100
AcDbSpline
210
0.0
220
0.0
230
1.0
 70
     8
 71
     3
 72
    17
 73
    13
 74
     0
 42
0.0000000001
 43
0.0000000001
 40
0.0
 40
0.0
 40
0.0
 40
0.0
 40
1.0
 40
1.0
 40
1.0
 40
2.0
 40
2.0
 40
2.0
 40
3.0
 40
3.0
 40
3.0
 40
4.0
 40
4.0
 40
4.0
 40
4.0
 10
114.8393335456384
 20
-144.5027950456238
 30
0.0
 10
114.8381378422966
 20
-144.5120711250922
 30
0.0
 10
114.836095482043
 20
-144.5212866786333
 30
0.0
 10
114.8327122415838
 20
-144.5300610783751
 30
0.0
 10
114.8296927263444
 20
-144.5378921604566
 30
0.0
 10
114.8256051436067
 20
-144.5453718449764
 30
0.0
 10
114.8200758816952
 20
-144.5516810373465
 30
0.0
 10
114.814901663248
 20
-144.5575851055688
 30
0.0
 10
114.8084649667973
 20
-144.5624641741802
 30
0.0
 10
114.8012808467478
 20
-144.5656773985485
 30
0.0
 10
114.7937711607805
 20
-144.5690362380145
 30
0.0
 10
114.7854447736073
 20
-144.5705748285552
 30
0.0
 10
114.7772794572701
 20
-144.5705748285552
 30
0.0
  0
SPLINE
  5
209
330
70
100
AcDbEntity
  8
Capa 1
 62
    18
420
        0
370
     9
100
AcDbSpline
210
0.0
220
0.0
230
1.0
 70
     8
 71
     3
 72
    14
 73
    10
 74
     0
 42
0.0000000001
 43
0.0000000001
 40
0.0
 40
0.0
 40
0.0
 40
0.0
 40
1.0
 40
1.0
 40
1.0
 40
2.0
 40
2.0
 40
2.0
 40
3.0
 40
3.0
 40
3.0
 40
3.0
 10
114.8640715284285
 20
-143.5563387176976
 30
0.0
 10
114.861865034804
 20
-143.5563387176976
 30
0.0
 10
114.8597639053473
 20
-143.5552392433298
 30
0.0
 10
114.8579079542344
 20
-143.5539246174237
 30
0.0
 10
114.8547046967235
 20
-143.5516556539367
 30
0.0
 10
114.852231792098
 20
-143.5487457833288
 30
0.0
 10
114.8501198144816
 20
-143.545565710622
 30
0.0
 10
114.8437145815032
 20
-143.5359211450645
 30
0.0
 10
114.8406291386082
 20
-143.523791272994
 30
0.0
 10
114.8406291386082
 20
-143.5122414954864
 30
0.0
  0
SPLINE
  5
20A
330
70
100
AcDbEntity
  8
Capa 1
 62
    18
420
        0
370
     9
100
AcDbSpline
210
0.0
220
0.0
230
1.0
 70
     8
 71
     3
 72
    14
 73
    10
 74
     0
 42
0.0000000001
 43
0.0000000001
 40
0.0
 40
0.0
 40
0.0
 40
0.0
 40
1.0
 40
1.0
 40
1.0
 40
2.0
 40
2.0
 40
2.0
 40
3.0
 40
3.0
 40
3.0
 40
3.0
 10
114.8393335456384
 20
-144.5705748285552
 30
0.0
 10
114.8393335456384
 20
-144.5816171485639
 30
0.0
 10
114.8432339163012
 20
-144.5932733172353
 30
0.0
 10
114.8505189369319
 20
-144.601756273398
 30
0.0
 10
114.8539602336371
 20
-144.6057634506702
 30
0.0
 10
114.8581567902441
 20
-144.6090625487651
 30
0.0
 10
114.862908442287
 20
-144.6113153495885
 30
0.0
 10
114.8674616437035
 20
-144.6134740631916
 30
0.0
 10
114.87252454217
 20
-144.6146720507664
 30
0.0
 10
114.8775228602839
 20
-144.6146720507664
 30
0.0
  0
SPLINE
  5
20B
330
70
100
AcDbEntity
  8
Capa 1
 62
    18
420
        0
370
     9
100
AcDbSpline
210
0.0
220
0.0
230
1.0
 70
     8
 71
     3
 72
    14
 73
    10
 74
     0
 42
0.0000000001
 43
0.0000000001
 40
0.0
 40
0.0
 40
0.0
 40
0.0
 40
1.0
 40
1.0
 40
1.0
 40
2.0
 40
2.0
 40
2.0
 40
3.0
 40
3.0
 40
3.0
 40
3.0
 10
114.9975023061809
 20
-144.5705748285552
 30
0.0
 10
114.9975023061809
 20
-144.5816171485639
 30
0.0
 10
115.001402676868
 20
-144.5932733172376
 30
0.0
 10
115.0086876975083
 20
-144.6017562734012
 30
0.0
 10
115.0121289942161
 20
-144.6057634506718
 30
0.0
 10
115.0163255508212
 20
-144.6090625487651
 30
0.0
 10
115.0210772028621
 20
-144.6113153495882
 30
0.0
 10
115.0256304042799
 20
-144.6134740631916
 30
0.0
 10
115.0306933027477
 20
-144.6146720507664
 30
0.0
 10
115.0356916208616
 20
-144.6146720507664
 30
0.0
  0
SPLINE
  5
20C
330
70
100
AcDbEntity
  8
Capa 1
 62
    18
420
        0
370
     9
100
AcDbSpline
210
0.0
220
0.0
230
1.0
 70
     8
 71
     3
 72
    17
 73
    13
 74
     0
 42
0.0000000001
 43
0.0000000001
 40
0.0
 40
0.0
 40
0.0
 40
0.0
 40
1.0
 40
1.0
 40
1.0
 40
2.0
 40
2.0
 40
2.0
 40
3.0
 40
3.0
 40
3.0
 40
4.0
 40
4.0
 40
4.0
 40
4.0
 10
114.7772794572701
 20
-143.2476581622192
 30
0.0
 10
114.7854447764295
 20
-143.2476581622192
 30
0.0
 10
114.7937711719088
 20
-143.2491967411401
 30
0.0
 10
114.8012808573147
 20
-143.2525555826227
 30
0.0
 10
114.8084649161288
 20
-143.2557687817725
 30
0.0
 10
114.8149015558584
 20
-143.2606478094948
 30
0.0
 10
114.8200757504433
 20
-143.2665518163045
 30
0.0
 10
114.8256049992282
 20
-143.2728609571661
 30
0.0
 10
114.8296925999117
 20
-143.2803405719782
 30
0.0
 10
114.8327121288963
 20
-143.288171594277
 30
0.0
 10
114.8360954450837
 20
-143.2969460834912
 30
0.0
 10
114.8381378279739
 20
-143.3061617546981
 30
0.0
 10
114.8393335456384
 20
-143.3154379451507
 30
0.0
  0
SPLINE
  5
20D
330
70
100
AcDbEntity
  8
Capa 1
 62
    18
420
        0
370
     9
100
AcDbSpline
210
0.0
220
0.0
230
1.0
 70
     8
 71
     3
 72
    14
 73
    10
 74
     0
 42
0.0000000001
 43
0.0000000001
 40
0.0
 40
0.0
 40
0.0
 40
0.0
 40
1.0
 40
1.0
 40
1.0
 40
2.0
 40
2.0
 40
2.0
 40
3.0
 40
3.0
 40
3.0
 40
3.0
 10
114.8406291386082
 20
-144.305991495288
 30
0.0
 10
114.8406291386082
 20
-144.2944417177811
 30
0.0
 10
114.8437145815032
 20
-144.2823118456836
 30
0.0
 10
114.8501198144816
 20
-144.2726672801194
 30
0.0
 10
114.852231792098
 20
-144.2694872074104
 30
0.0
 10
114.8547046967235
 20
-144.2665773368025
 30
0.0
 10
114.8579079542344
 20
-144.2643083733295
 30
0.0
 10
114.8597639053473
 20
-144.2629937474318
 30
0.0
 10
114.861865034804
 20
-144.2618942730768
 30
0.0
 10
114.8640715284285
 20
-144.2618942730768
 30
0.0
  0
SPLINE
  5
20E
330
70
100
AcDbEntity
  8
Capa 1
 62
    18
420
        0
370
     9
100
AcDbSpline
210
0.0
220
0.0
230
1.0
 70
     8
 71
     3
 72
    14
 73
    10
 74
     0
 42
0.0000000001
 43
0.0000000001
 40
0.0
 40
0.0
 40
0.0
 40
0.0
 40
1.0
 40
1.0
 40
1.0
 40
2.0
 40
2.0
 40
2.0
 40
3.0
 40
3.0
 40
3.0
 40
3.0
 10
114.9975023061809
 20
-144.305991495288
 30
0.0
 10
114.9975023061809
 20
-144.2949491752789
 30
0.0
 10
115.0014026768674
 20
-144.2832930065838
 30
0.0
 10
115.0086876975058
 20
-144.2748100504137
 30
0.0
 10
115.0121289942148
 20
-144.2708028731377
 30
0.0
 10
115.0163255508212
 20
-144.2675037750428
 30
0.0
 10
115.0210772028634
 20
-144.2652509742284
 30
0.0
 10
115.0256304042799
 20
-144.2630922606346
 30
0.0
 10
115.0306933027477
 20
-144.2618942730768
 30
0.0
 10
115.0356916208616
 20
-144.2618942730768
 30
0.0
  0
SPLINE
  5
20F
330
70
100
AcDbEntity
  8
Capa 1
 62
    18
420
        0
370
     9
100
AcDbSpline
210
0.0
220
0.0
230
1.0
 70
     8
 71
     3
 72
    53
 73
    49
 74
     0
 42
0.0000000001
 43
0.0000000001
 40
0.0
 40
0.0
 40
0.0
 40
0.0
 40
1.0
 40
1.0
 40
1.0
 40
2.0
 40
2.0
 40
2.0
 40
3.0
 40
3.0
 40
3.0
 40
4.0
 40
4.0
 40
4.0
 40
5.0
 40
5.0
 40
5.0
 40
6.0
 40
6.0
 40
6.0
 40
7.0
 40
7.0
 40
7.0
 40
8.0
 40
8.0
 40
8.0
 40
9.0
 40
9.0
 40
9.0
 40
10.0
 40
10.0
 40
10.0
 40
11.0
 40
11.0
 40
11.0
 40
12.0
 40
12.0
 40
12.0
 40
13.0
 40
13.0
 40
13.0
 40
14.0
 40
14.0
 40
14.0
 40
15.0
 40
15.0
 40
15.0
 40
16.0
 40
16.0
 40
16.0
 40
16.0
 10
120.8179185571471
 20
-163.5219826485316
 30
0.0
 10
120.8185162016493
 20
-163.5506055961753
 30
0.0
 10
120.8190558324643
 20
-163.5792297942345
 30
0.0
 10
120.8195344479563
 20
-163.6078550055236
 30
0.0
 10
120.8199946346797
 20
-163.6353780223849
 30
0.0
 10
120.8203984143275
 20
-163.662901975951
 30
0.0
 10
120.8207352620447
 20
-163.6904267910186
 30
0.0
 10
120.8210457042019
 20
-163.7157939302654
 30
0.0
 10
120.8212992967448
 20
-163.7411618012417
 30
0.0
 10
120.8214747943297
 20
-163.7665302110745
 30
0.0
 10
120.8215548117371
 20
-163.7780968338126
 30
0.0
 10
120.8216185942422
 20
-163.7896635685709
 30
0.0
 10
120.8216619362868
 20
-163.8012303879045
 30
0.0
 10
120.8217019214164
 20
-163.8119013371731
 30
0.0
 10
120.8217245097642
 20
-163.8225723584243
 30
0.0
 10
120.8217245189623
 20
-163.8332433807201
 30
0.0
 10
120.8217245272993
 20
-163.8429160013878
 30
0.0
 10
120.8217059839296
 20
-163.8525886229141
 30
0.0
 10
120.8216619363022
 20
-163.8622611635196
 30
0.0
 10
120.8216228578703
 20
-163.8708425045282
 30
0.0
 10
120.8215637050697
 20
-163.8794237818443
 30
0.0
 10
120.8214747943413
 20
-163.8880047090392
 30
0.0
 10
120.8213980405613
 20
-163.8954123483189
 30
0.0
 10
120.8212991102349
 20
-163.9028197266767
 30
0.0
 10
120.821164903179
 20
-163.9102267129088
 30
0.0
 10
120.821053232239
 20
-163.9163899143477
 30
0.0
 10
120.8209171372325
 20
-163.9225528442965
 30
0.0
 10
120.820735262046
 20
-163.9287139930132
 30
0.0
 10
120.8206586390815
 20
-163.9313096493382
 30
0.0
 10
120.8205738906466
 20
-163.9339049895147
 30
0.0
 10
120.8204767876865
 20
-163.9365003912642
 30
0.0
 10
120.8203920924446
 20
-163.9387641551835
 30
0.0
 10
120.8202979982574
 20
-163.9410279659457
 30
0.0
 10
120.8201900131353
 20
-163.943289538253
 30
0.0
 10
120.8200980904769
 20
-163.9452147084878
 30
0.0
 10
120.8199961020067
 20
-163.9471382566665
 30
0.0
 10
120.819875649169
 20
-163.9490654249499
 30
0.0
 10
120.8197765081176
 20
-163.9506516182696
 30
0.0
 10
120.8196648585039
 20
-163.9522402640046
 30
0.0
 10
120.8195344479538
 20
-163.9538141748781
 30
0.0
 10
120.8194323184497
 20
-163.9550467648415
 30
0.0
 10
120.8193186827556
 20
-163.9562703178305
 30
0.0
 10
120.8191672055083
 20
-163.957524560259
 30
0.0
 10
120.8190578365033
 20
-163.9584301434329
 30
0.0
 10
120.8189287404248
 20
-163.9593517252317
 30
0.0
 10
120.818774824213
 20
-163.9601878587881
 30
0.0
 10
120.8182661377851
 20
-163.9620566031493
 30
0.0
 10
120.818153703539
 20
-163.9623381990725
 30
0.0
 10
120.8179185571471
 20
-163.9623505335586
 30
0.0
  0
SPLINE
  5
210
330
70
100
AcDbEntity
  8
Capa 1
 62
    18
420
        0
370
     9
100
AcDbSpline
210
0.0
220
0.0
230
1.0
 70
     8
 71
     3
 72
    53
 73
    49
 74
     0
 42
0.0000000001
 43
0.0000000001
 40
0.0
 40
0.0
 40
0.0
 40
0.0
 40
1.0
 40
1.0
 40
1.0
 40
2.0
 40
2.0
 40
2.0
 40
3.0
 40
3.0
 40
3.0
 40
4.0
 40
4.0
 40
4.0
 40
5.0
 40
5.0
 40
5.0
 40
6.0
 40
6.0
 40
6.0
 40
7.0
 40
7.0
 40
7.0
 40
8.0
 40
8.0
 40
8.0
 40
9.0
 40
9.0
 40
9.0
 40
10.0
 40
10.0
 40
10.0
 40
11.0
 40
11.0
 40
11.0
 40
12.0
 40
12.0
 40
12.0
 40
13.0
 40
13.0
 40
13.0
 40
14.0
 40
14.0
 40
14.0
 40
15.0
 40
15.0
 40
15.0
 40
16.0
 40
16.0
 40
16.0
 40
16.0
 10
120.8179185571471
 20
-138.6372713424089
 30
0.0
 10
120.8185752112868
 20
-138.6384336856446
 30
0.0
 10
120.8186797526065
 20
-138.6389175507112
 30
0.0
 10
120.8187748242104
 20
-138.6394340171615
 30
0.0
 10
120.8189287404235
 20
-138.64027015074
 30
0.0
 10
120.8190578365045
 20
-138.641191732561
 30
0.0
 10
120.8191672055096
 20
-138.6420973157532
 30
0.0
 10
120.8193186827556
 20
-138.6433515581852
 30
0.0
 10
120.8194323184484
 20
-138.6445751111716
 30
0.0
 10
120.8195344479512
 20
-138.6458077011324
 30
0.0
 10
120.8196648585039
 20
-138.6473816120316
 30
0.0
 10
120.8197765081189
 20
-138.6489702577929
 30
0.0
 10
120.819875649169
 20
-138.6505564511376
 30
0.0
 10
120.819996102008
 20
-138.65248361943
 30
0.0
 10
120.8200980904769
 20
-138.6544071676164
 30
0.0
 10
120.8201900131366
 20
-138.6563323378614
 30
0.0
 10
120.8202979982574
 20
-138.65859391018
 30
0.0
 10
120.8203920924446
 20
-138.6608577209585
 30
0.0
 10
120.8204767876865
 20
-138.6631214848953
 30
0.0
 10
120.8205738906478
 20
-138.6657168866485
 30
0.0
 10
120.8206586390815
 20
-138.6683122268299
 30
0.0
 10
120.820735262046
 20
-138.6709078831571
 30
0.0
 10
120.8209171372325
 20
-138.677069031879
 30
0.0
 10
120.8210532322377
 20
-138.6832319618159
 30
0.0
 10
120.821164903179
 20
-138.6893951632496
 30
0.0
 10
120.8212991102349
 20
-138.6968021495049
 30
0.0
 10
120.8213980405613
 20
-138.7042095278941
 30
0.0
 10
120.8214747943425
 20
-138.7116171672074
 30
0.0
 10
120.8215637050697
 20
-138.7201980944075
 30
0.0
 10
120.8216228578703
 20
-138.7287793717326
 30
0.0
 10
120.8216619363022
 20
-138.7373607127467
 30
0.0
 10
120.8217059839296
 20
-138.7470332533733
 30
0.0
 10
120.8217245272993
 20
-138.7567058749166
 30
0.0
 10
120.8217245189623
 20
-138.7663784955955
 30
0.0
 10
120.8217245097642
 20
-138.7770495179026
 30
0.0
 10
120.8217019214164
 20
-138.787720539158
 30
0.0
 10
120.8216619362868
 20
-138.7983914884378
 30
0.0
 10
120.8216185942422
 20
-138.8099583077672
 30
0.0
 10
120.8215548117371
 20
-138.8215250425287
 30
0.0
 10
120.8214747943297
 20
-138.8330916652672
 30
0.0
 10
120.8212992967448
 20
-138.8584600751462
 30
0.0
 10
120.8210457042006
 20
-138.883827946158
 30
0.0
 10
120.8207352620434
 20
-138.9091950854491
 30
0.0
 10
120.8203984143262
 20
-138.936719900457
 30
0.0
 10
120.8199946346797
 20
-138.9642438539734
 30
0.0
 10
120.819534447955
 20
-138.9917668707719
 30
0.0
 10
120.8190558324643
 20
-139.0203920819397
 30
0.0
 10
120.8185162016493
 20
-139.0490162798637
 30
0.0
 10
120.8179185571471
 20
-139.0776392274013
 30
0.0
  0
SPLINE
  5
211
330
70
100
AcDbEntity
  8
Capa 1
 62
    18
420
        0
370
     9
100
AcDbSpline
210
0.0
220
0.0
230
1.0
 70
     8
 71
     3
 72
     8
 73
     4
 74
     0
 42
0.0000000001
 43
0.0000000001
 40
0.0
 40
0.0
 40
0.0
 40
0.0
 40
1.0
 40
1.0
 40
1.0
 40
1.0
 10
80.14442705578177
 20
-138.4182167636636
 30
0.0
 10
79.90102371852642
 20
-138.4182167636684
 30
0.0
 10
79.70405917080231
 20
-138.615181311396
 30
0.0
 10
79.70405917080296
 20
-138.8585846486514
 30
0.0
  0
SPLINE
  5
212
330
70
100
AcDbEntity
  8
Capa 1
 62
    18
420
        0
370
     9
100
AcDbSpline
210
0.0
220
0.0
230
1.0
 70
     8
 71
     3
 72
     8
 73
     4
 74
     0
 42
0.0000000001
 43
0.0000000001
 40
0.0
 40
0.0
 40
0.0
 40
0.0
 40
1.0
 40
1.0
 40
1.0
 40
1.0
 10
79.70405917080296
 20
-163.3778488723149
 30
0.0
 10
79.70405917080231
 20
-163.6212522095702
 30
0.0
 10
79.90102371852642
 20
-163.8182167572975
 30
0.0
 10
80.14442705578177
 20
-163.8182167573027
 30
0.0
  0
SPLINE
  5
213
330
70
100
AcDbEntity
  8
Capa 1
 62
    18
420
        0
370
     9
100
AcDbSpline
210
0.0
220
0.0
230
1.0
 70
     8
 71
     3
 72
     8
 73
     4
 74
     0
 42
0.0000000001
 43
0.0000000001
 40
0.0
 40
0.0
 40
0.0
 40
0.0
 40
1.0
 40
1.0
 40
1.0
 40
1.0
 10
104.6636912794542
 20
-163.8182167573027
 30
0.0
 10
104.9070946167096
 20
-163.8182167573027
 30
0.0
 10
105.1040591644372
 20
-163.6212522095792
 30
0.0
 10
105.104059164442
 20
-163.3778488723238
 30
0.0
  0
SPLINE
  5
214
330
70
100
AcDbEntity
  8
Capa 1
 62
    18
420
        0
370
     9
100
AcDbSpline
210
0.0
220
0.0
230
1.0
 70
     8
 71
     3
 72
     8
 73
     4
 74
     0
 42
0.0000000001
 43
0.0000000001
 40
0.0
 40
0.0
 40
0.0
 40
0.0
 40
1.0
 40
1.0
 40
1.0
 40
1.0
 10
105.104059164442
 20
-138.8585846486469
 30
0.0
 10
105.1040591644398
 20
-138.6151813113915
 30
0.0
 10
104.9070946167141
 20
-138.4182167636658
 30
0.0
 10
104.6636912794587
 20
-138.4182167636636
 30
0.0
  0
SPLINE
  5
215
330
70
100
AcDbEntity
  8
Capa 1
 62
    18
420
        0
370
     9
100
AcDbSpline
210
0.0
220
0.0
230
1.0
 70
     8
 71
     3
 72
     8
 73
     4
 74
     0
 42
0.0000000001
 43
0.0000000001
 40
0.0
 40
0.0
 40
0.0
 40
0.0
 40
1.0
 40
1.0
 40
1.0
 40
1.0
 10
100.6945786781787
 20
-159.0557167584869
 30
0.0
 10
100.7919400130755
 20
-159.0557167584843
 30
0.0
 10
100.8707258321603
 20
-158.9769309393983
 30
0.0
 10
100.8707258321603
 20
-158.8795696045018
 30
0.0
  0
SPLINE
  5
216
330
70
100
AcDbEntity
  8
Capa 1
 62
    18
420
        0
370
     9
100
AcDbSpline
210
0.0
220
0.0
230
1.0
 70
     8
 71
     3
 72
     8
 73
     4
 74
     0
 42
0.0000000001
 43
0.0000000001
 40
0.0
 40
0.0
 40
0.0
 40
0.0
 40
1.0
 40
1.0
 40
1.0
 40
1.0
 10
83.93739250308437
 20
-158.879569604505
 30
0.0
 10
83.9373925030866
 20
-158.9769309394021
 30
0.0
 10
84.01617832217331
 20
-159.0557167584869
 30
0.0
 10
84.11353965706981
 20
-159.0557167584869
 30
0.0
  0
SPLINE
  5
217
330
70
100
AcDbEntity
  8
Capa 1
 62
    18
420
        0
370
     9
100
AcDbSpline
210
0.0
220
0.0
230
1.0
 70
     8
 71
     3
 72
     8
 73
     4
 74
     0
 42
0.0000000001
 43
0.0000000001
 40
0.0
 40
0.0
 40
0.0
 40
0.0
 40
1.0
 40
1.0
 40
1.0
 40
1.0
 10
84.11353965706629
 20
-143.18071676248
 30
0.0
 10
84.01617832216977
 20
-143.1807167624816
 30
0.0
 10
83.93739250308437
 20
-143.2595025815683
 30
0.0
 10
83.93739250308437
 20
-143.3568639164648
 30
0.0
  0
SPLINE
  5
218
330
70
100
AcDbEntity
  8
Capa 1
 62
    18
420
        0
370
     9
100
AcDbSpline
210
0.0
220
0.0
230
1.0
 70
     8
 71
     3
 72
     8
 73
     4
 74
     0
 42
0.0000000001
 43
0.0000000001
 40
0.0
 40
0.0
 40
0.0
 40
0.0
 40
1.0
 40
1.0
 40
1.0
 40
1.0
 10
100.8707258321603
 20
-143.3568639164613
 30
0.0
 10
100.8707258321584
 20
-143.2595025815648
 30
0.0
 10
100.7919400130717
 20
-143.18071676248
 30
0.0
 10
100.6945786781752
 20
-143.18071676248
 30
0.0
  0
SPLINE
  5
219
330
70
100
AcDbEntity
  8
Capa 1
 62
    18
420
        0
370
     9
100
AcDbSpline
210
0.0
220
0.0
230
1.0
 70
     8
 71
     3
 72
     8
 73
     4
 74
     0
 42
0.0000000001
 43
0.0000000001
 40
0.0
 40
0.0
 40
0.0
 40
0.0
 40
1.0
 40
1.0
 40
1.0
 40
1.0
 10
83.83471737685097
 20
-149.1678019883149
 30
0.0
 10
83.80799160305938
 20
-149.1166571674433
 30
0.0
 10
83.77771233634319
 20
-149.089744538733
 30
0.0
 10
83.74689532273192
 20
-149.089744538733
 30
0.0
  0
SPLINE
  5
21A
330
70
100
AcDbEntity
  8
Capa 1
 62
    18
420
        0
370
     9
100
AcDbSpline
210
0.0
220
0.0
230
1.0
 70
     8
 71
     3
 72
     8
 73
     4
 74
     0
 42
0.0000000001
 43
0.0000000001
 40
0.0
 40
0.0
 40
0.0
 40
0.0
 40
1.0
 40
1.0
 40
1.0
 40
1.0
 10
83.74689532273
 20
-149.2661334276125
 30
0.0
 10
83.77771233634126
 20
-149.2661334276137
 30
0.0
 10
83.80799160305777
 20
-149.2392207989047
 30
0.0
 10
83.83471737684935
 20
-149.1880759780338
 30
0.0
  0
SPLINE
  5
21B
330
70
100
AcDbEntity
  8
Capa 1
 62
    18
420
        0
370
     9
100
AcDbSpline
210
0.0
220
0.0
230
1.0
 70
     8
 71
     3
 72
     8
 73
     4
 74
     0
 42
0.0000000001
 43
0.0000000001
 40
0.0
 40
0.0
 40
0.0
 40
0.0
 40
1.0
 40
1.0
 40
1.0
 40
1.0
 10
101.0612230125484
 20
-149.089744538733
 30
0.0
 10
101.0304059989371
 20
-149.089744538733
 30
0.0
 10
101.0001267322206
 20
-149.1166571674433
 30
0.0
 10
100.9734009584296
 20
-149.1678019883149
 30
0.0
  0
SPLINE
  5
21C
330
70
100
AcDbEntity
  8
Capa 1
 62
    18
420
        0
370
     9
100
AcDbSpline
210
0.0
220
0.0
230
1.0
 70
     8
 71
     3
 72
     8
 73
     4
 74
     0
 42
0.0000000001
 43
0.0000000001
 40
0.0
 40
0.0
 40
0.0
 40
0.0
 40
1.0
 40
1.0
 40
1.0
 40
1.0
 10
100.9734009584277
 20
-149.188075978028
 30
0.0
 10
101.000126732219
 20
-149.2392207989003
 30
0.0
 10
101.0304059989352
 20
-149.2661334276118
 30
0.0
 10
101.0612230125464
 20
-149.2661334276125
 30
0.0
  0
SPLINE
  5
21D
330
70
100
AcDbEntity
  8
Capa 1
 62
    18
420
        0
370
     9
100
AcDbSpline
210
0.0
220
0.0
230
1.0
 70
     8
 71
     3
 72
     8
 73
     4
 74
     0
 42
0.0000000001
 43
0.0000000001
 40
0.0
 40
0.0
 40
0.0
 40
0.0
 40
1.0
 40
1.0
 40
1.0
 40
1.0
 10
79.91766672605864
 20
-149.089744538733
 30
0.0
 10
79.88684971244705
 20
-149.089744538733
 30
0.0
 10
79.85657044573087
 20
-149.1166571674433
 30
0.0
 10
79.8298446719396
 20
-149.1678019883149
 30
0.0
  0
SPLINE
  5
21E
330
70
100
AcDbEntity
  8
Capa 1
 62
    18
420
        0
370
     9
100
AcDbSpline
210
0.0
220
0.0
230
1.0
 70
     8
 71
     3
 72
     8
 73
     4
 74
     0
 42
0.0000000001
 43
0.0000000001
 40
0.0
 40
0.0
 40
0.0
 40
0.0
 40
1.0
 40
1.0
 40
1.0
 40
1.0
 10
79.82984467193801
 20
-149.188075978028
 30
0.0
 10
79.85657044572926
 20
-149.2392207989003
 30
0.0
 10
79.88684971244544
 20
-149.2661334276118
 30
0.0
 10
79.9176667260567
 20
-149.2661334276125
 30
0.0
  0
SPLINE
  5
21F
330
70
100
AcDbEntity
  8
Capa 1
 62
    18
420
        0
370
     9
100
AcDbSpline
210
0.0
220
0.0
230
1.0
 70
     8
 71
     3
 72
     8
 73
     4
 74
     0
 42
0.0000000001
 43
0.0000000001
 40
0.0
 40
0.0
 40
0.0
 40
0.0
 40
1.0
 40
1.0
 40
1.0
 40
1.0
 10
104.9782736633407
 20
-149.1678019883149
 30
0.0
 10
104.9515478895494
 20
-149.1166571674433
 30
0.0
 10
104.9212686228329
 20
-149.089744538733
 30
0.0
 10
104.8904516092216
 20
-149.089744538733
 30
0.0
  0
SPLINE
  5
220
330
70
100
AcDbEntity
  8
Capa 1
 62
    18
420
        0
370
     9
100
AcDbSpline
210
0.0
220
0.0
230
1.0
 70
     8
 71
     3
 72
     8
 73
     4
 74
     0
 42
0.0000000001
 43
0.0000000001
 40
0.0
 40
0.0
 40
0.0
 40
0.0
 40
1.0
 40
1.0
 40
1.0
 40
1.0
 10
104.89045160922
 20
-149.2661334276125
 30
0.0
 10
104.9212686228313
 20
-149.2661334276137
 30
0.0
 10
104.9515478895478
 20
-149.2392207989047
 30
0.0
 10
104.9782736633391
 20
-149.1880759780338
 30
0.0
  0
ENDSEC
  0
SECTION
  2
OBJECTS
  0
DICTIONARY
  5
C
330
0
100
AcDbDictionary
281
     1
  3
ACAD_COLOR
350
63
  3
ACAD_DETAILVIEWSTYLE
350
6A
  3
ACAD_GROUP
350
D
  3
ACAD_LAYOUT
350
62
  3
ACAD_MATERIAL
350
10
  3
ACAD_MLEADERSTYLE
350
66
  3
ACAD_MLINESTYLE
350
5F
  3
ACAD_PLOTSETTINGS
350
61
  3
ACAD_PLOTSTYLENAME
350
E
  3
ACAD_SCALELIST
350
42
  3
ACAD_SECTIONVIEWSTYLE
350
68
  3
ACAD_TABLESTYLE
350
64
  3
ACAD_VISUALSTYLE
350
29
  3
ACDB_RECOMPOSE_DATA
350
22B
  3
AcDbVariableDictionary
350
221
  0
DICTIONARY
  5
63
102
{ACAD_REACTORS
330
C
102
}
330
C
100
AcDbDictionary
281
     1
  0
DICTIONARY
  5
6A
102
{ACAD_REACTORS
330
C
102
}
330
C
100
AcDbDictionary
281
     1
  3
Imperial24
350
6B
  0
DICTIONARY
  5
D
102
{ACAD_REACTORS
330
C
102
}
330
C
100
AcDbDictionary
281
     1
  0
DICTIONARY
  5
62
102
{ACAD_REACTORS
330
C
102
}
330
C
100
AcDbDictionary
281
     1
  3
Layout1
350
6F
  3
Layout2
350
77
  3
Model
350
73
  0
DICTIONARY
  5
10
102
{ACAD_REACTORS
330
C
102
}
330
C
100
AcDbDictionary
281
     1
  3
ByBlock
350
19
  3
ByLayer
350
11
  3
Global
350
21
  0
DICTIONARY
  5
66
102
{ACAD_REACTORS
330
C
102
}
330
C
100
AcDbDictionary
281
     1
  3
Standard
350
67
  0
DICTIONARY
  5
5F
102
{ACAD_REACTORS
330
C
102
}
330
C
100
AcDbDictionary
281
     1
  3
Standard
350
60
  0
DICTIONARY
  5
61
102
{ACAD_REACTORS
330
C
102
}
330
C
100
AcDbDictionary
281
     1
  0
ACDBDICTIONARYWDFLT
  5
E
102
{ACAD_REACTORS
330
C
102
}
330
C
100
AcDbDictionary
281
     1
  3
Normal
350
F
100
AcDbDictionaryWithDefault
340
F
  0
DICTIONARY
  5
42
102
{ACAD_REACTORS
330
C
102
}
330
C
100
AcDbDictionary
281
     1
  3
A0
350
43
  3
A1
350
44
  3
A2
350
45
  3
A3
350
46
  3
A4
350
47
  3
A5
350
48
  3
A6
350
49
  3
A7
350
4A
  3
A8
350
4B
  3
A9
350
4C
  3
B0
350
4D
  3
B1
350
4E
  3
B2
350
4F
  3
B3
350
50
  3
B4
350
51
  3
B5
350
52
  3
B6
350
53
  0
DICTIONARY
  5
68
102
{ACAD_REACTORS
330
C
102
}
330
C
100
AcDbDictionary
281
     1
  3
Imperial24
350
69
  0
DICTIONARY
  5
64
102
{ACAD_REACTORS
330
C
102
}
330
C
100
AcDbDictionary
281
     1
  3
Standard
350
65
  0
DICTIONARY
  5
29
102
{ACAD_REACTORS
330
C
102
}
330
C
100
AcDbDictionary
281
     1
  3
2dWireframe
350
2F
  3
Basic
350
2E
  3
Brighten
350
35
  3
ColorChange
350
39
  3
Conceptual
350
32
  3
Dim
350
34
  3
EdgeColorOff
350
41
  3
Facepattern
350
38
  3
Flat
350
2A
  3
FlatWithEdges
350
2B
  3
Gouraud
350
2C
  3
GouraudWithEdges
350
2D
  3
Hidden
350
31
  3
JitterOff
350
3F
  3
Linepattern
350
37
  3
OverhangOff
350
40
  3
Realistic
350
33
  3
Shaded
350
3E
  3
Shaded with edges
350
3D
  3
Shades of Gray
350
3A
  3
Sketchy
350
3B
  3
Thicken
350
36
  3
Wireframe
350
30
  3
X-Ray
350
3C
  0
XRECORD
  5
22B
102
{ACAD_REACTORS
330
C
102
}
330
C
100
AcDbXrecord
280
     1
 90
        1
330
65
  0
DICTIONARY
  5
221
102
{ACAD_REACTORS
330
C
102
}
330
C
100
AcDbDictionary
281
     1
  3
CANNOSCALE
350
226
  3
CMLEADERSTYLE
350
223
  3
CTABLESTYLE
350
222
  3
CVIEWDETAILSTYLE
350
224
  3
CVIEWSECTIONSTYLE
350
225
  0
ACDBDETAILVIEWSTYLE
  5
6B
102
{ACAD_XDICTIONARY
360
22E
102
}
102
{ACAD_REACTORS
330
6A
102
}
330
6A
100
AcDbModelDocViewStyle
 70
     0
  3
Imperial24
290
     0
100
AcDbDetailViewStyle
 70
     0
 71
     0
 90
        3
 71
     1
340
55
 62
   256
 40
0.24
340
0
 62
   256
 40
0.24
300

 40
0.36
280
     3
 71
     2
340
5D
 90
       25
 62
   256
 71
     3
340
55
 62
   256
 40
0.24
 90
        1
 40
0.75
 90
        1
300
%<\AcVar ViewType \f "%tc1">% %<\AcVar ViewDetailId>%\PSCALE %<\AcVar ViewScale \f "%sn">%
 71
     4
340
5D
 90
       25
 62
   256
340
5D
 90
       25
 62
   256
280
     0
  0
LAYOUT
  5
6F
102
{ACAD_REACTORS
330
62
102
}
330
62
100
AcDbPlotSettings
  1

  2

  4

  6

 40
0.0
 41
0.0
 42
0.0
 43
0.0
 44
0.0
 45
0.0
 46
0.0
 47
0.0
 48
0.0
 49
0.0
140
0.0
141
0.0
142
1.0
143
1.0
 70
   688
 72
     0
 73
     0
 74
     5
  7

 75
    16
147
1.0
 76
     0
 77
     2
 78
   300
148
0.0
149
0.0
100
AcDbLayout
  1
Layout1
 70
     1
 71
     1
 10
0.0
 20
0.0
 11
12.0
 21
9.0
 12
0.0
 22
0.0
 32
0.0
 14
0.0
 24
0.0
 34
0.0
 15
0.0
 25
0.0
 35
0.0
146
0.0
 13
0.0
 23
0.0
 33
0.0
 16
1.0
 26
0.0
 36
0.0
 17
0.0
 27
1.0
 37
0.0
 76
     0
330
6C
  0
LAYOUT
  5
77
102
{ACAD_REACTORS
330
62
102
}
330
62
100
AcDbPlotSettings
  1

  2

  4

  6

 40
0.0
 41
0.0
 42
0.0
 43
0.0
 44
0.0
 45
0.0
 46
0.0
 47
0.0
 48
0.0
 49
0.0
140
0.0
141
0.0
142
1.0
143
1.0
 70
   688
 72
     0
 73
     0
 74
     5
  7

 75
    16
147
1.0
 76
     0
 77
     2
 78
   300
148
0.0
149
0.0
100
AcDbLayout
  1
Layout2
 70
     1
 71
     2
 10
0.0
 20
0.0
 11
12.0
 21
9.0
 12
0.0
 22
0.0
 32
0.0
 14
0.0
 24
0.0
 34
0.0
 15
0.0
 25
0.0
 35
0.0
146
0.0
 13
0.0
 23
0.0
 33
0.0
 16
1.0
 26
0.0
 36
0.0
 17
0.0
 27
1.0
 37
0.0
 76
     0
330
74
  0
LAYOUT
  5
73
102
{ACAD_REACTORS
330
62
102
}
330
62
100
AcDbPlotSettings
  1

  2

  4

  6

 40
0.0
 41
0.0
 42
0.0
 43
0.0
 44
0.0
 45
0.0
 46
0.0
 47
0.0
 48
0.0
 49
0.0
140
0.0
141
0.0
142
1.0
143
1.0
 70
  1712
 72
     0
 73
     0
 74
     0
  7

 75
     0
147
1.0
 76
     0
 77
     2
 78
   300
148
0.0
149
0.0
100
AcDbLayout
  1
Model
 70
     1
 71
     0
 10
0.0
 20
0.0
 11
12.0
 21
9.0
 12
0.0
 22
0.0
 32
0.0
 14
0.0
 24
0.0
 34
0.0
 15
0.0
 25
0.0
 35
0.0
146
0.0
 13
0.0
 23
0.0
 33
0.0
 16
1.0
 26
0.0
 36
0.0
 17
0.0
 27
1.0
 37
0.0
 76
     0
330
70
  0
MATERIAL
  5
19
102
{ACAD_XDICTIONARY
360
1A
102
}
102
{ACAD_REACTORS
330
10
102
}
330
10
100
AcDbMaterial
  1
ByBlock
 72
     0
 43
0.0208333333333333
 43
0.0
 43
0.0
 43
0.0
 43
0.0
 43
0.0208333333333333
 43
0.0
 43
0.0
 43
0.0
 43
0.0
 43
1.0
 43
0.0
 43
0.0
 43
0.0
 43
0.0
 43
1.0
 77
     0
 47
0.0208333333333333
 47
0.0
 47
0.0
 47
0.0
 47
0.0
 47
0.0208333333333333
 47
0.0
 47
0.0
 47
0.0
 47
0.0
 47
1.0
 47
0.0
 47
0.0
 47
0.0
 47
0.0
 47
1.0
171
     0
 49
0.0208333333333333
 49
0.0
 49
0.0
 49
0.0
 49
0.0
 49
0.0208333333333333
 49
0.0
 49
0.0
 49
0.0
 49
0.0
 49
1.0
 49
0.0
 49
0.0
 49
0.0
 49
0.0
 49
1.0
175
     0
142
0.0208333333333333
142
0.0
142
0.0
142
0.0
142
0.0
142
0.0208333333333333
142
0.0
142
0.0
142
0.0
142
0.0
142
1.0
142
0.0
142
0.0
142
0.0
142
0.0
142
1.0
179
     0
144
0.0208333333333333
144
0.0
144
0.0
144
0.0
144
0.0
144
0.0208333333333333
144
0.0
144
0.0
144
0.0
144
0.0
144
1.0
144
0.0
144
0.0
144
0.0
144
0.0
144
1.0
147
0.0208333333333333
147
0.0
147
0.0
147
0.0
147
0.0
147
0.0208333333333333
147
0.0
147
0.0
147
0.0
147
0.0
147
1.0
147
0.0
147
0.0
147
0.0
147
0.0
147
1.0
  0
MATERIAL
  5
11
102
{ACAD_XDICTIONARY
360
12
102
}
102
{ACAD_REACTORS
330
10
102
}
330
10
100
AcDbMaterial
  1
ByLayer
 72
     0
 43
0.0208333333333333
 43
0.0
 43
0.0
 43
0.0
 43
0.0
 43
0.0208333333333333
 43
0.0
 43
0.0
 43
0.0
 43
0.0
 43
1.0
 43
0.0
 43
0.0
 43
0.0
 43
0.0
 43
1.0
 77
     0
 47
0.0208333333333333
 47
0.0
 47
0.0
 47
0.0
 47
0.0
 47
0.0208333333333333
 47
0.0
 47
0.0
 47
0.0
 47
0.0
 47
1.0
 47
0.0
 47
0.0
 47
0.0
 47
0.0
 47
1.0
171
     0
 49
0.0208333333333333
 49
0.0
 49
0.0
 49
0.0
 49
0.0
 49
0.0208333333333333
 49
0.0
 49
0.0
 49
0.0
 49
0.0
 49
1.0
 49
0.0
 49
0.0
 49
0.0
 49
0.0
 49
1.0
175
     0
142
0.0208333333333333
142
0.0
142
0.0
142
0.0
142
0.0
142
0.0208333333333333
142
0.0
142
0.0
142
0.0
142
0.0
142
1.0
142
0.0
142
0.0
142
0.0
142
0.0
142
1.0
179
     0
144
0.0208333333333333
144
0.0
144
0.0
144
0.0
144
0.0
144
0.0208333333333333
144
0.0
144
0.0
144
0.0
144
0.0
144
1.0
144
0.0
144
0.0
144
0.0
144
0.0
144
1.0
147
0.0208333333333333
147
0.0
147
0.0
147
0.0
147
0.0
147
0.0208333333333333
147
0.0
147
0.0
147
0.0
147
0.0
147
1.0
147
0.0
147
0.0
147
0.0
147
0.0
147
1.0
  0
MATERIAL
  5
21
102
{ACAD_XDICTIONARY
360
22
102
}
102
{ACAD_REACTORS
330
10
102
}
330
10
100
AcDbMaterial
  1
Global
 72
     0
 43
0.0208333333333333
 43
0.0
 43
0.0
 43
0.0
 43
0.0
 43
0.0208333333333333
 43
0.0
 43
0.0
 43
0.0
 43
0.0
 43
1.0
 43
0.0
 43
0.0
 43
0.0
 43
0.0
 43
1.0
 77
     0
 47
0.0208333333333333
 47
0.0
 47
0.0
 47
0.0
 47
0.0
 47
0.0208333333333333
 47
0.0
 47
0.0
 47
0.0
 47
0.0
 47
1.0
 47
0.0
 47
0.0
 47
0.0
 47
0.0
 47
1.0
171
     0
 49
0.0208333333333333
 49
0.0
 49
0.0
 49
0.0
 49
0.0
 49
0.0208333333333333
 49
0.0
 49
0.0
 49
0.0
 49
0.0
 49
1.0
 49
0.0
 49
0.0
 49
0.0
 49
0.0
 49
1.0
175
     0
142
0.0208333333333333
142
0.0
142
0.0
142
0.0
142
0.0
142
0.0208333333333333
142
0.0
142
0.0
142
0.0
142
0.0
142
1.0
142
0.0
142
0.0
142
0.0
142
0.0
142
1.0
179
     0
144
0.0208333333333333
144
0.0
144
0.0
144
0.0
144
0.0
144
0.0208333333333333
144
0.0
144
0.0
144
0.0
144
0.0
144
1.0
144
0.0
144
0.0
144
0.0
144
0.0
144
1.0
147
0.0208333333333333
147
0.0
147
0.0
147
0.0
147
0.0
147
0.0208333333333333
147
0.0
147
0.0
147
0.0
147
0.0
147
1.0
147
0.0
147
0.0
147
0.0
147
0.0
147
1.0
  0
MLEADERSTYLE
  5
67
102
{ACAD_REACTORS
330
66
102
}
330
66
100
AcDbMLeaderStyle
179
     2
170
     2
171
     1
172
     0
 90
        2
 40
0.0
 41
0.0
173
     1
 91
-1056964608
340
5B
 92
       -2
290
     1
 42
0.09
291
     1
 43
0.36
  3
Standard
 44
0.18
300

342
55
174
     1
178
     6
175
     1
176
     0
 93
-1056964608
 45
0.18
292
     0
297
     0
 46
0.18
 94
-1056964608
 47
1.0
 49
1.0
140
1.0
293
     1
141
0.0
294
     1
177
     0
142
1.0
295
     0
296
     0
143
0.125
271
     0
272
     9
273
     9
298
     1
  0
MLINESTYLE
  5
60
102
{ACAD_REACTORS
330
5F
102
}
330
5F
100
AcDbMlineStyle
  2
STANDARD
 70
     0
  3

 62
   256
 51
90.0
 52
90.0
 71
     2
 49
0.5
 62
   256
  6
BYLAYER
 49
-0.5
 62
   256
  6
BYLAYER
  0
ACDBPLACEHOLDER
  5
F
102
{ACAD_REACTORS
330
E
102
}
330
E
  0
SCALE
  5
43
102
{ACAD_REACTORS
330
42
102
}
330
42
100
AcDbScale
 70
     0
300
1:1
140
1.0
141
1.0
290
     1
  0
SCALE
  5
44
102
{ACAD_REACTORS
330
42
102
}
330
42
100
AcDbScale
 70
     0
300
1/128" = 1'-0"
140
0.0078125
141
12.0
290
     0
  0
SCALE
  5
45
102
{ACAD_REACTORS
330
42
102
}
330
42
100
AcDbScale
 70
     0
300
1/64" = 1'-0"
140
0.015625
141
12.0
290
     0
  0
SCALE
  5
46
102
{ACAD_REACTORS
330
42
102
}
330
42
100
AcDbScale
 70
     0
300
1/32" = 1'-0"
140
0.03125
141
12.0
290
     0
  0
SCALE
  5
47
102
{ACAD_REACTORS
330
42
102
}
330
42
100
AcDbScale
 70
     0
300
1/16" = 1'-0"
140
0.0625
141
12.0
290
     0
  0
SCALE
  5
48
102
{ACAD_REACTORS
330
42
102
}
330
42
100
AcDbScale
 70
     0
300
3/32" = 1'-0"
140
0.09375
141
12.0
290
     0
  0
SCALE
  5
49
102
{ACAD_REACTORS
330
42
102
}
330
42
100
AcDbScale
 70
     0
300
1/8" = 1'-0"
140
0.125
141
12.0
290
     0
  0
SCALE
  5
4A
102
{ACAD_REACTORS
330
42
102
}
330
42
100
AcDbScale
 70
     0
300
3/16" = 1'-0"
140
0.1875
141
12.0
290
     0
  0
SCALE
  5
4B
102
{ACAD_REACTORS
330
42
102
}
330
42
100
AcDbScale
 70
     0
300
1/4" = 1'-0"
140
0.25
141
12.0
290
     0
  0
SCALE
  5
4C
102
{ACAD_REACTORS
330
42
102
}
330
42
100
AcDbScale
 70
     0
300
3/8" = 1'-0"
140
0.375
141
12.0
290
     0
  0
SCALE
  5
4D
102
{ACAD_REACTORS
330
42
102
}
330
42
100
AcDbScale
 70
     0
300
1/2" = 1'-0"
140
0.5
141
12.0
290
     0
  0
SCALE
  5
4E
102
{ACAD_REACTORS
330
42
102
}
330
42
100
AcDbScale
 70
     0
300
3/4" = 1'-0"
140
0.75
141
12.0
290
     0
  0
SCALE
  5
4F
102
{ACAD_REACTORS
330
42
102
}
330
42
100
AcDbScale
 70
     0
300
1" = 1'-0"
140
1.0
141
12.0
290
     0
  0
SCALE
  5
50
102
{ACAD_REACTORS
330
42
102
}
330
42
100
AcDbScale
 70
     0
300
1-1/2" = 1'-0"
140
1.5
141
12.0
290
     0
  0
SCALE
  5
51
102
{ACAD_REACTORS
330
42
102
}
330
42
100
AcDbScale
 70
     0
300
3" = 1'-0"
140
3.0
141
12.0
290
     0
  0
SCALE
  5
52
102
{ACAD_REACTORS
330
42
102
}
330
42
100
AcDbScale
 70
     0
300
6" = 1'-0"
140
6.0
141
12.0
290
     0
  0
SCALE
  5
53
102
{ACAD_REACTORS
330
42
102
}
330
42
100
AcDbScale
 70
     0
300
1'-0" = 1'-0"
140
12.0
141
12.0
290
     0
  0
ACDBSECTIONVIEWSTYLE
  5
69
102
{ACAD_XDICTIONARY
360
22C
102
}
102
{ACAD_REACTORS
330
68
102
}
330
68
100
AcDbModelDocViewStyle
 70
     0
  3
Imperial24
290
     0
100
AcDbSectionViewStyle
 70
     0
 71
     0
 90
       78
 71
     1
340
55
 62
   256
 40
0.24
340
0
340
0
 62
   256
 40
0.24
300
I, O, Q, S, X, Z
 40
0.48
 90
        3
 40
0.18
 90
        1
 71
     2
340
5D
 90
       25
 62
   256
340
5D
 90
       50
 62
   256
 40
0.24
 40
0.0
 40
0.24
 71
     3
340
55
 62
   256
 40
0.24
 90
        1
 40
0.75
 90
        1
300
%<\AcVar ViewType \f "%tc1">% %<\AcVar ViewSectionStartId>%-%<\AcVar ViewSectionEndId>%\PSCALE %<\AcVar ViewScale \f "%sn">%
 71
     4
 62
   256
 62
   257
300
ANSI31
 40
1.0
 90
        0
290
     0
290
     0
 90
        6
 40
0.0
 40
1.570796326794896
 40
0.2617993877991494
 40
1.308996938995747
 40
-0.2617993877991494
 40
1.832595714594046
  0
TABLESTYLE
  5
65
102
{ACAD_XDICTIONARY
360
227
102
}
102
{ACAD_REACTORS
330
64
102
}
330
64
100
AcDbTableStyle
280
     0
  3
Standard
 70
     0
 71
     0
 40
0.06
 41
0.06
280
     0
281
     0
  7
Standard
140
0.18
170
     2
 62
     0
 63
     7
283
     0
 90
      512
 91
        0
  1

274
    -2
284
     1
 64
     0
275
    -2
285
     1
 65
     0
276
    -2
286
     1
 66
     0
277
    -2
287
     1
 67
     0
278
    -2
288
     1
 68
     0
279
    -2
289
     1
 69
     0
  7
Standard
140
0.25
170
     5
 62
     0
 63
     7
283
     0
 90
      512
 91
        0
  1

274
    -2
284
     1
 64
     0
275
    -2
285
     1
 65
     0
276
    -2
286
     1
 66
     0
277
    -2
287
     1
 67
     0
278
    -2
288
     1
 68
     0
279
    -2
289
     1
 69
     0
  7
Standard
140
0.18
170
     5
 62
     0
 63
     7
283
     0
 90
      512
 91
        0
  1

274
    -2
284
     1
 64
     0
275
    -2
285
     1
 65
     0
276
    -2
286
     1
 66
     0
277
    -2
287
     1
 67
     0
278
    -2
288
     1
 68
     0
279
    -2
289
     1
 69
     0
  0
VISUALSTYLE
  5
2F
102
{ACAD_REACTORS
330
29
102
}
330
29
100
AcDbVisualStyle
  2
2dWireframe
 70
     4
177
     3
291
     0
 70
    58
 90
        0
176
     1
 90
        2
176
     1
 90
        0
176
     1
 90
        0
176
     1
 40
0.6
176
     1
 40
30.0
176
     1
 62
     7
420
 16777215
176
     1
 90
        1
176
     1
 90
        4
176
     1
 62
     7
176
     1
 62
   257
176
     1
 90
        1
176
     1
 90
        1
176
     1
 40
1.0
176
     1
 90
        0
176
     1
 62
   257
176
     1
 40
1.0
176
     1
 90
        1
176
     1
 90
        6
176
     1
 90
        2
176
     1
 62
     7
176
     1
 90
        5
176
     1
 90
        0
176
     1
 90
        0
176
     1
290
     0
176
     1
 90
        1
176
     1
 40
0.0
176
     1
 90
        0
176
     1
290
     1
176
     1
290
     1
176
     1
290
     0
176
     1
290
     0
176
     1
290
     0
176
     1
290
     0
176
     1
290
     0
176
     1
290
     0
176
     1
290
     0
176
     1
 90
       50
176
     1
 40
0.0
176
     1
 40
1.0
176
     1
 90
        0
176
     1
 62
    18
420
        0
176
     1
 90
       50
176
     1
 90
        3
176
     1
 62
     5
420
      255
176
     1
290
     0
176
     1
 90
       50
176
     1
 90
       50
176
     1
 90
       50
176
     1
290
     0
176
     1
 90
       50
176
     1
 62
   256
176
     0
 40
1.0
176
     0
 90
        2
176
     1
  1
strokes_ogs.tif
176
     1
290
     0
176
     1
 40
1.0
176
     1
 40
1.0
176
     1
1001
ACAD
1000
AcDbSavedByObjectVersion
1070
     0
  0
VISUALSTYLE
  5
2E
102
{ACAD_REACTORS
330
29
102
}
330
29
100
AcDbVisualStyle
  2
Basic
 70
     7
177
     3
291
     1
 70
    58
 90
        1
176
     1
 90
        0
176
     1
 90
        1
176
     1
 90
        0
176
     1
 40
0.6
176
     1
 40
30.0
176
     1
 62
     7
420
 16777215
176
     1
 90
        0
176
     1
 90
        4
176
     1
 62
     7
176
     1
 62
   257
176
     1
 90
        1
176
     1
 90
        1
176
     1
 40
1.0
176
     1
 90
        8
176
     1
 62
     7
176
     1
 40
1.0
176
     1
 90
        1
176
     1
 90
        6
176
     1
 90
        2
176
     1
 62
     7
176
     1
 90
        5
176
     1
 90
        0
176
     1
 90
        0
176
     1
290
     0
176
     1
 90
        1
176
     1
 40
0.0
176
     1
 90
        0
176
     1
290
     0
176
     1
290
     1
176
     1
290
     1
176
     1
290
     0
176
     1
290
     0
176
     1
290
     0
176
     1
290
     0
176
     1
290
     0
176
     1
290
     0
176
     1
 90
       50
176
     1
 40
0.0
176
     1
 40
1.0
176
     1
 90
        0
176
     1
 62
    18
420
        0
176
     1
 90
       50
176
     1
 90
        3
176
     1
 62
     5
420
      255
176
     1
290
     0
176
     1
 90
       50
176
     1
 90
       50
176
     1
 90
       50
176
     1
290
     0
176
     1
 90
       50
176
     1
 62
   256
176
     0
 40
1.0
176
     0
 90
        2
176
     1
  1
strokes_ogs.tif
176
     1
290
     0
176
     1
 40
1.0
176
     1
 40
1.0
176
     1
1001
ACAD
1000
AcDbSavedByObjectVersion
1070
     0
  0
VISUALSTYLE
  5
35
102
{ACAD_REACTORS
330
29
102
}
330
29
100
AcDbVisualStyle
  2
Brighten
 70
    12
177
     3
291
     1
 70
    58
 90
        2
176
     1
 90
        2
176
     1
 90
        0
176
     1
 90
        0
176
     1
 40
0.6
176
     1
 40
30.0
176
     1
 62
     7
420
 16777215
176
     1
 90
        1
176
     1
 90
        4
176
     1
 62
     7
176
     1
 62
   257
176
     1
 90
        1
176
     1
 90
        1
176
     1
 40
1.0
176
     1
 90
        8
176
     1
 62
     7
176
     1
 40
1.0
176
     1
 90
        1
176
     1
 90
        6
176
     1
 90
        2
176
     1
 62
     7
176
     1
 90
        5
176
     1
 90
        0
176
     1
 90
        0
176
     1
290
     0
176
     1
 90
        1
176
     1
 40
50.0
176
     1
 90
        0
176
     1
290
     0
176
     1
290
     1
176
     1
290
     1
176
     1
290
     0
176
     1
290
     0
176
     1
290
     0
176
     1
290
     0
176
     1
290
     0
176
     1
290
     0
176
     1
 90
       50
176
     1
 40
0.0
176
     1
 40
1.0
176
     1
 90
        0
176
     1
 62
    18
420
        0
176
     1
 90
       50
176
     1
 90
        3
176
     1
 62
     5
420
      255
176
     1
290
     0
176
     1
 90
       50
176
     1
 90
       50
176
     1
 90
       50
176
     1
290
     0
176
     1
 90
       50
176
     1
 62
   256
176
     0
 40
1.0
176
     0
 90
        2
176
     1
  1
strokes_ogs.tif
176
     1
290
     0
176
     1
 40
1.0
176
     1
 40
1.0
176
     1
1001
ACAD
1000
AcDbSavedByObjectVersion
1070
     0
  0
VISUALSTYLE
  5
39
102
{ACAD_REACTORS
330
29
102
}
330
29
100
AcDbVisualStyle
  2
ColorChange
 70
    16
177
     3
291
     1
 70
    58
 90
        2
176
     1
 90
        2
176
     1
 90
        3
176
     1
 90
        0
176
     1
 40
0.6
176
     1
 40
30.0
176
     1
 62
     8
420
  8421504
176
     1
 90
        1
176
     1
 90
        4
176
     1
 62
     7
176
     1
 62
   257
176
     1
 90
        1
176
     1
 90
        1
176
     1
 40
1.0
176
     1
 90
        8
176
     1
 62
     8
420
  8421504
176
     1
 40
1.0
176
     1
 90
        1
176
     1
 90
        6
176
     1
 90
        2
176
     1
 62
     7
176
     1
 90
        5
176
     1
 90
        0
176
     1
 90
        0
176
     1
290
     0
176
     1
 90
        1
176
     1
 40
0.0
176
     1
 90
        0
176
     1
290
     0
176
     1
290
     1
176
     1
290
     1
176
     1
290
     0
176
     1
290
     0
176
     1
290
     0
176
     1
290
     0
176
     1
290
     0
176
     1
290
     0
176
     1
 90
       50
176
     1
 40
0.0
176
     1
 40
1.0
176
     1
 90
        0
176
     1
 62
    18
420
        0
176
     1
 90
       50
176
     1
 90
        3
176
     1
 62
     5
420
      255
176
     1
290
     0
176
     1
 90
       50
176
     1
 90
       50
176
     1
 90
       50
176
     1
290
     0
176
     1
 90
       50
176
     1
 62
   256
176
     0
 40
1.0
176
     0
 90
        2
176
     1
  1
strokes_ogs.tif
176
     1
290
     0
176
     1
 40
1.0
176
     1
 40
1.0
176
     1
1001
ACAD
1000
AcDbSavedByObjectVersion
1070
     0
  0
VISUALSTYLE
  5
32
102
{ACAD_REACTORS
330
29
102
}
330
29
100
AcDbVisualStyle
  2
Conceptual
 70
     9
177
     3
291
     0
 70
    58
 90
        3
176
     1
 90
        2
176
     1
 90
        0
176
     1
 90
        0
176
     1
 40
0.6
176
     1
 40
30.0
176
     1
 62
     7
420
 16777215
176
     1
 90
        2
176
     1
 90
        2
176
     1
 62
     7
176
     1
 62
   257
176
     1
 90
        1
176
     1
 90
        1
176
     1
 40
179.0
176
     1
 90
        8
176
     1
 62
     7
176
     1
 40
1.0
176
     1
 90
        1
176
     1
 90
        6
176
     1
 90
        2
176
     1
 62
     7
176
     1
 90
        3
176
     1
 90
        0
176
     1
 90
        0
176
     1
290
     0
176
     1
 90
        1
176
     1
 40
0.0
176
     1
 90
        0
176
     1
290
     0
176
     1
290
     1
176
     1
290
     1
176
     1
290
     0
176
     1
290
     0
176
     1
290
     0
176
     1
290
     0
176
     1
290
     0
176
     1
290
     0
176
     1
 90
       50
176
     1
 40
0.0
176
     1
 40
1.0
176
     1
 90
        0
176
     1
 62
    18
420
        0
176
     1
 90
       50
176
     1
 90
        3
176
     1
 62
     5
420
      255
176
     1
290
     0
176
     1
 90
       50
176
     1
 90
       50
176
     1
 90
       50
176
     1
290
     0
176
     1
 90
       50
176
     1
 62
   256
176
     0
 40
1.0
176
     0
 90
        2
176
     1
  1
strokes_ogs.tif
176
     1
290
     0
176
     1
 40
1.0
176
     1
 40
1.0
176
     1
1001
ACAD
1000
AcDbSavedByObjectVersion
1070
     0
  0
VISUALSTYLE
  5
34
102
{ACAD_REACTORS
330
29
102
}
330
29
100
AcDbVisualStyle
  2
Dim
 70
    11
177
     3
291
     1
 70
    58
 90
        2
176
     1
 90
        2
176
     1
 90
        0
176
     1
 90
        0
176
     1
 40
0.6
176
     1
 40
30.0
176
     1
 62
     7
420
 16777215
176
     1
 90
        1
176
     1
 90
        4
176
     1
 62
     7
176
     1
 62
   257
176
     1
 90
        1
176
     1
 90
        1
176
     1
 40
1.0
176
     1
 90
        8
176
     1
 62
     7
176
     1
 40
1.0
176
     1
 90
        1
176
     1
 90
        6
176
     1
 90
        2
176
     1
 62
     7
176
     1
 90
        5
176
     1
 90
        0
176
     1
 90
        0
176
     1
290
     0
176
     1
 90
        1
176
     1
 40
-50.0
176
     1
 90
        0
176
     1
290
     0
176
     1
290
     1
176
     1
290
     1
176
     1
290
     0
176
     1
290
     0
176
     1
290
     0
176
     1
290
     0
176
     1
290
     0
176
     1
290
     0
176
     1
 90
       50
176
     1
 40
0.0
176
     1
 40
1.0
176
     1
 90
        0
176
     1
 62
    18
420
        0
176
     1
 90
       50
176
     1
 90
        3
176
     1
 62
     5
420
      255
176
     1
290
     0
176
     1
 90
       50
176
     1
 90
       50
176
     1
 90
       50
176
     1
290
     0
176
     1
 90
       50
176
     1
 62
   256
176
     0
 40
1.0
176
     0
 90
        2
176
     1
  1
strokes_ogs.tif
176
     1
290
     0
176
     1
 40
1.0
176
     1
 40
1.0
176
     1
1001
ACAD
1000
AcDbSavedByObjectVersion
1070
     0
  0
VISUALSTYLE
  5
41
102
{ACAD_REACTORS
330
29
102
}
330
29
100
AcDbVisualStyle
  2
EdgeColorOff
 70
    22
177
     3
291
     1
 70
    58
 90
        2
176
     0
 90
        2
176
     0
 90
        0
176
     0
 90
        0
176
     0
 40
0.6
176
     0
 40
30.0
176
     0
 62
     7
420
 16777215
176
     0
 90
        1
176
     0
 90
        4
176
     0
 62
     7
176
     0
 62
   257
176
     0
 90
        1
176
     0
 90
        1
176
     0
 40
1.0
176
     0
 90
        8
176
     2
 62
     7
176
     0
 40
1.0
176
     0
 90
        1
176
     0
 90
        6
176
     0
 90
        2
176
     0
 62
     7
176
     0
 90
        5
176
     0
 90
        0
176
     0
 90
        0
176
     0
290
     0
176
     0
 90
        1
176
     0
 40
0.0
176
     0
 90
        0
176
     0
290
     0
176
     0
290
     1
176
     0
290
     1
176
     0
290
     0
176
     0
290
     0
176
     0
290
     0
176
     0
290
     0
176
     0
290
     0
176
     0
290
     0
176
     0
 90
       50
176
     0
 40
0.0
176
     0
 40
1.0
176
     0
 90
        0
176
     0
 62
    18
420
        0
176
     0
 90
       50
176
     0
 90
        3
176
     0
 62
     5
420
      255
176
     0
290
     0
176
     0
 90
       50
176
     0
 90
       50
176
     0
 90
       50
176
     0
290
     0
176
     0
 90
       50
176
     0
 62
   256
176
     0
 40
1.0
176
     0
 90
        2
176
     0
  1
strokes_ogs.tif
176
     0
290
     0
176
     0
 40
1.0
176
     0
 40
1.0
176
     0
1001
ACAD
1000
AcDbSavedByObjectVersion
1070
     0
  0
VISUALSTYLE
  5
38
102
{ACAD_REACTORS
330
29
102
}
330
29
100
AcDbVisualStyle
  2
Facepattern
 70
    15
177
     3
291
     1
 70
    58
 90
        2
176
     1
 90
        2
176
     1
 90
        0
176
     1
 90
        0
176
     1
 40
0.6
176
     1
 40
30.0
176
     1
 62
     7
420
 16777215
176
     1
 90
        1
176
     1
 90
        4
176
     1
 62
     7
176
     1
 62
   257
176
     1
 90
        1
176
     1
 90
        1
176
     1
 40
1.0
176
     1
 90
        8
176
     1
 62
     7
176
     1
 40
1.0
176
     1
 90
        1
176
     1
 90
        6
176
     1
 90
        2
176
     1
 62
     7
176
     1
 90
        5
176
     1
 90
        0
176
     1
 90
        0
176
     1
290
     0
176
     1
 90
        1
176
     1
 40
0.0
176
     1
 90
        0
176
     1
290
     0
176
     1
290
     1
176
     1
290
     1
176
     1
290
     0
176
     1
290
     0
176
     1
290
     0
176
     1
290
     0
176
     1
290
     0
176
     1
290
     0
176
     1
 90
       50
176
     1
 40
0.0
176
     1
 40
1.0
176
     1
 90
        0
176
     1
 62
    18
420
        0
176
     1
 90
       50
176
     1
 90
        3
176
     1
 62
     5
420
      255
176
     1
290
     0
176
     1
 90
       50
176
     1
 90
       50
176
     1
 90
       50
176
     1
290
     0
176
     1
 90
       50
176
     1
 62
   256
176
     0
 40
1.0
176
     0
 90
        2
176
     1
  1
strokes_ogs.tif
176
     1
290
     0
176
     1
 40
1.0
176
     1
 40
1.0
176
     1
1001
ACAD
1000
AcDbSavedByObjectVersion
1070
     0
  0
VISUALSTYLE
  5
2A
102
{ACAD_REACTORS
330
29
102
}
330
29
100
AcDbVisualStyle
  2
Flat
 70
     0
177
     3
291
     1
 70
    58
 90
        2
176
     1
 90
        1
176
     1
 90
        1
176
     1
 90
        2
176
     1
 40
0.6
176
     1
 40
30.0
176
     1
 62
     7
420
 16777215
176
     1
 90
        0
176
     1
 90
        0
176
     1
 62
     7
176
     1
 62
   257
176
     1
 90
        1
176
     1
 90
        1
176
     1
 40
1.0
176
     1
 90
        8
176
     1
 62
     7
176
     1
 40
1.0
176
     1
 90
        1
176
     1
 90
        6
176
     1
 90
        2
176
     1
 62
     7
176
     1
 90
        5
176
     1
 90
        0
176
     1
 90
        0
176
     1
290
     0
176
     1
 90
       13
176
     1
 40
0.0
176
     1
 90
        0
176
     1
290
     0
176
     1
290
     1
176
     1
290
     1
176
     1
290
     0
176
     1
290
     0
176
     1
290
     0
176
     1
290
     0
176
     1
290
     0
176
     1
290
     0
176
     1
 90
       50
176
     1
 40
0.0
176
     1
 40
1.0
176
     1
 90
        0
176
     1
 62
    18
420
        0
176
     1
 90
       50
176
     1
 90
        3
176
     1
 62
     5
420
      255
176
     1
290
     0
176
     1
 90
       50
176
     1
 90
       50
176
     1
 90
       50
176
     1
290
     0
176
     1
 90
       50
176
     1
 62
   256
176
     0
 40
1.0
176
     0
 90
        2
176
     1
  1
strokes_ogs.tif
176
     1
290
     0
176
     1
 40
1.0
176
     1
 40
1.0
176
     1
1001
ACAD
1000
AcDbSavedByObjectVersion
1070
     0
  0
VISUALSTYLE
  5
2B
102
{ACAD_REACTORS
330
29
102
}
330
29
100
AcDbVisualStyle
  2
FlatWithEdges
 70
     1
177
     3
291
     1
 70
    58
 90
        2
176
     1
 90
        1
176
     1
 90
        1
176
     1
 90
        2
176
     1
 40
0.6
176
     1
 40
30.0
176
     1
 62
     7
420
 16777215
176
     1
 90
        1
176
     1
 90
        0
176
     1
 62
     7
176
     1
 62
   257
176
     1
 90
        1
176
     1
 90
        1
176
     1
 40
1.0
176
     1
 90
        0
176
     1
 62
   257
176
     1
 40
1.0
176
     1
 90
        1
176
     1
 90
        6
176
     1
 90
        2
176
     1
 62
     7
176
     1
 90
        5
176
     1
 90
        0
176
     1
 90
        0
176
     1
290
     0
176
     1
 90
       13
176
     1
 40
0.0
176
     1
 90
        0
176
     1
290
     0
176
     1
290
     1
176
     1
290
     1
176
     1
290
     0
176
     1
290
     0
176
     1
290
     0
176
     1
290
     0
176
     1
290
     0
176
     1
290
     0
176
     1
 90
       50
176
     1
 40
0.0
176
     1
 40
1.0
176
     1
 90
        0
176
     1
 62
    18
420
        0
176
     1
 90
       50
176
     1
 90
        3
176
     1
 62
     5
420
      255
176
     1
290
     0
176
     1
 90
       50
176
     1
 90
       50
176
     1
 90
       50
176
     1
290
     0
176
     1
 90
       50
176
     1
 62
   256
176
     0
 40
1.0
176
     0
 90
        2
176
     1
  1
strokes_ogs.tif
176
     1
290
     0
176
     1
 40
1.0
176
     1
 40
1.0
176
     1
1001
ACAD
1000
AcDbSavedByObjectVersion
1070
     0
  0
VISUALSTYLE
  5
2C
102
{ACAD_REACTORS
330
29
102
}
330
29
100
AcDbVisualStyle
  2
Gouraud
 70
     2
177
     3
291
     1
 70
    58
 90
        2
176
     1
 90
        2
176
     1
 90
        1
176
     1
 90
        2
176
     1
 40
0.6
176
     1
 40
30.0
176
     1
 62
     7
420
 16777215
176
     1
 90
        0
176
     1
 90
        0
176
     1
 62
     7
176
     1
 62
   257
176
     1
 90
        1
176
     1
 90
        1
176
     1
 40
1.0
176
     1
 90
        0
176
     1
 62
     7
176
     1
 40
1.0
176
     1
 90
        1
176
     1
 90
        6
176
     1
 90
        2
176
     1
 62
     7
176
     1
 90
        5
176
     1
 90
        0
176
     1
 90
        0
176
     1
290
     0
176
     1
 90
       13
176
     1
 40
0.0
176
     1
 90
        0
176
     1
290
     0
176
     1
290
     1
176
     1
290
     1
176
     1
290
     0
176
     1
290
     0
176
     1
290
     0
176
     1
290
     0
176
     1
290
     0
176
     1
290
     0
176
     1
 90
       50
176
     1
 40
0.0
176
     1
 40
1.0
176
     1
 90
        0
176
     1
 62
    18
420
        0
176
     1
 90
       50
176
     1
 90
        3
176
     1
 62
     5
420
      255
176
     1
290
     0
176
     1
 90
       50
176
     1
 90
       50
176
     1
 90
       50
176
     1
290
     0
176
     1
 90
       50
176
     1
 62
   256
176
     0
 40
1.0
176
     0
 90
        2
176
     1
  1
strokes_ogs.tif
176
     1
290
     0
176
     1
 40
1.0
176
     1
 40
1.0
176
     1
1001
ACAD
1000
AcDbSavedByObjectVersion
1070
     0
  0
VISUALSTYLE
  5
2D
102
{ACAD_REACTORS
330
29
102
}
330
29
100
AcDbVisualStyle
  2
GouraudWithEdges
 70
     3
177
     3
291
     1
 70
    58
 90
        2
176
     1
 90
        2
176
     1
 90
        1
176
     1
 90
        2
176
     1
 40
0.6
176
     1
 40
30.0
176
     1
 62
     7
420
 16777215
176
     1
 90
        1
176
     1
 90
        0
176
     1
 62
     7
176
     1
 62
   257
176
     1
 90
        1
176
     1
 90
        1
176
     1
 40
1.0
176
     1
 90
        0
176
     1
 62
   257
176
     1
 40
1.0
176
     1
 90
        1
176
     1
 90
        6
176
     1
 90
        2
176
     1
 62
     7
176
     1
 90
        5
176
     1
 90
        0
176
     1
 90
        0
176
     1
290
     0
176
     1
 90
       13
176
     1
 40
0.0
176
     1
 90
        0
176
     1
290
     0
176
     1
290
     1
176
     1
290
     1
176
     1
290
     0
176
     1
290
     0
176
     1
290
     0
176
     1
290
     0
176
     1
290
     0
176
     1
290
     0
176
     1
 90
       50
176
     1
 40
0.0
176
     1
 40
1.0
176
     1
 90
        0
176
     1
 62
    18
420
        0
176
     1
 90
       50
176
     1
 90
        3
176
     1
 62
     5
420
      255
176
     1
290
     0
176
     1
 90
       50
176
     1
 90
       50
176
     1
 90
       50
176
     1
290
     0
176
     1
 90
       50
176
     1
 62
   256
176
     0
 40
1.0
176
     0
 90
        2
176
     1
  1
strokes_ogs.tif
176
     1
290
     0
176
     1
 40
1.0
176
     1
 40
1.0
176
     1
1001
ACAD
1000
AcDbSavedByObjectVersion
1070
     0
  0
VISUALSTYLE
  5
31
102
{ACAD_REACTORS
330
29
102
}
330
29
100
AcDbVisualStyle
  2
Hidden
 70
     6
177
     3
291
     0
 70
    58
 90
        1
176
     1
 90
        2
176
     1
 90
        2
176
     1
 90
        0
176
     1
 40
0.6
176
     1
 40
30.0
176
     1
 62
     7
420
 16777215
176
     1
 90
        2
176
     1
 90
        2
176
     1
 62
     7
176
     1
 62
   257
176
     1
 90
        2
176
     1
 90
        1
176
     1
 40
40.0
176
     1
 90
        0
176
     1
 62
   257
176
     1
 40
1.0
176
     1
 90
        1
176
     1
 90
        6
176
     1
 90
        2
176
     1
 62
     7
176
     1
 90
        3
176
     1
 90
        0
176
     1
 90
        0
176
     1
290
     0
176
     1
 90
        1
176
     1
 40
0.0
176
     1
 90
        0
176
     1
290
     0
176
     1
290
     1
176
     1
290
     1
176
     1
290
     0
176
     1
290
     0
176
     1
290
     0
176
     1
290
     0
176
     1
290
     0
176
     1
290
     0
176
     1
 90
       50
176
     1
 40
0.0
176
     1
 40
1.0
176
     1
 90
        0
176
     1
 62
    18
420
        0
176
     1
 90
       50
176
     1
 90
        3
176
     1
 62
     5
420
      255
176
     1
290
     0
176
     1
 90
       50
176
     1
 90
       50
176
     1
 90
       50
176
     1
290
     0
176
     1
 90
       50
176
     1
 62
   256
176
     0
 40
1.0
176
     0
 90
        2
176
     1
  1
strokes_ogs.tif
176
     1
290
     0
176
     1
 40
1.0
176
     1
 40
1.0
176
     1
1001
ACAD
1000
AcDbSavedByObjectVersion
1070
     0
  0
VISUALSTYLE
  5
3F
102
{ACAD_REACTORS
330
29
102
}
330
29
100
AcDbVisualStyle
  2
JitterOff
 70
    20
177
     3
291
     1
 70
    58
 90
        2
176
     0
 90
        2
176
     0
 90
        0
176
     0
 90
        0
176
     0
 40
0.6
176
     0
 40
30.0
176
     0
 62
     7
420
 16777215
176
     0
 90
        1
176
     0
 90
        4
176
     0
 62
     7
176
     0
 62
   257
176
     0
 90
        1
176
     0
 90
        1
176
     0
 40
1.0
176
     0
 90
       10
176
     2
 62
     7
176
     0
 40
1.0
176
     0
 90
        1
176
     0
 90
        6
176
     0
 90
        2
176
     0
 62
     7
176
     0
 90
        5
176
     0
 90
        0
176
     0
 90
        0
176
     0
290
     0
176
     0
 90
        1
176
     0
 40
0.0
176
     0
 90
        0
176
     0
290
     0
176
     0
290
     1
176
     0
290
     1
176
     0
290
     0
176
     0
290
     0
176
     0
290
     0
176
     0
290
     0
176
     0
290
     0
176
     0
290
     0
176
     0
 90
       50
176
     0
 40
0.0
176
     0
 40
1.0
176
     0
 90
        0
176
     0
 62
    18
420
        0
176
     0
 90
       50
176
     0
 90
        3
176
     0
 62
     5
420
      255
176
     0
290
     0
176
     0
 90
       50
176
     0
 90
       50
176
     0
 90
       50
176
     0
290
     0
176
     0
 90
       50
176
     0
 62
   256
176
     0
 40
1.0
176
     0
 90
        2
176
     0
  1
strokes_ogs.tif
176
     0
290
     0
176
     0
 40
1.0
176
     0
 40
1.0
176
     0
1001
ACAD
1000
AcDbSavedByObjectVersion
1070
     0
  0
VISUALSTYLE
  5
37
102
{ACAD_REACTORS
330
29
102
}
330
29
100
AcDbVisualStyle
  2
Linepattern
 70
    14
177
     3
291
     1
 70
    58
 90
        2
176
     1
 90
        2
176
     1
 90
        0
176
     1
 90
        0
176
     1
 40
0.6
176
     1
 40
30.0
176
     1
 62
     7
420
 16777215
176
     1
 90
        1
176
     1
 90
        4
176
     1
 62
     7
176
     1
 62
   257
176
     1
 90
        7
176
     1
 90
        7
176
     1
 40
1.0
176
     1
 90
        8
176
     1
 62
     7
176
     1
 40
1.0
176
     1
 90
        1
176
     1
 90
        6
176
     1
 90
        2
176
     1
 62
     7
176
     1
 90
        5
176
     1
 90
        0
176
     1
 90
        0
176
     1
290
     0
176
     1
 90
        1
176
     1
 40
0.0
176
     1
 90
        0
176
     1
290
     0
176
     1
290
     1
176
     1
290
     1
176
     1
290
     0
176
     1
290
     0
176
     1
290
     0
176
     1
290
     0
176
     1
290
     0
176
     1
290
     0
176
     1
 90
       50
176
     1
 40
0.0
176
     1
 40
1.0
176
     1
 90
        0
176
     1
 62
    18
420
        0
176
     1
 90
       50
176
     1
 90
        3
176
     1
 62
     5
420
      255
176
     1
290
     0
176
     1
 90
       50
176
     1
 90
       50
176
     1
 90
       50
176
     1
290
     0
176
     1
 90
       50
176
     1
 62
   256
176
     0
 40
1.0
176
     0
 90
        2
176
     1
  1
strokes_ogs.tif
176
     1
290
     0
176
     1
 40
1.0
176
     1
 40
1.0
176
     1
1001
ACAD
1000
AcDbSavedByObjectVersion
1070
     0
  0
VISUALSTYLE
  5
40
102
{ACAD_REACTORS
330
29
102
}
330
29
100
AcDbVisualStyle
  2
OverhangOff
 70
    21
177
     3
291
     1
 70
    58
 90
        2
176
     0
 90
        2
176
     0
 90
        0
176
     0
 90
        0
176
     0
 40
0.6
176
     0
 40
30.0
176
     0
 62
     7
420
 16777215
176
     0
 90
        1
176
     0
 90
        4
176
     0
 62
     7
176
     0
 62
   257
176
     0
 90
        1
176
     0
 90
        1
176
     0
 40
1.0
176
     0
 90
        9
176
     2
 62
     7
176
     0
 40
1.0
176
     0
 90
        1
176
     0
 90
        6
176
     0
 90
        2
176
     0
 62
     7
176
     0
 90
        5
176
     0
 90
        0
176
     0
 90
        0
176
     0
290
     0
176
     0
 90
        1
176
     0
 40
0.0
176
     0
 90
        0
176
     0
290
     0
176
     0
290
     1
176
     0
290
     1
176
     0
290
     0
176
     0
290
     0
176
     0
290
     0
176
     0
290
     0
176
     0
290
     0
176
     0
290
     0
176
     0
 90
       50
176
     0
 40
0.0
176
     0
 40
1.0
176
     0
 90
        0
176
     0
 62
    18
420
        0
176
     0
 90
       50
176
     0
 90
        3
176
     0
 62
     5
420
      255
176
     0
290
     0
176
     0
 90
       50
176
     0
 90
       50
176
     0
 90
       50
176
     0
290
     0
176
     0
 90
       50
176
     0
 62
   256
176
     0
 40
1.0
176
     0
 90
        2
176
     0
  1
strokes_ogs.tif
176
     0
290
     0
176
     0
 40
1.0
176
     0
 40
1.0
176
     0
1001
ACAD
1000
AcDbSavedByObjectVersion
1070
     0
  0
VISUALSTYLE
  5
33
102
{ACAD_REACTORS
330
29
102
}
330
29
100
AcDbVisualStyle
  2
Realistic
 70
     8
177
     3
291
     0
 70
    58
 90
        2
176
     1
 90
        3
176
     1
 90
        0
176
     1
 90
        2
176
     1
 40
0.6
176
     1
 40
30.0
176
     1
 62
     7
420
 16777215
176
     1
 90
        0
176
     1
 90
        0
176
     1
 62
     7
176
     1
 62
   257
176
     1
 90
        1
176
     1
 90
        1
176
     1
 40
1.0
176
     1
 90
        8
176
     1
 62
   257
176
     1
 40
1.0
176
     1
 90
        1
176
     1
 90
        6
176
     1
 90
        2
176
     1
 62
     7
176
     1
 90
        3
176
     1
 90
        0
176
     1
 90
        0
176
     1
290
     0
176
     1
 90
       13
176
     1
 40
0.0
176
     1
 90
        0
176
     1
290
     0
176
     1
290
     1
176
     1
290
     1
176
     1
290
     0
176
     1
290
     0
176
     1
290
     0
176
     1
290
     0
176
     1
290
     0
176
     1
290
     0
176
     1
 90
       50
176
     1
 40
0.0
176
     1
 40
1.0
176
     1
 90
        0
176
     1
 62
    18
420
        0
176
     1
 90
       50
176
     1
 90
        3
176
     1
 62
     5
420
      255
176
     1
290
     0
176
     1
 90
       50
176
     1
 90
       50
176
     1
 90
       50
176
     1
290
     0
176
     1
 90
       50
176
     1
 62
   256
176
     0
 40
1.0
176
     0
 90
        2
176
     1
  1
strokes_ogs.tif
176
     1
290
     0
176
     1
 40
1.0
176
     1
 40
1.0
176
     1
1001
ACAD
1000
AcDbSavedByObjectVersion
1070
     0
  0
VISUALSTYLE
  5
3E
102
{ACAD_REACTORS
330
29
102
}
330
29
100
AcDbVisualStyle
  2
Shaded
 70
    27
177
     3
291
     0
 70
    58
 90
        2
176
     1
 90
        2
176
     1
 90
        1
176
     1
 90
        2
176
     1
 40
0.6
176
     1
 40
30.0
176
     1
 62
     7
420
 16777215
176
     1
 90
        0
176
     1
 90
        4
176
     1
 62
     7
176
     1
 62
   257
176
     1
 90
        1
176
     1
 90
        1
176
     1
 40
1.0
176
     1
 90
        8
176
     1
 62
   257
176
     1
 40
1.0
176
     1
 90
        1
176
     1
 90
        6
176
     1
 90
        2
176
     1
 62
     8
420
  7895160
176
     1
 90
        3
176
     1
 90
        0
176
     1
 90
        0
176
     1
290
     0
176
     1
 90
        5
176
     1
 40
0.0
176
     1
 90
        0
176
     1
290
     0
176
     1
290
     1
176
     1
290
     1
176
     1
290
     0
176
     1
290
     0
176
     1
290
     0
176
     1
290
     0
176
     1
290
     0
176
     1
290
     0
176
     1
 90
       50
176
     1
 40
0.0
176
     1
 40
1.0
176
     1
 90
        0
176
     1
 62
    18
420
        0
176
     1
 90
       50
176
     1
 90
        3
176
     1
 62
     5
420
      255
176
     1
290
     0
176
     1
 90
       50
176
     1
 90
       50
176
     1
 90
       50
176
     1
290
     0
176
     1
 90
       50
176
     1
 62
   256
176
     0
 40
1.0
176
     0
 90
        2
176
     1
  1
strokes_ogs.tif
176
     1
290
     0
176
     1
 40
1.0
176
     1
 40
1.0
176
     1
1001
ACAD
1000
AcDbSavedByObjectVersion
1070
     0
  0
VISUALSTYLE
  5
3D
102
{ACAD_REACTORS
330
29
102
}
330
29
100
AcDbVisualStyle
  2
Shaded with edges
 70
    26
177
     3
291
     0
 70
    58
 90
        2
176
     1
 90
        2
176
     1
 90
        1
176
     1
 90
        2
176
     1
 40
0.6
176
     1
 40
30.0
176
     1
 62
     7
420
 16777215
176
     1
 90
        1
176
     1
 90
        2
176
     1
 62
     7
176
     1
 62
   257
176
     1
 90
        2
176
     1
 90
        1
176
     1
 40
1.0
176
     1
 90
        8
176
     1
 62
   257
176
     1
 40
1.0
176
     1
 90
        1
176
     1
 90
        6
176
     1
 90
        2
176
     1
 62
     7
176
     1
 90
        3
176
     1
 90
        0
176
     1
 90
        0
176
     1
290
     0
176
     1
 90
        5
176
     1
 40
0.0
176
     1
 90
        0
176
     1
290
     0
176
     1
290
     1
176
     1
290
     1
176
     1
290
     0
176
     1
290
     0
176
     1
290
     0
176
     1
290
     0
176
     1
290
     0
176
     1
290
     0
176
     1
 90
       50
176
     1
 40
0.0
176
     1
 40
1.0
176
     1
 90
        0
176
     1
 62
    18
420
        0
176
     1
 90
       50
176
     1
 90
        3
176
     1
 62
     5
420
      255
176
     1
290
     0
176
     1
 90
       50
176
     1
 90
       50
176
     1
 90
       50
176
     1
290
     0
176
     1
 90
       50
176
     1
 62
   256
176
     0
 40
1.0
176
     0
 90
        2
176
     1
  1
strokes_ogs.tif
176
     1
290
     0
176
     1
 40
1.0
176
     1
 40
1.0
176
     1
1001
ACAD
1000
AcDbSavedByObjectVersion
1070
     0
  0
VISUALSTYLE
  5
3A
102
{ACAD_REACTORS
330
29
102
}
330
29
100
AcDbVisualStyle
  2
Shades of Gray
 70
    23
177
     3
291
     0
 70
    58
 90
        2
176
     1
 90
        2
176
     1
 90
        3
176
     1
 90
        0
176
     1
 40
0.6
176
     1
 40
30.0
176
     1
 62
     7
420
 16777215
176
     1
 90
        2
176
     1
 90
        2
176
     1
 62
     7
176
     1
 62
     7
176
     1
 90
        1
176
     1
 90
        1
176
     1
 40
40.0
176
     1
 90
        8
176
     1
 62
     7
176
     1
 40
1.0
176
     1
 90
        1
176
     1
 90
        6
176
     1
 90
        2
176
     1
 62
     7
176
     1
 90
        3
176
     1
 90
        0
176
     1
 90
        0
176
     1
290
     0
176
     1
 90
        1
176
     1
 40
0.0
176
     1
 90
        0
176
     1
290
     0
176
     1
290
     1
176
     1
290
     1
176
     1
290
     0
176
     1
290
     0
176
     1
290
     0
176
     1
290
     0
176
     1
290
     0
176
     1
290
     0
176
     1
 90
       50
176
     1
 40
0.0
176
     1
 40
1.0
176
     1
 90
        0
176
     1
 62
    18
420
        0
176
     1
 90
       50
176
     1
 90
        3
176
     1
 62
     5
420
      255
176
     1
290
     0
176
     1
 90
       50
176
     1
 90
       50
176
     1
 90
       50
176
     1
290
     0
176
     1
 90
       50
176
     1
 62
   256
176
     0
 40
1.0
176
     0
 90
        2
176
     1
  1
strokes_ogs.tif
176
     1
290
     0
176
     1
 40
1.0
176
     1
 40
1.0
176
     1
1001
ACAD
1000
AcDbSavedByObjectVersion
1070
     0
  0
VISUALSTYLE
  5
3B
102
{ACAD_REACTORS
330
29
102
}
330
29
100
AcDbVisualStyle
  2
Sketchy
 70
    24
177
     3
291
     0
 70
    58
 90
        1
176
     1
 90
        2
176
     1
 90
        2
176
     1
 90
        0
176
     1
 40
0.6
176
     1
 40
30.0
176
     1
 62
     7
420
 16777215
176
     1
 90
        2
176
     1
 90
        2
176
     1
 62
     7
176
     1
 62
     7
176
     1
 90
        1
176
     1
 90
        1
176
     1
 40
40.0
176
     1
 90
       11
176
     1
 62
     7
176
     1
 40
1.0
176
     1
 90
        1
176
     1
 90
        6
176
     1
 90
        2
176
     1
 62
     7
176
     1
 90
        6
176
     1
 90
        0
176
     1
 90
        0
176
     1
290
     0
176
     1
 90
        1
176
     1
 40
0.0
176
     1
 90
        0
176
     1
290
     0
176
     1
290
     1
176
     1
290
     1
176
     1
290
     0
176
     1
290
     0
176
     1
290
     0
176
     1
290
     0
176
     1
290
     0
176
     1
290
     0
176
     1
 90
       50
176
     1
 40
0.0
176
     1
 40
1.0
176
     1
 90
        0
176
     1
 62
    18
420
        0
176
     1
 90
       50
176
     1
 90
        3
176
     1
 62
     5
420
      255
176
     1
290
     0
176
     1
 90
       50
176
     1
 90
       50
176
     1
 90
       50
176
     1
290
     0
176
     1
 90
       50
176
     1
 62
   256
176
     0
 40
1.0
176
     0
 90
        2
176
     1
  1
strokes_ogs.tif
176
     1
290
     0
176
     1
 40
1.0
176
     1
 40
1.0
176
     1
1001
ACAD
1000
AcDbSavedByObjectVersion
1070
     0
  0
VISUALSTYLE
  5
36
102
{ACAD_REACTORS
330
29
102
}
330
29
100
AcDbVisualStyle
  2
Thicken
 70
    13
177
     3
291
     1
 70
    58
 90
        2
176
     1
 90
        2
176
     1
 90
        0
176
     1
 90
        0
176
     1
 40
0.6
176
     1
 40
30.0
176
     1
 62
     7
420
 16777215
176
     1
 90
        1
176
     1
 90
        4
176
     1
 62
     7
176
     1
 62
   257
176
     1
 90
        1
176
     1
 90
        1
176
     1
 40
1.0
176
     1
 90
       12
176
     1
 62
     7
176
     1
 40
1.0
176
     1
 90
        1
176
     1
 90
        6
176
     1
 90
        2
176
     1
 62
     7
176
     1
 90
        5
176
     1
 90
        0
176
     1
 90
        0
176
     1
290
     0
176
     1
 90
        1
176
     1
 40
0.0
176
     1
 90
        0
176
     1
290
     0
176
     1
290
     1
176
     1
290
     1
176
     1
290
     0
176
     1
290
     0
176
     1
290
     0
176
     1
290
     0
176
     1
290
     0
176
     1
290
     0
176
     1
 90
       50
176
     1
 40
0.0
176
     1
 40
1.0
176
     1
 90
        0
176
     1
 62
    18
420
        0
176
     1
 90
       50
176
     1
 90
        3
176
     1
 62
     5
420
      255
176
     1
290
     0
176
     1
 90
       50
176
     1
 90
       50
176
     1
 90
       50
176
     1
290
     0
176
     1
 90
       50
176
     1
 62
   256
176
     0
 40
1.0
176
     0
 90
        2
176
     1
  1
strokes_ogs.tif
176
     1
290
     0
176
     1
 40
1.0
176
     1
 40
1.0
176
     1
1001
ACAD
1000
AcDbSavedByObjectVersion
1070
     0
  0
VISUALSTYLE
  5
30
102
{ACAD_REACTORS
330
29
102
}
330
29
100
AcDbVisualStyle
  2
Wireframe
 70
     5
177
     3
291
     0
 70
    58
 90
        0
176
     1
 90
        2
176
     1
 90
        0
176
     1
 90
        0
176
     1
 40
0.6
176
     1
 40
30.0
176
     1
 62
     7
420
 16777215
176
     1
 90
        1
176
     1
 90
        4
176
     1
 62
     7
176
     1
 62
   257
176
     1
 90
        1
176
     1
 90
        1
176
     1
 40
1.0
176
     1
 90
        0
176
     1
 62
   257
176
     1
 40
1.0
176
     1
 90
        1
176
     1
 90
        6
176
     1
 90
        2
176
     1
 62
     7
176
     1
 90
        3
176
     1
 90
        0
176
     1
 90
        0
176
     1
290
     0
176
     1
 90
        1
176
     1
 40
0.0
176
     1
 90
        0
176
     1
290
     0
176
     1
290
     1
176
     1
290
     1
176
     1
290
     0
176
     1
290
     0
176
     1
290
     0
176
     1
290
     0
176
     1
290
     0
176
     1
290
     0
176
     1
 90
       50
176
     1
 40
0.0
176
     1
 40
1.0
176
     1
 90
        0
176
     1
 62
    18
420
        0
176
     1
 90
       50
176
     1
 90
        3
176
     1
 62
     5
420
      255
176
     1
290
     0
176
     1
 90
       50
176
     1
 90
       50
176
     1
 90
       50
176
     1
290
     0
176
     1
 90
       50
176
     1
 62
   256
176
     0
 40
1.0
176
     0
 90
        2
176
     1
  1
strokes_ogs.tif
176
     1
290
     0
176
     1
 40
1.0
176
     1
 40
1.0
176
     1
1001
ACAD
1000
AcDbSavedByObjectVersion
1070
     0
  0
VISUALSTYLE
  5
3C
102
{ACAD_REACTORS
330
29
102
}
330
29
100
AcDbVisualStyle
  2
X-Ray
 70
    25
177
     3
291
     0
 70
    58
 90
        2
176
     1
 90
        2
176
     1
 90
        1
176
     1
 90
        1
176
     1
 40
0.5
176
     1
 40
30.0
176
     1
 62
     7
420
 16777215
176
     1
 90
        1
176
     1
 90
        0
176
     1
 62
     7
176
     1
 62
   257
176
     1
 90
        1
176
     1
 90
        1
176
     1
 40
1.0
176
     1
 90
        8
176
     1
 62
     7
176
     1
 40
1.0
176
     1
 90
        1
176
     1
 90
        6
176
     1
 90
        2
176
     1
 62
     7
176
     1
 90
        3
176
     1
 90
        0
176
     1
 90
        0
176
     1
290
     0
176
     1
 90
       13
176
     1
 40
0.0
176
     1
 90
        0
176
     1
290
     0
176
     1
290
     1
176
     1
290
     1
176
     1
290
     0
176
     1
290
     0
176
     1
290
     0
176
     1
290
     0
176
     1
290
     0
176
     1
290
     0
176
     1
 90
       50
176
     1
 40
0.0
176
     1
 40
1.0
176
     1
 90
        0
176
     1
 62
    18
420
        0
176
     1
 90
       50
176
     1
 90
        3
176
     1
 62
     5
420
      255
176
     1
290
     0
176
     1
 90
       50
176
     1
 90
       50
176
     1
 90
       50
176
     1
290
     0
176
     1
 90
       50
176
     1
 62
   256
176
     0
 40
1.0
176
     0
 90
        2
176
     1
  1
strokes_ogs.tif
176
     1
290
     0
176
     1
 40
1.0
176
     1
 40
1.0
176
     1
1001
ACAD
1000
AcDbSavedByObjectVersion
1070
     0
  0
DICTIONARYVAR
  5
226
102
{ACAD_REACTORS
330
221
102
}
330
221
100
DictionaryVariables
280
     0
  1
1:1
  0
DICTIONARYVAR
  5
223
102
{ACAD_REACTORS
330
221
102
}
330
221
100
DictionaryVariables
280
     0
  1
STANDARD
  0
DICTIONARYVAR
  5
222
102
{ACAD_REACTORS
330
221
102
}
330
221
100
DictionaryVariables
280
     0
  1
STANDARD
  0
DICTIONARYVAR
  5
224
102
{ACAD_REACTORS
330
221
102
}
330
221
100
DictionaryVariables
280
     0
  1
Imperial24
  0
DICTIONARYVAR
  5
225
102
{ACAD_REACTORS
330
221
102
}
330
221
100
DictionaryVariables
280
     0
  1
Imperial24
  0
DICTIONARY
  5
22E
330
6B
100
AcDbDictionary
280
     1
281
     1
  3
ACAD_XREC_ROUNDTRIP
360
22F
  0
DICTIONARY
  5
1A
330
19
100
AcDbDictionary
280
     1
281
     1
  3
BUMPTILE
360
1C
  3
DIFFUSETILE
360
1B
  3
OPACITYTILE
360
1F
  3
REFLECTIONTILE
360
1E
  3
REFRACTIONTILE
360
20
  3
SPECULARTILE
360
1D
  0
DICTIONARY
  5
12
330
11
100
AcDbDictionary
280
     1
281
     1
  3
BUMPTILE
360
14
  3
DIFFUSETILE
360
13
  3
OPACITYTILE
360
17
  3
REFLECTIONTILE
360
16
  3
REFRACTIONTILE
360
18
  3
SPECULARTILE
360
15
  0
DICTIONARY
  5
22
330
21
100
AcDbDictionary
280
     1
281
     1
  3
BUMPTILE
360
24
  3
DIFFUSETILE
360
23
  3
OPACITYTILE
360
27
  3
REFLECTIONTILE
360
26
  3
REFRACTIONTILE
360
28
  3
SPECULARTILE
360
25
  0
DICTIONARY
  5
22C
330
69
100
AcDbDictionary
280
     1
281
     1
  3
ACAD_XREC_ROUNDTRIP
360
22D
  0
DICTIONARY
  5
227
330
65
100
AcDbDictionary
280
     1
281
     1
  3
ACAD_ROUNDTRIP_2008_TABLESTYLE_CELLSTYLEMAP
360
228
  0
XRECORD
  5
22F
102
{ACAD_REACTORS
330
22E
102
}
330
22E
100
AcDbXrecord
280
     1
102
DISPLAYNAME
  1
Imperial24
102
FLAGS
 90
        0
  0
XRECORD
  5
1C
102
{ACAD_REACTORS
330
1A
102
}
330
1A
100
AcDbXrecord
280
     1
270
     1
271
     1
  0
XRECORD
  5
1B
102
{ACAD_REACTORS
330
1A
102
}
330
1A
100
AcDbXrecord
280
     1
270
     1
271
     1
  0
XRECORD
  5
1F
102
{ACAD_REACTORS
330
1A
102
}
330
1A
100
AcDbXrecord
280
     1
270
     1
271
     1
  0
XRECORD
  5
1E
102
{ACAD_REACTORS
330
1A
102
}
330
1A
100
AcDbXrecord
280
     1
270
     1
271
     1
  0
XRECORD
  5
20
102
{ACAD_REACTORS
330
1A
102
}
330
1A
100
AcDbXrecord
280
     1
270
     1
271
     1
  0
XRECORD
  5
1D
102
{ACAD_REACTORS
330
1A
102
}
330
1A
100
AcDbXrecord
280
     1
270
     1
271
     1
  0
XRECORD
  5
14
102
{ACAD_REACTORS
330
12
102
}
330
12
100
AcDbXrecord
280
     1
270
     1
271
     1
  0
XRECORD
  5
13
102
{ACAD_REACTORS
330
12
102
}
330
12
100
AcDbXrecord
280
     1
270
     1
271
     1
  0
XRECORD
  5
17
102
{ACAD_REACTORS
330
12
102
}
330
12
100
AcDbXrecord
280
     1
270
     1
271
     1
  0
XRECORD
  5
16
102
{ACAD_REACTORS
330
12
102
}
330
12
100
AcDbXrecord
280
     1
270
     1
271
     1
  0
XRECORD
  5
18
102
{ACAD_REACTORS
330
12
102
}
330
12
100
AcDbXrecord
280
     1
270
     1
271
     1
  0
XRECORD
  5
15
102
{ACAD_REACTORS
330
12
102
}
330
12
100
AcDbXrecord
280
     1
270
     1
271
     1
  0
XRECORD
  5
24
102
{ACAD_REACTORS
330
22
102
}
330
22
100
AcDbXrecord
280
     1
270
     1
271
     1
  0
XRECORD
  5
23
102
{ACAD_REACTORS
330
22
102
}
330
22
100
AcDbXrecord
280
     1
270
     1
271
     1
  0
XRECORD
  5
27
102
{ACAD_REACTORS
330
22
102
}
330
22
100
AcDbXrecord
280
     1
270
     1
271
     1
  0
XRECORD
  5
26
102
{ACAD_REACTORS
330
22
102
}
330
22
100
AcDbXrecord
280
     1
270
     1
271
     1
  0
XRECORD
  5
28
102
{ACAD_REACTORS
330
22
102
}
330
22
100
AcDbXrecord
280
     1
270
     1
271
     1
  0
XRECORD
  5
25
102
{ACAD_REACTORS
330
22
102
}
330
22
100
AcDbXrecord
280
     1
270
     1
271
     1
  0
XRECORD
  5
22D
102
{ACAD_REACTORS
330
22C
102
}
330
22C
100
AcDbXrecord
280
     1
102
DISPLAYNAME
  1
Imperial24
102
FLAGS
 90
        0
  0
CELLSTYLEMAP
  5
228
102
{ACAD_REACTORS
330
227
102
}
330
227
100
AcDbCellStyleMap
 90
        3
300
CELLSTYLE
  1
TABLEFORMAT_BEGIN
 90
        5
170
     1
 91
        0
 92
    32768
 62
   257
 93
        1
300
CONTENTFORMAT
  1
CONTENTFORMAT_BEGIN
 90
        0
 91
        0
 92
      512
 93
        0
300

 40
0.0
140
1.0
 94
        5
 62
     0
340
55
144
0.25
309
CONTENTFORMAT_END
171
     0
 94
        0
309
TABLEFORMAT_END
  1
CELLSTYLE_BEGIN
 90
        1
 91
        1
300
_TITLE
309
CELLSTYLE_END
300
CELLSTYLE
  1
TABLEFORMAT_BEGIN
 90
        5
170
     1
 91
        0
 92
        0
 62
   257
 93
        1
300
CONTENTFORMAT
  1
CONTENTFORMAT_BEGIN
 90
        0
 91
        0
 92
      512
 93
        0
300

 40
0.0
140
1.0
 94
        5
 62
     0
340
55
144
0.18
309
CONTENTFORMAT_END
171
     0
 94
        0
309
TABLEFORMAT_END
  1
CELLSTYLE_BEGIN
 90
        2
 91
        1
300
_HEADER
309
CELLSTYLE_END
300
CELLSTYLE
  1
TABLEFORMAT_BEGIN
 90
        5
170
     1
 91
        0
 92
        0
 62
   257
 93
        1
300
CONTENTFORMAT
  1
CONTENTFORMAT_BEGIN
 90
        0
 91
        0
 92
      512
 93
        0
300

 40
0.0
140
1.0
 94
        2
 62
     0
340
55
144
0.18
309
CONTENTFORMAT_END
171
     0
 94
        0
309
TABLEFORMAT_END
  1
CELLSTYLE_BEGIN
 90
        3
 91
        2
300
_DATA
309
CELLSTYLE_END
  0
ENDSEC
  0
EOF
