  0
SECTION
  2
HEADER
  9
$ACADVER
  1
AC1027
  9
$ACADMAINTVER
 70
   125
  9
$DWGCODEPAGE
  3
ANSI_1252
  9
$REQUIREDVERSIONS
160
                 0
  9
$INSBASE
 10
0.0
 20
0.0
 30
0.0
  9
$EXTMIN
 10
1.000000000000000E+20
 20
1.000000000000000E+20
 30
1.000000000000000E+20
  9
$EXTMAX
 10
-1.000000000000000E+20
 20
-1.000000000000000E+20
 30
-1.000000000000000E+20
  9
$LIMMIN
 10
0.0
 20
0.0
  9
$LIMMAX
 10
12.0
 20
9.0
  9
$ORTHOMODE
 70
     0
  9
$REGENMODE
 70
     1
  9
$FILLMODE
 70
     1
  9
$QTEXTMODE
 70
     0
  9
$MIRRTEXT
 70
     0
  9
$LTSCALE
 40
1.0
  9
$ATTMODE
 70
     1
  9
$TEXTSIZE
 40
0.2
  9
$TRACEWID
 40
0.05
  9
$TEXTSTYLE
  7
Standard
  9
$CLAYER
  8
0
  9
$CELTYPE
  6
ByLayer
  9
$CECOLOR
 62
   256
  9
$CELTSCALE
 40
1.0
  9
$DISPSILH
 70
     0
  9
$DIMSCALE
 40
1.0
  9
$DIMASZ
 40
0.18
  9
$DIMEXO
 40
0.0625
  9
$DIMDLI
 40
0.38
  9
$DIMRND
 40
0.0
  9
$DIMDLE
 40
0.0
  9
$DIMEXE
 40
0.18
  9
$DIMTP
 40
0.0
  9
$DIMTM
 40
0.0
  9
$DIMTXT
 40
0.18
  9
$DIMCEN
 40
0.09
  9
$DIMTSZ
 40
0.0
  9
$DIMTOL
 70
     0
  9
$DIMLIM
 70
     0
  9
$DIMTIH
 70
     1
  9
$DIMTOH
 70
     1
  9
$DIMSE1
 70
     0
  9
$DIMSE2
 70
     0
  9
$DIMTAD
 70
     0
  9
$DIMZIN
 70
     0
  9
$DIMBLK
  1

  9
$DIMASO
 70
     1
  9
$DIMSHO
 70
     1
  9
$DIMPOST
  1

  9
$DIMAPOST
  1

  9
$DIMALT
 70
     0
  9
$DIMALTD
 70
     2
  9
$DIMALTF
 40
25.4
  9
$DIMLFAC
 40
1.0
  9
$DIMTOFL
 70
     0
  9
$DIMTVP
 40
0.0
  9
$DIMTIX
 70
     0
  9
$DIMSOXD
 70
     0
  9
$DIMSAH
 70
     0
  9
$DIMBLK1
  1

  9
$DIMBLK2
  1

  9
$DIMSTYLE
  2
Standard
  9
$DIMCLRD
 70
     0
  9
$DIMCLRE
 70
     0
  9
$DIMCLRT
 70
     0
  9
$DIMTFAC
 40
1.0
  9
$DIMGAP
 40
0.09
  9
$DIMJUST
 70
     0
  9
$DIMSD1
 70
     0
  9
$DIMSD2
 70
     0
  9
$DIMTOLJ
 70
     1
  9
$DIMTZIN
 70
     0
  9
$DIMALTZ
 70
     0
  9
$DIMALTTZ
 70
     0
  9
$DIMUPT
 70
     0
  9
$DIMDEC
 70
     4
  9
$DIMTDEC
 70
     4
  9
$DIMALTU
 70
     2
  9
$DIMALTTD
 70
     2
  9
$DIMTXSTY
  7
Standard
  9
$DIMAUNIT
 70
     0
  9
$DIMADEC
 70
     0
  9
$DIMALTRND
 40
0.0
  9
$DIMAZIN
 70
     0
  9
$DIMDSEP
 70
    46
  9
$DIMATFIT
 70
     3
  9
$DIMFRAC
 70
     0
  9
$DIMLDRBLK
  1

  9
$DIMLUNIT
 70
     2
  9
$DIMLWD
 70
    -2
  9
$DIMLWE
 70
    -2
  9
$DIMTMOVE
 70
     0
  9
$DIMFXL
 40
1.0
  9
$DIMFXLON
 70
     0
  9
$DIMJOGANG
 40
0.7853981633974483
  9
$DIMTFILL
 70
     0
  9
$DIMTFILLCLR
 70
     0
  9
$DIMARCSYM
 70
     0
  9
$DIMLTYPE
  6

  9
$DIMLTEX1
  6

  9
$DIMLTEX2
  6

  9
$DIMTXTDIRECTION
 70
     0
  9
$LUNITS
 70
     2
  9
$LUPREC
 70
     4
  9
$SKETCHINC
 40
0.1
  9
$FILLETRAD
 40
0.0
  9
$AUNITS
 70
     0
  9
$AUPREC
 70
     0
  9
$MENU
  1
.
  9
$ELEVATION
 40
0.0
  9
$PELEVATION
 40
0.0
  9
$THICKNESS
 40
0.0
  9
$LIMCHECK
 70
     0
  9
$CHAMFERA
 40
0.0
  9
$CHAMFERB
 40
0.0
  9
$CHAMFERC
 40
0.0
  9
$CHAMFERD
 40
0.0
  9
$SKPOLY
 70
     0
  9
$TDCREATE
 40
2459641.691689815
  9
$TDUCREATE
 40
2459641.650023148
  9
$TDUPDATE
 40
2459641.691689815
  9
$TDUUPDATE
 40
2459641.650023148
  9
$TDINDWG
 40
0.0000000000
  9
$TDUSRTIMER
 40
0.0000000000
  9
$USRTIMER
 70
     1
  9
$ANGBASE
 50
0.0
  9
$ANGDIR
 70
     0
  9
$PDMODE
 70
     0
  9
$PDSIZE
 40
0.0
  9
$PLINEWID
 40
0.0
  9
$SPLFRAME
 70
     0
  9
$SPLINETYPE
 70
     6
  9
$SPLINESEGS
 70
     8
  9
$HANDSEED
  5
341
  9
$SURFTAB1
 70
     6
  9
$SURFTAB2
 70
     6
  9
$SURFTYPE
 70
     6
  9
$SURFU
 70
     6
  9
$SURFV
 70
     6
  9
$UCSBASE
  2

  9
$UCSNAME
  2

  9
$UCSORG
 10
0.0
 20
0.0
 30
0.0
  9
$UCSXDIR
 10
1.0
 20
0.0
 30
0.0
  9
$UCSYDIR
 10
0.0
 20
1.0
 30
0.0
  9
$UCSORTHOREF
  2

  9
$UCSORTHOVIEW
 70
     0
  9
$UCSORGTOP
 10
0.0
 20
0.0
 30
0.0
  9
$UCSORGBOTTOM
 10
0.0
 20
0.0
 30
0.0
  9
$UCSORGLEFT
 10
0.0
 20
0.0
 30
0.0
  9
$UCSORGRIGHT
 10
0.0
 20
0.0
 30
0.0
  9
$UCSORGFRONT
 10
0.0
 20
0.0
 30
0.0
  9
$UCSORGBACK
 10
0.0
 20
0.0
 30
0.0
  9
$PUCSBASE
  2

  9
$PUCSNAME
  2

  9
$PUCSORG
 10
0.0
 20
0.0
 30
0.0
  9
$PUCSXDIR
 10
1.0
 20
0.0
 30
0.0
  9
$PUCSYDIR
 10
0.0
 20
1.0
 30
0.0
  9
$PUCSORTHOREF
  2

  9
$PUCSORTHOVIEW
 70
     0
  9
$PUCSORGTOP
 10
0.0
 20
0.0
 30
0.0
  9
$PUCSORGBOTTOM
 10
0.0
 20
0.0
 30
0.0
  9
$PUCSORGLEFT
 10
0.0
 20
0.0
 30
0.0
  9
$PUCSORGRIGHT
 10
0.0
 20
0.0
 30
0.0
  9
$PUCSORGFRONT
 10
0.0
 20
0.0
 30
0.0
  9
$PUCSORGBACK
 10
0.0
 20
0.0
 30
0.0
  9
$USERI1
 70
     0
  9
$USERI2
 70
     0
  9
$USERI3
 70
     0
  9
$USERI4
 70
     0
  9
$USERI5
 70
     0
  9
$USERR1
 40
0.0
  9
$USERR2
 40
0.0
  9
$USERR3
 40
0.0
  9
$USERR4
 40
0.0
  9
$USERR5
 40
0.0
  9
$WORLDVIEW
 70
     1
  9
$SHADEDGE
 70
     3
  9
$SHADEDIF
 70
    70
  9
$TILEMODE
 70
     1
  9
$MAXACTVP
 70
    64
  9
$PINSBASE
 10
0.0
 20
0.0
 30
0.0
  9
$PLIMCHECK
 70
     0
  9
$PEXTMIN
 10
1.000000000000000E+20
 20
1.000000000000000E+20
 30
1.000000000000000E+20
  9
$PEXTMAX
 10
-1.000000000000000E+20
 20
-1.000000000000000E+20
 30
-1.000000000000000E+20
  9
$PLIMMIN
 10
0.0
 20
0.0
  9
$PLIMMAX
 10
12.0
 20
9.0
  9
$UNITMODE
 70
     0
  9
$VISRETAIN
 70
     1
  9
$PLINEGEN
 70
     0
  9
$PSLTSCALE
 70
     1
  9
$TREEDEPTH
 70
  3020
  9
$CMLSTYLE
  2
Standard
  9
$CMLJUST
 70
     0
  9
$CMLSCALE
 40
1.0
  9
$PROXYGRAPHICS
 70
     1
  9
$MEASUREMENT
 70
     0
  9
$CELWEIGHT
370
    -1
  9
$ENDCAPS
280
     0
  9
$JOINSTYLE
280
     0
  9
$LWDISPLAY
290
     1
  9
$INSUNITS
 70
     4
  9
$HYPERLINKBASE
  1

  9
$STYLESHEET
  1

  9
$XEDIT
290
     1
  9
$CEPSNTYPE
380
     0
  9
$PSTYLEMODE
290
     1
  9
$FINGERPRINTGUID
  2
{5A1DB852-7997-CE4E-B5D3-6EF940362985}
  9
$VERSIONGUID
  2
{FEBEA3CF-F991-2144-9091-5667505D89CC}
  9
$EXTNAMES
290
     1
  9
$PSVPSCALE
 40
0.0
  9
$OLESTARTUP
290
     0
  9
$SORTENTS
280
   127
  9
$INDEXCTL
280
     0
  9
$HIDETEXT
280
     1
  9
$XCLIPFRAME
280
     2
  9
$HALOGAP
280
     0
  9
$OBSCOLOR
 70
   257
  9
$OBSLTYPE
280
     0
  9
$INTERSECTIONDISPLAY
280
     0
  9
$INTERSECTIONCOLOR
 70
   257
  9
$DIMASSOC
280
     2
  9
$PROJECTNAME
  1

  9
$CAMERADISPLAY
290
     0
  9
$LENSLENGTH
 40
50.0
  9
$CAMERAHEIGHT
 40
0.0
  9
$STEPSPERSEC
 40
2.0
  9
$STEPSIZE
 40
6.0
  9
$3DDWFPREC
 40
2.0
  9
$PSOLWIDTH
 40
0.25
  9
$PSOLHEIGHT
 40
4.0
  9
$LOFTANG1
 40
1.570796326794896
  9
$LOFTANG2
 40
1.570796326794896
  9
$LOFTMAG1
 40
0.0
  9
$LOFTMAG2
 40
0.0
  9
$LOFTPARAM
 70
     7
  9
$LOFTNORMALS
280
     1
  9
$LATITUDE
 40
37.795
  9
$LONGITUDE
 40
-122.394
  9
$NORTHDIRECTION
 40
0.0
  9
$TIMEZONE
 70
 -8000
  9
$LIGHTGLYPHDISPLAY
280
     1
  9
$TILEMODELIGHTSYNCH
280
     1
  9
$CMATERIAL
347
11
  9
$SOLIDHIST
280
     0
  9
$SHOWHIST
280
     1
  9
$DWFFRAME
280
     2
  9
$DGNFRAME
280
     0
  9
$REALWORLDSCALE
290
     1
  9
$INTERFERECOLOR
 62
     1
  9
$INTERFEREOBJVS
345
33
  9
$INTERFEREVPVS
346
30
  9
$CSHADOW
280
     0
  9
$SHADOWPLANELOCATION
 40
0.0
  0
ENDSEC
  0
SECTION
  2
CLASSES
  0
CLASS
  1
ACDBDICTIONARYWDFLT
  2
AcDbDictionaryWithDefault
  3
ObjectDBX Classes
 90
        0
 91
        1
280
     0
281
     0
  0
CLASS
  1
MATERIAL
  2
AcDbMaterial
  3
ObjectDBX Classes
 90
     1153
 91
        3
280
     0
281
     0
  0
CLASS
  1
VISUALSTYLE
  2
AcDbVisualStyle
  3
ObjectDBX Classes
 90
     4095
 91
       24
280
     0
281
     0
  0
CLASS
  1
SCALE
  2
AcDbScale
  3
ObjectDBX Classes
 90
     1153
 91
       17
280
     0
281
     0
  0
CLASS
  1
TABLESTYLE
  2
AcDbTableStyle
  3
ObjectDBX Classes
 90
     4095
 91
        1
280
     0
281
     0
  0
CLASS
  1
MLEADERSTYLE
  2
AcDbMLeaderStyle
  3
ACDB_MLEADERSTYLE_CLASS
 90
     4095
 91
        1
280
     0
281
     0
  0
CLASS
  1
ACDBSECTIONVIEWSTYLE
  2
AcDbSectionViewStyle
  3
ObjectDBX Classes
 90
     1025
 91
        1
280
     0
281
     0
  0
CLASS
  1
ACDBDETAILVIEWSTYLE
  2
AcDbDetailViewStyle
  3
ObjectDBX Classes
 90
     1025
 91
        1
280
     0
281
     0
  0
CLASS
  1
DICTIONARYVAR
  2
AcDbDictionaryVar
  3
ObjectDBX Classes
 90
        0
 91
        5
280
     0
281
     0
  0
CLASS
  1
CELLSTYLEMAP
  2
AcDbCellStyleMap
  3
ObjectDBX Classes
 90
     1152
 91
        1
280
     0
281
     0
  0
ENDSEC
  0
SECTION
  2
TABLES
  0
TABLE
  2
VPORT
  5
8
330
0
100
AcDbSymbolTable
 70
     1
1001
ACAD
1000
DbSaveVer
1071
      205
  0
VPORT
  5
57
330
8
100
AcDbSymbolTableRecord
100
AcDbViewportTableRecord
  2
*Active
 70
     0
 10
0.0
 20
0.0
 11
1.0
 21
1.0
 12
0.0
 22
0.0
 13
0.0
 23
0.0
 14
1.0
 24
1.0
 15
0.0
 25
0.0
 16
0.0
 26
0.0
 36
1.0
 17
103.9285978300817
 27
92.1078308597378
 37
0.0
 40
257.7342959240604
 41
0.7779316764605298
 42
50.0
 43
0.0
 44
0.0
 50
0.0
 51
0.0
 71
     0
 72
   100
 73
     1
 74
     0
 75
     1
 76
     0
 77
     0
 78
     0
281
     0
 65
     1
110
0.0
120
0.0
130
0.0
111
1.0
121
0.0
131
0.0
112
0.0
122
1.0
132
0.0
 79
     0
146
0.0
 60
     3
 61
     5
292
     1
282
     1
141
0.0
142
0.0
 63
   250
421
  3355443
  0
ENDTAB
  0
TABLE
  2
LTYPE
  5
5
330
0
100
AcDbSymbolTable
 70
     6
  0
LTYPE
  5
5B
330
5
100
AcDbSymbolTableRecord
100
AcDbLinetypeTableRecord
  2
ByBlock
 70
     0
  3

 72
    65
 73
     0
 40
0.0
  0
LTYPE
  5
5C
330
5
100
AcDbSymbolTableRecord
100
AcDbLinetypeTableRecord
  2
ByLayer
 70
     0
  3

 72
    65
 73
     0
 40
0.0
  0
LTYPE
  5
5D
330
5
100
AcDbSymbolTableRecord
100
AcDbLinetypeTableRecord
  2
Continuous
 70
     0
  3
Solid line
 72
    65
 73
     0
 40
0.0
  0
LTYPE
  5
25F
330
5
100
AcDbSymbolTableRecord
100
AcDbLinetypeTableRecord
  2
AI-Linetype-0
 70
     0
  3
Adobe Illustrator Linetype No. 0
 72
    65
 73
     4
 40
10.00000002332868
 49
6.250000046121216
 74
     0
 49
-1.249999992402487
 74
     0
 49
1.249999992402487
 74
     0
 49
-1.249999992402487
 74
     0
  0
LTYPE
  5
261
330
5
100
AcDbSymbolTableRecord
100
AcDbLinetypeTableRecord
  2
AI-Linetype-1
 70
     0
  3
Adobe Illustrator Linetype No. 1
 72
    65
 73
     4
 40
10.00000002332868
 49
6.250000046121216
 74
     0
 49
-1.249999992402487
 74
     0
 49
1.249999992402487
 74
     0
 49
-1.249999992402487
 74
     0
  0
LTYPE
  5
263
330
5
100
AcDbSymbolTableRecord
100
AcDbLinetypeTableRecord
  2
AI-Linetype-2
 70
     0
  3
Adobe Illustrator Linetype No. 2
 72
    65
 73
     4
 40
10.00000002332868
 49
6.250000046121216
 74
     0
 49
-1.249999992402487
 74
     0
 49
1.249999992402487
 74
     0
 49
-1.249999992402487
 74
     0
  0
LTYPE
  5
265
330
5
100
AcDbSymbolTableRecord
100
AcDbLinetypeTableRecord
  2
AI-Linetype-3
 70
     0
  3
Adobe Illustrator Linetype No. 3
 72
    65
 73
     4
 40
10.00000002332868
 49
6.250000046121216
 74
     0
 49
-1.249999992402487
 74
     0
 49
1.249999992402487
 74
     0
 49
-1.249999992402487
 74
     0
  0
LTYPE
  5
267
330
5
100
AcDbSymbolTableRecord
100
AcDbLinetypeTableRecord
  2
AI-Linetype-4
 70
     0
  3
Adobe Illustrator Linetype No. 4
 72
    65
 73
     4
 40
10.00000002332868
 49
6.250000046121216
 74
     0
 49
-1.249999992402487
 74
     0
 49
1.249999992402487
 74
     0
 49
-1.249999992402487
 74
     0
  0
ENDTAB
  0
TABLE
  2
LAYER
  5
2
330
0
100
AcDbSymbolTable
 70
     4
  0
LAYER
  5
54
330
2
100
AcDbSymbolTableRecord
100
AcDbLayerTableRecord
  2
0
 70
     0
 62
     7
  6
Continuous
370
     0
390
F
347
21
348
0
  0
LAYER
  5
25D
330
2
100
AcDbSymbolTableRecord
100
AcDbLayerTableRecord
  2
CENTRO
 70
     0
 62
     7
  6
Continuous
370
     0
390
F
347
21
348
0
  0
LAYER
  5
268
330
2
100
AcDbSymbolTableRecord
100
AcDbLayerTableRecord
  2
LINE_025
 70
     0
 62
     7
  6
Continuous
370
     0
390
F
347
21
348
0
  0
LAYER
  5
328
330
2
100
AcDbSymbolTableRecord
100
AcDbLayerTableRecord
  2
TEXTO
 70
     0
 62
     7
  6
Continuous
370
     0
390
F
347
21
348
0
  0
ENDTAB
  0
TABLE
  2
STYLE
  5
3
330
0
100
AcDbSymbolTable
 70
     2
  0
STYLE
  5
55
330
3
100
AcDbSymbolTableRecord
100
AcDbTextStyleTableRecord
  2
Standard
 70
     0
 40
0.0
 41
1.0
 50
0.0
 71
     0
 42
0.2
  3
txt
  4

  0
STYLE
  5
5A
330
3
100
AcDbSymbolTableRecord
100
AcDbTextStyleTableRecord
  2
Annotative
 70
     0
 40
0.0
 41
1.0
 50
0.0
 71
     0
 42
0.2
  3
txt
  4

1001
AcadAnnotative
1000
AnnotativeData
1002
{
1070
     1
1070
     1
1002
}
  0
ENDTAB
  0
TABLE
  2
VIEW
  5
6
330
0
100
AcDbSymbolTable
 70
     0
  0
ENDTAB
  0
TABLE
  2
UCS
  5
7
330
0
100
AcDbSymbolTable
 70
     0
  0
ENDTAB
  0
TABLE
  2
APPID
  5
9
330
0
100
AcDbSymbolTable
 70
     2
  0
APPID
  5
56
330
9
100
AcDbSymbolTableRecord
100
AcDbRegAppTableRecord
  2
ACAD
 70
     0
  0
APPID
  5
5E
330
9
100
AcDbSymbolTableRecord
100
AcDbRegAppTableRecord
  2
AcadAnnotative
 70
     0
  0
ENDTAB
  0
TABLE
  2
DIMSTYLE
  5
A
330
0
100
AcDbSymbolTable
 70
     2
100
AcDbDimStyleTable
 71
     0
  0
DIMSTYLE
105
58
330
A
100
AcDbSymbolTableRecord
100
AcDbDimStyleTableRecord
  2
Standard
 70
     0
340
55
  0
DIMSTYLE
105
59
330
A
100
AcDbSymbolTableRecord
100
AcDbDimStyleTableRecord
  2
Annotative
 70
     0
340
55
1001
AcadAnnotative
1000
AnnotativeData
1002
{
1070
     1
1070
     1
1002
}
  0
ENDTAB
  0
TABLE
  2
BLOCK_RECORD
  5
1
330
0
100
AcDbSymbolTable
 70
     8
  0
BLOCK_RECORD
  5
70
330
1
100
AcDbSymbolTableRecord
100
AcDbBlockTableRecord
  2
*Model_Space
340
73
 70
     0
280
     1
281
     0
  0
BLOCK_RECORD
  5
6C
330
1
100
AcDbSymbolTableRecord
100
AcDbBlockTableRecord
  2
*Paper_Space
340
6F
 70
     0
280
     1
281
     0
  0
BLOCK_RECORD
  5
74
330
1
100
AcDbSymbolTableRecord
100
AcDbBlockTableRecord
  2
*Paper_Space0
340
77
 70
     0
280
     1
281
     0
  0
BLOCK_RECORD
  5
FB
330
1
100
AcDbSymbolTableRecord
100
AcDbBlockTableRecord
  2
Block_0
340
0
102
{BLKREFS
331
FC
102
}
 70
     0
280
     1
281
     0
  0
BLOCK_RECORD
  5
106
330
1
100
AcDbSymbolTableRecord
100
AcDbBlockTableRecord
  2
Block_1
340
0
102
{BLKREFS
331
107
102
}
 70
     0
280
     1
281
     0
  0
BLOCK_RECORD
  5
111
330
1
100
AcDbSymbolTableRecord
100
AcDbBlockTableRecord
  2
Block_2
340
0
102
{BLKREFS
331
112
102
}
 70
     0
280
     1
281
     0
  0
BLOCK_RECORD
  5
11F
330
1
100
AcDbSymbolTableRecord
100
AcDbBlockTableRecord
  2
Block_3
340
0
102
{BLKREFS
331
120
102
}
 70
     0
280
     1
281
     0
  0
BLOCK_RECORD
  5
12B
330
1
100
AcDbSymbolTableRecord
100
AcDbBlockTableRecord
  2
Block_4
340
0
102
{BLKREFS
331
12C
102
}
 70
     0
280
     1
281
     0
  0
BLOCK_RECORD
  5
136
330
1
100
AcDbSymbolTableRecord
100
AcDbBlockTableRecord
  2
Block_5
340
0
102
{BLKREFS
331
137
102
}
 70
     0
280
     1
281
     0
  0
BLOCK_RECORD
  5
141
330
1
100
AcDbSymbolTableRecord
100
AcDbBlockTableRecord
  2
Block_6
340
0
102
{BLKREFS
331
142
102
}
 70
     0
280
     1
281
     0
  0
ENDTAB
  0
ENDSEC
  0
SECTION
  2
BLOCKS
  0
BLOCK
  5
71
330
70
100
AcDbEntity
  8
0
100
AcDbBlockBegin
  2
*Model_Space
 70
     0
 10
0.0
 20
0.0
 30
0.0
  3
*Model_Space
  1

  0
ENDBLK
  5
72
330
70
100
AcDbEntity
  8
0
100
AcDbBlockEnd
  0
BLOCK
  5
6D
330
6C
100
AcDbEntity
 67
     1
  8
0
100
AcDbBlockBegin
  2
*Paper_Space
 70
     0
 10
0.0
 20
0.0
 30
0.0
  3
*Paper_Space
  1

  0
ENDBLK
  5
6E
330
6C
100
AcDbEntity
 67
     1
  8
0
100
AcDbBlockEnd
  0
BLOCK
  5
75
330
74
100
AcDbEntity
 67
     1
  8
0
100
AcDbBlockBegin
  2
*Paper_Space0
 70
     0
 10
0.0
 20
0.0
 30
0.0
  3
*Paper_Space0
  1

  0
ENDBLK
  5
76
330
74
100
AcDbEntity
 67
     1
  8
0
100
AcDbBlockEnd
  0
BLOCK
  5
FD
330
FB
100
AcDbEntity
  8
0
100
AcDbBlockBegin
  2
Block_0
 70
     0
 10
0.0
 20
0.0
 30
0.0
  3
Block_0
  1

  0
LINE
  5
FF
330
FB
100
AcDbEntity
  8
0
 62
   250
420
  1907995
370
    25
100
AcDbLine
 10
168.217305422332
 20
211.4837830725347
 30
0.0
 11
196.4708479568375
 21
211.4837830725347
 31
0.0
  0
LINE
  5
100
330
FB
100
AcDbEntity
  8
0
 62
   250
420
  1907995
370
    25
100
AcDbLine
 10
176.887305422332
 20
134.3358124342113
 30
0.0
 11
196.4708479568375
 21
134.3358124342113
 31
0.0
  0
LINE
  5
101
330
FB
100
AcDbEntity
  8
0
 62
   250
420
  1907995
370
    25
100
AcDbLine
 10
195.4708479568375
 20
209.4840876822219
 30
0.0
 11
195.4708479568375
 21
136.3355078245241
 31
0.0
  0
LWPOLYLINE
  5
102
330
FB
100
AcDbEntity
  8
0
 62
   250
420
  1907995
370
    35
100
AcDbPolyline
 90
        4
 70
     1
 43
0.0
 10
195.4708479568375
 20
211.4837830725347
 10
194.9708479568372
 20
209.4840876822219
 10
195.9708479568372
 20
209.4840876822219
 10
195.9708479568372
 20
209.4840876822219
  0
HATCH
  5
103
330
FB
100
AcDbEntity
  8
0
 62
     3
420
    65280
440
 33554687
100
AcDbHatch
 10
0.0
 20
0.0
 30
0.0
210
0.0
220
0.0
230
1.0
  2
SOLID
 70
     1
 71
     1
 91
        1
 92
        1
 93
        3
 72
     1
 10
195.4708479568375
 20
211.4837830725347
 11
194.9708479568372
 21
209.4840876822219
 72
     1
 10
194.9708479568372
 20
209.4840876822219
 11
195.9708479568372
 21
209.4840876822219
 72
     1
 10
195.9708479568372
 20
209.4840876822219
 11
195.4708479568375
 21
211.4837830725347
 97
        1
330
102
 75
     2
 76
     1
 98
        1
 10
0.0
 20
0.0
450
        0
451
        0
460
0.0
461
0.0
452
        0
462
0.0
453
        0
470

  0
LWPOLYLINE
  5
104
330
FB
100
AcDbEntity
  8
0
 62
   250
420
  1907995
370
    35
100
AcDbPolyline
 90
        4
 70
     1
 43
0.0
 10
195.4708479568375
 20
134.3358124342113
 10
195.9708479568372
 20
136.3355078245241
 10
194.9708479568372
 20
136.3355078245241
 10
194.9708479568372
 20
136.3355078245241
  0
HATCH
  5
105
330
FB
100
AcDbEntity
  8
0
 62
     3
420
    65280
440
 33554687
100
AcDbHatch
 10
0.0
 20
0.0
 30
0.0
210
0.0
220
0.0
230
1.0
  2
SOLID
 70
     1
 71
     1
 91
        1
 92
        1
 93
        3
 72
     1
 10
195.4708479568375
 20
134.3358124342113
 11
195.9708479568372
 21
136.3355078245241
 72
     1
 10
195.9708479568372
 20
136.3355078245241
 11
194.9708479568372
 21
136.3355078245241
 72
     1
 10
194.9708479568372
 20
136.3355078245241
 11
195.4708479568375
 21
134.3358124342113
 97
        1
330
104
 75
     2
 76
     1
 98
        1
 10
0.0
 20
0.0
450
        0
451
        0
460
0.0
461
0.0
452
        0
462
0.0
453
        0
470

  0
ENDBLK
  5
FE
330
FB
100
AcDbEntity
  8
0
100
AcDbBlockEnd
  0
BLOCK
  5
108
330
106
100
AcDbEntity
  8
0
100
AcDbBlockBegin
  2
Block_1
 70
     0
 10
0.0
 20
0.0
 30
0.0
  3
Block_1
  1

  0
LINE
  5
10A
330
106
100
AcDbEntity
  8
0
 62
   250
420
  1907995
370
    25
100
AcDbLine
 10
138.8873054223319
 20
133.3359647390552
 30
0.0
 11
138.8873054223319
 21
108.779772626785
 31
0.0
  0
LINE
  5
10B
330
106
100
AcDbEntity
  8
0
 62
   250
420
  1907995
370
    25
100
AcDbLine
 10
172.8873054223318
 20
133.3359647390552
 30
0.0
 11
172.8873054223318
 21
108.779772626785
 31
0.0
  0
LINE
  5
10C
330
106
100
AcDbEntity
  8
0
 62
   250
420
  1907995
370
    25
100
AcDbLine
 10
140.8873054223319
 20
109.7796203219418
 30
0.0
 11
170.8873054223317
 21
109.7796203219418
 31
0.0
  0
LWPOLYLINE
  5
10D
330
106
100
AcDbEntity
  8
0
 62
   250
420
  1907995
370
    35
100
AcDbPolyline
 90
        4
 70
     1
 43
0.0
 10
138.8873054223319
 20
109.7796203219418
 10
140.8873054223319
 20
109.2796964743634
 10
140.8873054223319
 20
110.2795441695201
 10
140.8873054223319
 20
110.2795441695201
  0
HATCH
  5
10E
330
106
100
AcDbEntity
  8
0
 62
     3
420
    65280
440
 33554687
100
AcDbHatch
 10
0.0
 20
0.0
 30
0.0
210
0.0
220
0.0
230
1.0
  2
SOLID
 70
     1
 71
     1
 91
        1
 92
        1
 93
        3
 72
     1
 10
138.8873054223319
 20
109.7796203219418
 11
140.8873054223319
 21
109.2796964743634
 72
     1
 10
140.8873054223319
 20
109.2796964743634
 11
140.8873054223319
 21
110.2795441695201
 72
     1
 10
140.8873054223319
 20
110.2795441695201
 11
138.8873054223319
 21
109.7796203219418
 97
        1
330
10D
 75
     2
 76
     1
 98
        1
 10
0.0
 20
0.0
450
        0
451
        0
460
0.0
461
0.0
452
        0
462
0.0
453
        0
470

  0
LWPOLYLINE
  5
10F
330
106
100
AcDbEntity
  8
0
 62
   250
420
  1907995
370
    35
100
AcDbPolyline
 90
        4
 70
     1
 43
0.0
 10
172.8873054223318
 20
109.7796203219418
 10
170.8873054223317
 20
110.2795441695201
 10
170.8873054223317
 20
109.2796964743634
 10
170.8873054223317
 20
109.2796964743634
  0
HATCH
  5
110
330
106
100
AcDbEntity
  8
0
 62
     3
420
    65280
440
 33554687
100
AcDbHatch
 10
0.0
 20
0.0
 30
0.0
210
0.0
220
0.0
230
1.0
  2
SOLID
 70
     1
 71
     1
 91
        1
 92
        1
 93
        3
 72
     1
 10
172.8873054223318
 20
109.7796203219418
 11
170.8873054223317
 21
110.2795441695201
 72
     1
 10
170.8873054223317
 20
110.2795441695201
 11
170.8873054223317
 21
109.2796964743634
 72
     1
 10
170.8873054223317
 20
109.2796964743634
 11
172.8873054223318
 21
109.7796203219418
 97
        1
330
10F
 75
     2
 76
     1
 98
        1
 10
0.0
 20
0.0
450
        0
451
        0
460
0.0
461
0.0
452
        0
462
0.0
453
        0
470

  0
ENDBLK
  5
109
330
106
100
AcDbEntity
  8
0
100
AcDbBlockEnd
  0
BLOCK
  5
113
330
111
100
AcDbEntity
  8
0
100
AcDbBlockBegin
  2
Block_2
 70
     0
 10
0.0
 20
0.0
 30
0.0
  3
Block_2
  1

  0
LINE
  5
115
330
111
100
AcDbEntity
  8
0
 62
   250
420
  1907995
370
    25
100
AcDbLine
 10
135.8873054223318
 20
133.3359647390552
 30
0.0
 11
135.8873054223318
 21
96.78564898527165
 31
0.0
  0
LINE
  5
116
330
111
100
AcDbEntity
  8
0
 62
   250
420
  1907995
370
    25
100
AcDbLine
 10
175.8873054223319
 20
133.3359647390552
 30
0.0
 11
175.8873054223319
 21
96.78564898527165
 31
0.0
  0
LINE
  5
117
330
111
100
AcDbEntity
  8
0
 62
   250
420
  1907995
370
    25
100
AcDbLine
 10
137.8873054223318
 20
97.78549668042836
 30
0.0
 11
173.8873054223318
 21
97.78549668042836
 31
0.0
  0
LWPOLYLINE
  5
118
330
111
100
AcDbEntity
  8
0
 62
   250
420
  1907995
370
    35
100
AcDbPolyline
 90
        4
 70
     1
 43
0.0
 10
135.8873054223318
 20
97.78549668042836
 10
137.8873054223318
 20
97.28557283285001
 10
137.8873054223318
 20
98.2854205280061
 10
137.8873054223318
 20
98.2854205280061
  0
HATCH
  5
119
330
111
100
AcDbEntity
  8
0
 62
     3
420
    65280
440
 33554687
100
AcDbHatch
 10
0.0
 20
0.0
 30
0.0
210
0.0
220
0.0
230
1.0
  2
SOLID
 70
     1
 71
     1
 91
        1
 92
        1
 93
        3
 72
     1
 10
135.8873054223318
 20
97.78549668042836
 11
137.8873054223318
 21
97.28557283285001
 72
     1
 10
137.8873054223318
 20
97.28557283285001
 11
137.8873054223318
 21
98.2854205280061
 72
     1
 10
137.8873054223318
 20
98.2854205280061
 11
135.8873054223318
 21
97.78549668042836
 97
        1
330
118
 75
     2
 76
     1
 98
        1
 10
0.0
 20
0.0
450
        0
451
        0
460
0.0
461
0.0
452
        0
462
0.0
453
        0
470

  0
LWPOLYLINE
  5
11A
330
111
100
AcDbEntity
  8
0
 62
   250
420
  1907995
370
    35
100
AcDbPolyline
 90
        4
 70
     1
 43
0.0
 10
175.8873054223319
 20
97.78549668042836
 10
173.8873054223318
 20
98.2854205280061
 10
173.8873054223318
 20
97.28557283285001
 10
173.8873054223318
 20
97.28557283285001
  0
HATCH
  5
11B
330
111
100
AcDbEntity
  8
0
 62
     3
420
    65280
440
 33554687
100
AcDbHatch
 10
0.0
 20
0.0
 30
0.0
210
0.0
220
0.0
230
1.0
  2
SOLID
 70
     1
 71
     1
 91
        1
 92
        1
 93
        3
 72
     1
 10
175.8873054223319
 20
97.78549668042836
 11
173.8873054223318
 21
98.2854205280061
 72
     1
 10
173.8873054223318
 20
98.2854205280061
 11
173.8873054223318
 21
97.28557283285001
 72
     1
 10
173.8873054223318
 20
97.28557283285001
 11
175.8873054223319
 21
97.78549668042836
 97
        1
330
11A
 75
     2
 76
     1
 98
        1
 10
0.0
 20
0.0
450
        0
451
        0
460
0.0
461
0.0
452
        0
462
0.0
453
        0
470

  0
MTEXT
  5
11C
330
111
100
AcDbEntity
  8
0
100
AcDbMText
 10
154.0670816672124
 20
100.2988001943551
 30
0.0
 40
0.2
 41
0.0
 46
0.0
 71
     7
 72
     1
  1
\C18;\c0;\FNetto Pro|b0|i0|c1;\H4.495800;\W1.000000;B
 73
     1
 44
1.0
  0
MTEXT
  5
11D
330
111
100
AcDbEntity
  8
0
100
AcDbMText
 10
157.1897289995769
 20
88.71381174359829
 30
0.0
 40
0.2
 41
0.0
 46
0.0
 71
     7
 72
     1
  1
\C18;\c0;\FNetto Pro|b0|i0|c1;\H4.495800;\W1.000000;G
 73
     1
 44
1.0
  0
MTEXT
  5
11E
330
111
100
AcDbEntity
  8
0
100
AcDbMText
 10
193.3153945810231
 20
173.9650107838829
 30
0.0
 40
0.2
 41
0.0
 46
0.0
 71
     7
 72
     1
  1
\C18;\c0;\FNetto Pro|b0|i0|c1;\H4.495800;\W1.000000;C
 11
-0.0431185762842111
 21
0.9990699617039952
 31
0.0
 73
     1
 44
1.0
  0
ENDBLK
  5
114
330
111
100
AcDbEntity
  8
0
100
AcDbBlockEnd
  0
BLOCK
  5
121
330
11F
100
AcDbEntity
  8
0
100
AcDbBlockBegin
  2
Block_3
 70
     0
 10
0.0
 20
0.0
 30
0.0
  3
Block_3
  1

  0
LINE
  5
123
330
11F
100
AcDbEntity
  8
0
 62
   250
420
  1907995
370
    25
100
AcDbLine
 10
13.78470754615412
 20
153.5028927503595
 30
0.0
 11
13.78470754615412
 21
85.86218237368678
 31
0.0
  0
LINE
  5
124
330
11F
100
AcDbEntity
  8
0
 62
   250
420
  1907995
370
    25
100
AcDbLine
 10
109.7847075461543
 20
153.5028927503592
 30
0.0
 11
109.7847075461543
 21
85.86218237368678
 31
0.0
  0
LINE
  5
125
330
11F
100
AcDbEntity
  8
0
 62
   250
420
  1907995
370
    25
100
AcDbLine
 10
15.78470754615419
 20
86.86203006884351
 30
0.0
 11
107.7847075461542
 21
86.86203006884351
 31
0.0
  0
LWPOLYLINE
  5
126
330
11F
100
AcDbEntity
  8
0
 62
   250
420
  1907995
370
    35
100
AcDbPolyline
 90
        4
 70
     1
 43
0.0
 10
13.78470754615412
 20
86.86203006884351
 10
15.78470754615419
 20
86.36210622126514
 10
15.78470754615419
 20
87.36195391642187
 10
15.78470754615419
 20
87.36195391642187
  0
HATCH
  5
127
330
11F
100
AcDbEntity
  8
0
 62
     3
420
    65280
440
 33554687
100
AcDbHatch
 10
0.0
 20
0.0
 30
0.0
210
0.0
220
0.0
230
1.0
  2
SOLID
 70
     1
 71
     1
 91
        1
 92
        1
 93
        3
 72
     1
 10
13.78470754615412
 20
86.86203006884351
 11
15.78470754615419
 21
86.36210622126514
 72
     1
 10
15.78470754615419
 20
86.36210622126514
 11
15.78470754615419
 21
87.36195391642187
 72
     1
 10
15.78470754615419
 20
87.36195391642187
 11
13.78470754615412
 21
86.86203006884351
 97
        1
330
126
 75
     2
 76
     1
 98
        1
 10
0.0
 20
0.0
450
        0
451
        0
460
0.0
461
0.0
452
        0
462
0.0
453
        0
470

  0
LWPOLYLINE
  5
128
330
11F
100
AcDbEntity
  8
0
 62
   250
420
  1907995
370
    35
100
AcDbPolyline
 90
        4
 70
     1
 43
0.0
 10
109.7847075461543
 20
86.86203006884351
 10
107.7847075461542
 20
87.36195391642187
 10
107.7847075461542
 20
86.36210622126514
 10
107.7847075461542
 20
86.36210622126514
  0
HATCH
  5
129
330
11F
100
AcDbEntity
  8
0
 62
     3
420
    65280
440
 33554687
100
AcDbHatch
 10
0.0
 20
0.0
 30
0.0
210
0.0
220
0.0
230
1.0
  2
SOLID
 70
     1
 71
     1
 91
        1
 92
        1
 93
        3
 72
     1
 10
109.7847075461543
 20
86.86203006884351
 11
107.7847075461542
 21
87.36195391642187
 72
     1
 10
107.7847075461542
 20
87.36195391642187
 11
107.7847075461542
 21
86.36210622126514
 72
     1
 10
107.7847075461542
 20
86.36210622126514
 11
109.7847075461543
 21
86.86203006884351
 97
        1
330
128
 75
     2
 76
     1
 98
        1
 10
0.0
 20
0.0
450
        0
451
        0
460
0.0
461
0.0
452
        0
462
0.0
453
        0
470

  0
MTEXT
  5
12A
330
11F
100
AcDbEntity
  8
0
100
AcDbMText
 10
59.55407693884048
 20
88.79544772206468
 30
0.0
 40
0.2
 41
0.0
 46
0.0
 71
     7
 72
     1
  1
\C18;\c0;\FNetto Pro|b0|i0|c1;\H4.495800;\W1.000000;A
 73
     1
 44
1.0
  0
ENDBLK
  5
122
330
11F
100
AcDbEntity
  8
0
100
AcDbBlockEnd
  0
BLOCK
  5
12D
330
12B
100
AcDbEntity
  8
0
100
AcDbBlockBegin
  2
Block_4
 70
     0
 10
0.0
 20
0.0
 30
0.0
  3
Block_4
  1

  0
LINE
  5
12F
330
12B
100
AcDbEntity
  8
0
 62
   250
420
  1907995
370
    25
100
AcDbLine
 10
24.78470754615419
 20
133.3359647390552
 30
0.0
 11
24.78470754615419
 21
96.21086995434428
 31
0.0
  0
LINE
  5
130
330
12B
100
AcDbEntity
  8
0
 62
   250
420
  1907995
370
    25
100
AcDbLine
 10
98.78470754615392
 20
133.3359647390546
 30
0.0
 11
98.78470754615392
 21
96.21086995434428
 31
0.0
  0
LINE
  5
131
330
12B
100
AcDbEntity
  8
0
 62
   250
420
  1907995
370
    25
100
AcDbLine
 10
26.78470754615426
 20
97.21071764950035
 30
0.0
 11
96.78470754615384
 21
97.21071764950035
 31
0.0
  0
LWPOLYLINE
  5
132
330
12B
100
AcDbEntity
  8
0
 62
   250
420
  1907995
370
    35
100
AcDbPolyline
 90
        4
 70
     1
 43
0.0
 10
24.78470754615419
 20
97.21071764950035
 10
26.78470754615426
 20
96.710793801922
 10
26.78470754615426
 20
97.71064149707873
 10
26.78470754615426
 20
97.71064149707873
  0
HATCH
  5
133
330
12B
100
AcDbEntity
  8
0
 62
     3
420
    65280
440
 33554687
100
AcDbHatch
 10
0.0
 20
0.0
 30
0.0
210
0.0
220
0.0
230
1.0
  2
SOLID
 70
     1
 71
     1
 91
        1
 92
        1
 93
        3
 72
     1
 10
24.78470754615419
 20
97.21071764950035
 11
26.78470754615426
 21
96.710793801922
 72
     1
 10
26.78470754615426
 20
96.710793801922
 11
26.78470754615426
 21
97.71064149707873
 72
     1
 10
26.78470754615426
 20
97.71064149707873
 11
24.78470754615419
 21
97.21071764950035
 97
        1
330
132
 75
     2
 76
     1
 98
        1
 10
0.0
 20
0.0
450
        0
451
        0
460
0.0
461
0.0
452
        0
462
0.0
453
        0
470

  0
LWPOLYLINE
  5
134
330
12B
100
AcDbEntity
  8
0
 62
   250
420
  1907995
370
    35
100
AcDbPolyline
 90
        4
 70
     1
 43
0.0
 10
98.78470754615392
 20
97.21071764950035
 10
96.78470754615384
 20
97.71064149707873
 10
96.78470754615384
 20
96.710793801922
 10
96.78470754615384
 20
96.710793801922
  0
HATCH
  5
135
330
12B
100
AcDbEntity
  8
0
 62
     3
420
    65280
440
 33554687
100
AcDbHatch
 10
0.0
 20
0.0
 30
0.0
210
0.0
220
0.0
230
1.0
  2
SOLID
 70
     1
 71
     1
 91
        1
 92
        1
 93
        3
 72
     1
 10
98.78470754615392
 20
97.21071764950035
 11
96.78470754615384
 21
97.71064149707873
 72
     1
 10
96.78470754615384
 20
97.71064149707873
 11
96.78470754615384
 21
96.710793801922
 72
     1
 10
96.78470754615384
 20
96.710793801922
 11
98.78470754615392
 21
97.21071764950035
 97
        1
330
134
 75
     2
 76
     1
 98
        1
 10
0.0
 20
0.0
450
        0
451
        0
460
0.0
461
0.0
452
        0
462
0.0
453
        0
470

  0
ENDBLK
  5
12E
330
12B
100
AcDbEntity
  8
0
100
AcDbBlockEnd
  0
BLOCK
  5
138
330
136
100
AcDbEntity
  8
0
100
AcDbBlockBegin
  2
Block_5
 70
     0
 10
0.0
 20
0.0
 30
0.0
  3
Block_5
  1

  0
LINE
  5
13A
330
136
100
AcDbEntity
  8
0
 62
   250
420
  1907995
370
    25
100
AcDbLine
 10
135.8873054223318
 20
133.3359647390552
 30
0.0
 11
135.8873054223318
 21
86.03716507961525
 31
0.0
  0
LINE
  5
13B
330
136
100
AcDbEntity
  8
0
 62
   250
420
  1907995
370
    25
100
AcDbLine
 10
180.4211518345084
 20
151.5031973600467
 30
0.0
 11
180.4211518345084
 21
86.03716507961525
 31
0.0
  0
LINE
  5
13C
330
136
100
AcDbEntity
  8
0
 62
   250
420
  1907995
370
    25
100
AcDbLine
 10
137.8873054223318
 20
87.03701277477133
 30
0.0
 11
178.4211518345084
 21
87.03701277477133
 31
0.0
  0
LWPOLYLINE
  5
13D
330
136
100
AcDbEntity
  8
0
 62
   250
420
  1907995
370
    35
100
AcDbPolyline
 90
        4
 70
     1
 43
0.0
 10
135.8873054223318
 20
87.03701277477133
 10
137.8873054223318
 20
86.53708892719361
 10
137.8873054223318
 20
87.53693662234969
 10
137.8873054223318
 20
87.53693662234969
  0
HATCH
  5
13E
330
136
100
AcDbEntity
  8
0
 62
     3
420
    65280
440
 33554687
100
AcDbHatch
 10
0.0
 20
0.0
 30
0.0
210
0.0
220
0.0
230
1.0
  2
SOLID
 70
     1
 71
     1
 91
        1
 92
        1
 93
        3
 72
     1
 10
135.8873054223318
 20
87.03701277477133
 11
137.8873054223318
 21
86.53708892719361
 72
     1
 10
137.8873054223318
 20
86.53708892719361
 11
137.8873054223318
 21
87.53693662234969
 72
     1
 10
137.8873054223318
 20
87.53693662234969
 11
135.8873054223318
 21
87.03701277477133
 97
        1
330
13D
 75
     2
 76
     1
 98
        1
 10
0.0
 20
0.0
450
        0
451
        0
460
0.0
461
0.0
452
        0
462
0.0
453
        0
470

  0
LWPOLYLINE
  5
13F
330
136
100
AcDbEntity
  8
0
 62
   250
420
  1907995
370
    35
100
AcDbPolyline
 90
        4
 70
     1
 43
0.0
 10
180.4211518345084
 20
87.03701277477133
 10
178.4211518345084
 20
87.53693662234969
 10
178.4211518345084
 20
86.53708892719361
 10
178.4211518345084
 20
86.53708892719361
  0
HATCH
  5
140
330
136
100
AcDbEntity
  8
0
 62
     3
420
    65280
440
 33554687
100
AcDbHatch
 10
0.0
 20
0.0
 30
0.0
210
0.0
220
0.0
230
1.0
  2
SOLID
 70
     1
 71
     1
 91
        1
 92
        1
 93
        3
 72
     1
 10
180.4211518345084
 20
87.03701277477133
 11
178.4211518345084
 21
87.53693662234969
 72
     1
 10
178.4211518345084
 20
87.53693662234969
 11
178.4211518345084
 21
86.53708892719361
 72
     1
 10
178.4211518345084
 20
86.53708892719361
 11
180.4211518345084
 21
87.03701277477133
 97
        1
330
13F
 75
     2
 76
     1
 98
        1
 10
0.0
 20
0.0
450
        0
451
        0
460
0.0
461
0.0
452
        0
462
0.0
453
        0
470

  0
ENDBLK
  5
139
330
136
100
AcDbEntity
  8
0
100
AcDbBlockEnd
  0
BLOCK
  5
143
330
141
100
AcDbEntity
  8
0
100
AcDbBlockBegin
  2
Block_6
 70
     0
 10
0.0
 20
0.0
 30
0.0
  3
Block_6
  1

  0
LWPOLYLINE
  5
145
330
141
100
AcDbEntity
  8
0
 62
   250
420
  1907995
370
    25
100
AcDbPolyline
 90
        3
 70
     0
 43
0.0
 10
172.8873056463688
 20
135.8355841957754
 10
180.7572000064692
 20
147.1175143499236
 10
186.6639130998314
 20
147.1083049084555
  0
ENDBLK
  5
144
330
141
100
AcDbEntity
  8
0
100
AcDbBlockEnd
  0
ENDSEC
  0
SECTION
  2
ENTITIES
  0
LINE
  5
78
330
70
100
AcDbEntity
  8
0
 62
   250
420
  1907995
370
    25
100
AcDbLine
 10
21.78470754615408
 20
211.3240849612536
 30
0.0
 11
21.78470754615408
 21
191.1571569499489
 31
0.0
  0
LINE
  5
79
330
70
100
AcDbEntity
  8
0
 62
   250
420
  1907995
370
    25
100
AcDbLine
 10
101.7847075461543
 20
211.3240849612536
 30
0.0
 11
101.7847075461543
 21
191.1571569499489
 31
0.0
  0
LINE
  5
7A
330
70
100
AcDbEntity
  8
0
 62
   250
420
  1907995
370
    25
100
AcDbLine
 10
21.78470754615408
 20
211.3240849612536
 30
0.0
 11
101.7847075461543
 21
211.3240849612536
 31
0.0
  0
LINE
  5
7B
330
70
100
AcDbEntity
  8
0
 62
    18
420
        0
370
    25
100
AcDbLine
 10
166.7173054223323
 20
134.3358124342113
 30
0.0
 11
175.8873054223319
 21
134.3358124342113
 31
0.0
  0
LINE
  5
7C
330
70
100
AcDbEntity
  8
0
 62
    18
420
        0
370
    25
100
AcDbLine
 10
76.61470754615419
 20
191.1571569499493
 30
0.0
 11
76.61470754615419
 21
154.5027404455159
 31
0.0
  0
LINE
  5
7D
330
70
100
AcDbEntity
  8
0
 62
    18
420
        0
370
    25
100
AcDbLine
 10
46.95470754615423
 20
191.1571569499493
 30
0.0
 11
46.95470754615423
 21
154.5027404455159
 31
0.0
  0
LINE
  5
7E
330
70
100
AcDbEntity
  8
0
 62
    18
420
        0
370
    25
100
AcDbLine
 10
80.28470754615423
 20
191.1571569499489
 30
0.0
 11
80.28470754615423
 21
154.5027404455159
 31
0.0
  0
LINE
  5
7F
330
70
100
AcDbEntity
  8
0
 62
    18
420
        0
370
    25
100
AcDbLine
 10
43.2847075461542
 20
191.1571569499493
 30
0.0
 11
43.2847075461542
 21
154.5027404455159
 31
0.0
  0
LINE
  5
80
330
70
100
AcDbEntity
  8
0
 62
    18
420
        0
370
    25
100
AcDbLine
 10
173.552305422332
 20
191.1571569499489
 30
0.0
 11
138.2223054223323
 21
191.1571569499489
 31
0.0
  0
LINE
  5
81
330
70
100
AcDbEntity
  8
0
 62
    18
420
        0
370
    25
100
AcDbLine
 10
173.552305422332
 20
154.5027404455156
 30
0.0
 11
138.2223054223323
 21
154.5027404455156
 31
0.0
  0
LINE
  5
82
330
70
100
AcDbEntity
  8
0
 62
    18
420
        0
370
    25
100
AcDbLine
 10
109.7847075461543
 20
191.1571569499489
 30
0.0
 11
109.7847075461543
 21
154.5027404455156
 31
0.0
  0
LINE
  5
83
330
70
100
AcDbEntity
  8
0
 62
    18
420
        0
370
    25
100
AcDbLine
 10
13.78470754615412
 20
191.1571569499489
 30
0.0
 11
13.78470754615412
 21
154.5027404455159
 31
0.0
  0
LINE
  5
84
330
70
100
AcDbEntity
  8
0
 62
    18
420
        0
370
    25
100
AcDbLine
 10
43.2847075461542
 20
154.5027404455159
 30
0.0
 11
13.78470754615412
 21
154.5027404455156
 31
0.0
  0
LINE
  5
85
330
70
100
AcDbEntity
  8
0
 62
    18
420
        0
370
    25
100
AcDbLine
 10
43.2847075461542
 20
191.1571569499493
 30
0.0
 11
13.78470754615412
 21
191.1571569499489
 31
0.0
  0
LINE
  5
86
330
70
100
AcDbEntity
  8
0
 62
    18
420
        0
370
    25
100
AcDbLine
 10
76.61470754615419
 20
191.1571569499493
 30
0.0
 11
46.95470754615423
 21
191.1571569499493
 31
0.0
  0
LINE
  5
87
330
70
100
AcDbEntity
  8
0
 62
    18
420
        0
370
    25
100
AcDbLine
 10
76.61470754615419
 20
154.5027404455159
 30
0.0
 11
46.95470754615423
 21
154.5027404455159
 31
0.0
  0
LINE
  5
88
330
70
100
AcDbEntity
  8
0
 62
    18
420
        0
370
    25
100
AcDbLine
 10
21.78470754615408
 20
154.5027404455159
 30
0.0
 11
21.78470754615441
 21
134.3358124342113
 31
0.0
  0
LINE
  5
89
330
70
100
AcDbEntity
  8
0
 62
    18
420
        0
370
    25
100
AcDbLine
 10
101.7847075461543
 20
154.5027404455156
 30
0.0
 11
101.7847075461543
 21
134.3358124342113
 31
0.0
  0
LINE
  5
8A
330
70
100
AcDbEntity
  8
0
 62
   250
420
  1907995
370
    25
100
AcDbLine
 10
69.17786632998802
 20
198.1560908160438
 30
0.0
 11
69.17786632998802
 21
191.1571569499493
 31
0.0
  0
LINE
  5
8B
330
70
100
AcDbEntity
  8
0
 62
   250
420
  1907995
370
    25
100
AcDbLine
 10
55.83786632998807
 20
198.1560908160438
 30
0.0
 11
55.83786632998807
 21
191.1571569499493
 31
0.0
  0
LINE
  5
8C
330
70
100
AcDbEntity
  8
0
 62
   250
420
  1907995
370
    25
100
AcDbLine
 10
88.44970754615408
 20
198.1560908160438
 30
0.0
 11
88.44970754615408
 21
191.1571569499493
 31
0.0
  0
LINE
  5
8D
330
70
100
AcDbEntity
  8
0
 62
   250
420
  1907995
370
    25
100
AcDbLine
 10
35.06460043448397
 20
198.1560908160438
 30
0.0
 11
35.06460043448397
 21
191.1571569499493
 31
0.0
  0
LINE
  5
8E
330
70
100
AcDbEntity
  8
0
 62
   250
420
  1907995
370
    25
100
AcDbLine
 10
164.2173054223319
 20
196.6270539640135
 30
0.0
 11
147.5573054223318
 21
196.6270539640135
 31
0.0
  0
LINE
  5
8F
330
70
100
AcDbEntity
  8
0
 62
   250
420
  1907995
370
    25
100
AcDbLine
 10
164.2173054223319
 20
149.8051421369168
 30
0.0
 11
147.5573054223318
 21
149.8051421369168
 31
0.0
  0
LINE
  5
90
330
70
100
AcDbEntity
  8
0
 62
    18
420
        0
370
    25
100
AcDbLine
 10
21.78470754615441
 20
135.8355839769458
 30
0.0
 11
101.7847075461543
 21
135.8355839769458
 31
0.0
  0
LINE
  5
91
330
70
100
AcDbEntity
  8
0
 62
   250
420
  1907995
370
    25
100
AcDbLine
 10
167.217305422332
 20
147.5038065794214
 30
0.0
 11
165.7173054223323
 21
147.5038065794214
 31
0.0
  0
LINE
  5
92
330
70
100
AcDbEntity
  8
0
 62
    18
420
        0
370
    25
100
AcDbLine
 10
69.17786632998802
 20
147.5038065794214
 30
0.0
 11
55.83786632998807
 21
147.5038065794214
 31
0.0
  0
LINE
  5
93
330
70
100
AcDbEntity
  8
0
 62
    18
420
        0
370
    25
100
AcDbLine
 10
35.06460043448397
 20
154.5027404455159
 30
0.0
 11
35.06460043448397
 21
147.5038065794214
 31
0.0
  0
LINE
  5
94
330
70
100
AcDbEntity
  8
0
 62
    18
420
        0
370
    25
100
AcDbLine
 10
55.83786632998807
 20
154.5027404455159
 30
0.0
 11
55.83786632998807
 21
147.5038065794214
 31
0.0
  0
LINE
  5
95
330
70
100
AcDbEntity
  8
0
 62
    18
420
        0
370
    25
100
AcDbLine
 10
69.17786632998802
 20
154.5027404455159
 30
0.0
 11
69.17786632998802
 21
147.5038065794214
 31
0.0
  0
LINE
  5
96
330
70
100
AcDbEntity
  8
0
 62
    18
420
        0
370
    25
100
AcDbLine
 10
88.44970754615408
 20
154.5027404455159
 30
0.0
 11
88.44970754615408
 21
147.5038065794214
 31
0.0
  0
LINE
  5
97
330
70
100
AcDbEntity
  8
0
 62
    18
420
        0
370
    25
100
AcDbLine
 10
173.552305422332
 20
191.1571569499489
 30
0.0
 11
173.552305422332
 21
154.5027404455156
 31
0.0
  0
LINE
  5
98
330
70
100
AcDbEntity
  8
0
 62
    18
420
        0
370
    25
100
AcDbLine
 10
138.2223054223323
 20
191.1571569499489
 30
0.0
 11
138.2223054223323
 21
154.5027404455156
 31
0.0
  0
LINE
  5
99
330
70
100
AcDbEntity
  8
0
 62
   250
420
  1907995
370
    25
100
AcDbLine
 10
164.2173054223319
 20
211.4837830725347
 30
0.0
 11
164.2173054223319
 21
191.1571569499489
 31
0.0
  0
LINE
  5
9A
330
70
100
AcDbEntity
  8
0
 62
   250
420
  1907995
370
    25
100
AcDbLine
 10
147.5573054223318
 20
211.4837830725347
 30
0.0
 11
147.5573054223318
 21
191.1571569499489
 31
0.0
  0
LINE
  5
9B
330
70
100
AcDbEntity
  8
0
 62
   250
420
  1907995
370
    25
100
AcDbLine
 10
165.7173054223323
 20
211.4837830725347
 30
0.0
 11
165.7173054223323
 21
191.1571569499489
 31
0.0
  0
LINE
  5
9C
330
70
100
AcDbEntity
  8
0
 62
   250
420
  1907995
370
    25
100
AcDbLine
 10
146.057305422332
 20
211.4837830725347
 30
0.0
 11
146.057305422332
 21
191.1571569499489
 31
0.0
  0
LINE
  5
9D
330
70
100
AcDbEntity
  8
0
 62
   250
420
  1907995
370
    25
100
AcDbLine
 10
167.217305422332
 20
211.4837830725347
 30
0.0
 11
167.217305422332
 21
198.1560908160438
 31
0.0
  0
LINE
  5
9E
330
70
100
AcDbEntity
  8
0
 62
   250
420
  1907995
370
    25
100
AcDbLine
 10
167.217305422332
 20
211.4837830725347
 30
0.0
 11
144.5573054223323
 21
211.4837830725347
 31
0.0
  0
LINE
  5
9F
330
70
100
AcDbEntity
  8
0
 62
    18
420
        0
370
    25
100
AcDbLine
 10
175.8873054223319
 20
135.8355839769464
 30
0.0
 11
167.7173054223317
 21
135.8355839769464
 31
0.0
  0
LINE
  5
A0
330
70
100
AcDbEntity
  8
0
 62
    18
420
        0
370
    25
100
AcDbLine
 10
175.8873054223319
 20
135.8355839769464
 30
0.0
 11
175.8873054223319
 21
134.3358124342113
 31
0.0
  0
LINE
  5
A1
330
70
100
AcDbEntity
  8
0
 62
    18
420
        0
370
    25
100
AcDbLine
 10
135.8873054223318
 20
135.8355839769464
 30
0.0
 11
135.8873054223318
 21
134.3358124342113
 31
0.0
  0
LINE
  5
A2
330
70
100
AcDbEntity
  8
0
 62
    18
420
        0
370
    25
100
AcDbLine
 10
144.0573054223319
 20
135.8355839769464
 30
0.0
 11
135.8873054223318
 21
135.8355839769464
 31
0.0
  0
LINE
  5
A3
330
70
100
AcDbEntity
  8
0
 62
    18
420
        0
370
    25
100
AcDbLine
 10
165.7173054223323
 20
136.2500760952297
 30
0.0
 11
146.057305422332
 21
136.2500760952297
 31
0.0
  0
SPLINE
  5
A4
330
70
100
AcDbEntity
  8
0
 62
    18
420
        0
370
    25
100
AcDbSpline
210
0.0
220
0.0
230
1.0
 70
     8
 71
     3
 72
     8
 73
     4
 74
     0
 42
0.0000000001
 43
0.0000000001
 40
0.0
 40
0.0
 40
0.0
 40
0.0
 40
1.0
 40
1.0
 40
1.0
 40
1.0
 10
145.057305422332
 20
134.3358124342113
 30
0.0
 10
145.6095901721629
 20
134.3358124342113
 30
0.0
 10
146.057305422332
 20
134.7834594951791
 30
0.0
 10
146.057305422332
 20
135.3356601293681
 30
0.0
  0
SPLINE
  5
A5
330
70
100
AcDbEntity
  8
0
 62
    18
420
        0
370
    25
100
AcDbSpline
210
0.0
220
0.0
230
1.0
 70
     8
 71
     3
 72
     8
 73
     4
 74
     0
 42
0.0000000001
 43
0.0000000001
 40
0.0
 40
0.0
 40
0.0
 40
0.0
 40
1.0
 40
1.0
 40
1.0
 40
1.0
 10
144.0573054223319
 20
135.8355839769464
 30
0.0
 10
144.3334477972471
 20
135.8355839769464
 30
0.0
 10
144.5573054223323
 20
136.0594075074303
 30
0.0
 10
144.5573054223323
 20
136.3355078245241
 30
0.0
  0
SPLINE
  5
A6
330
70
100
AcDbEntity
  8
0
 62
    18
420
        0
370
    25
100
AcDbSpline
210
0.0
220
0.0
230
1.0
 70
     8
 71
     3
 72
     8
 73
     4
 74
     0
 42
0.0000000001
 43
0.0000000001
 40
0.0
 40
0.0
 40
0.0
 40
0.0
 40
1.0
 40
1.0
 40
1.0
 40
1.0
 10
167.217305422332
 20
136.3355078245241
 30
0.0
 10
167.217305422332
 20
136.0594075074303
 30
0.0
 10
167.4411630474166
 20
135.8355839769464
 30
0.0
 10
167.7173054223317
 20
135.8355839769464
 30
0.0
  0
SPLINE
  5
A7
330
70
100
AcDbEntity
  8
0
 62
    18
420
        0
370
    25
100
AcDbSpline
210
0.0
220
0.0
230
1.0
 70
     8
 71
     3
 72
     8
 73
     4
 74
     0
 42
0.0000000001
 43
0.0000000001
 40
0.0
 40
0.0
 40
0.0
 40
0.0
 40
1.0
 40
1.0
 40
1.0
 40
1.0
 10
165.7173054223323
 20
135.3356601293681
 30
0.0
 10
165.7173054223323
 20
134.7834594951791
 30
0.0
 10
166.1650206725014
 20
134.3358124342113
 30
0.0
 10
166.7173054223323
 20
134.3358124342113
 30
0.0
  0
LINE
  5
A8
330
70
100
AcDbEntity
  8
0
 62
    18
420
        0
370
    25
100
AcDbLine
 10
145.057305422332
 20
134.3358124342113
 30
0.0
 11
135.8691133484254
 21
134.3358124342113
 31
0.0
  0
LINE
  5
A9
330
70
100
AcDbEntity
  8
0
 62
    18
420
        0
370
    25
100
AcDbLine
 10
21.78470754615441
 20
134.3358124342113
 30
0.0
 11
101.7847075461543
 21
134.3358124342113
 31
0.0
  0
LINE
  5
AA
330
70
100
AcDbEntity
  8
0
 62
   250
420
  1907995
370
    25
100
AcDbLine
 10
144.5573054223323
 20
147.5038065794214
 30
0.0
 11
144.5573054223323
 21
136.3355078245241
 31
0.0
  0
LINE
  5
AB
330
70
100
AcDbEntity
  8
0
 62
   250
420
  1907995
370
    25
100
AcDbLine
 10
167.217305422332
 20
147.5038065794214
 30
0.0
 11
167.217305422332
 21
136.3355078245241
 31
0.0
  0
LINE
  5
AC
330
70
100
AcDbEntity
  8
0
 62
    18
420
        0
370
    25
100
AcDbLine
 10
101.7847075461543
 20
147.5038065794214
 30
0.0
 11
88.44970754615408
 21
147.5038065794214
 31
0.0
  0
LINE
  5
AD
330
70
100
AcDbEntity
  8
0
 62
   250
420
  1907995
370
    25
100
AcDbLine
 10
146.057305422332
 20
147.5038065794214
 30
0.0
 11
144.5573054223323
 21
147.5038065794214
 31
0.0
  0
LINE
  5
AE
330
70
100
AcDbEntity
  8
0
 62
   250
420
  1907995
370
    25
100
AcDbLine
 10
165.7173054223323
 20
154.5027404455156
 30
0.0
 11
165.7173054223323
 21
135.3356601293681
 31
0.0
  0
LINE
  5
AF
330
70
100
AcDbEntity
  8
0
 62
   250
420
  1907995
370
    25
100
AcDbLine
 10
164.2173054223319
 20
154.5027404455156
 30
0.0
 11
164.2173054223319
 21
136.2500760952297
 31
0.0
  0
LINE
  5
B0
330
70
100
AcDbEntity
  8
0
 62
   250
420
  1907995
370
    25
100
AcDbLine
 10
146.057305422332
 20
154.5027404455156
 30
0.0
 11
146.057305422332
 21
135.3356601293681
 31
0.0
  0
LINE
  5
B1
330
70
100
AcDbEntity
  8
0
 62
   250
420
  1907995
370
    25
100
AcDbLine
 10
147.5573054223318
 20
154.5027404455156
 30
0.0
 11
147.5573054223318
 21
136.2500760952297
 31
0.0
  0
LINE
  5
B2
330
70
100
AcDbEntity
  8
0
 62
   250
420
  1907995
370
    25
100
AcDbLine
 10
167.217305422332
 20
198.1560908160438
 30
0.0
 11
165.7173054223323
 21
198.1560908160438
 31
0.0
  0
LINE
  5
B3
330
70
100
AcDbEntity
  8
0
 62
    18
420
        0
370
    25
100
AcDbLine
 10
167.7173054223317
 20
191.1571569499489
 30
0.0
 11
167.7173054223317
 21
191.1571569499489
 31
0.0
  0
LINE
  5
B4
330
70
100
AcDbEntity
  8
0
 62
    18
420
        0
370
    25
100
AcDbLine
 10
168.7173054223317
 20
191.1571569499489
 30
0.0
 11
168.7173054223317
 21
191.1571569499489
 31
0.0
  0
LINE
  5
B5
330
70
100
AcDbEntity
  8
0
 62
    18
420
        0
370
    25
100
AcDbLine
 10
109.7847075461543
 20
191.1571569499489
 30
0.0
 11
80.28470754615423
 21
191.1571569499493
 31
0.0
  0
LINE
  5
B6
330
70
100
AcDbEntity
  8
0
 62
    18
420
        0
370
    25
100
AcDbLine
 10
109.7847075461543
 20
154.5027404455156
 30
0.0
 11
80.28470754615423
 21
154.5027404455159
 31
0.0
  0
LINE
  5
B7
330
70
100
AcDbEntity
  8
0
 62
    18
420
        0
370
    25
100
AcDbLine
 10
23.78470754615415
 20
135.8355839769458
 30
0.0
 11
23.78470754615415
 21
134.3358124342113
 31
0.0
  0
LINE
  5
B8
330
70
100
AcDbEntity
  8
0
 62
    18
420
        0
370
    25
100
AcDbLine
 10
25.78470754615422
 20
135.8355839769458
 30
0.0
 11
25.78470754615422
 21
134.3358124342113
 31
0.0
  0
LINE
  5
B9
330
70
100
AcDbEntity
  8
0
 62
    18
420
        0
370
    25
100
AcDbLine
 10
99.78470754615395
 20
135.8355839769458
 30
0.0
 11
99.78470754615395
 21
134.3358124342113
 31
0.0
  0
LINE
  5
BA
330
70
100
AcDbEntity
  8
0
 62
    18
420
        0
370
    25
100
AcDbLine
 10
97.78470754615389
 20
135.8355839769458
 30
0.0
 11
97.78470754615389
 21
134.3358124342113
 31
0.0
  0
LINE
  5
BB
330
70
100
AcDbEntity
  8
0
 62
   250
420
  1907995
370
    25
100
AcDbLine
 10
164.2173054223319
 20
196.1271301164355
 30
0.0
 11
147.5573054223318
 21
196.1271301164355
 31
0.0
  0
LINE
  5
BC
330
70
100
AcDbEntity
  8
0
 62
   250
420
  1907995
370
    25
100
AcDbLine
 10
164.2173054223319
 20
150.3050659844952
 30
0.0
 11
147.5573054223318
 21
150.3050659844952
 31
0.0
  0
SPLINE
  5
BD
330
70
100
AcDbEntity
  8
0
 62
   250
420
  1907995
370
    25
100
AcDbSpline
210
0.0
220
0.0
230
1.0
 70
     8
 71
     3
 72
     8
 73
     4
 74
     0
 42
0.0000000001
 43
0.0000000001
 40
0.0
 40
0.0
 40
0.0
 40
0.0
 40
1.0
 40
1.0
 40
1.0
 40
1.0
 10
170.7376518127452
 20
193.1568523402617
 30
0.0
 10
169.6330823130839
 20
193.1568523402617
 30
0.0
 10
168.7376518127457
 20
192.2615582183258
 30
0.0
 10
168.7376518127457
 20
191.1571569499489
 30
0.0
  0
LINE
  5
BE
330
70
100
AcDbEntity
  8
0
 62
   250
420
  1907995
370
    25
100
AcDbLine
 10
181.6600610371891
 20
193.1568523402617
 30
0.0
 11
170.7376518127452
 21
193.1568523402617
 31
0.0
  0
LINE
  5
BF
330
70
100
AcDbEntity
  8
0
 62
   250
420
  1907995
370
    25
100
AcDbLine
 10
181.6600610371891
 20
192.1570046451053
 30
0.0
 11
170.7376518127452
 21
192.1570046451053
 31
0.0
  0
SPLINE
  5
C0
330
70
100
AcDbEntity
  8
0
 62
   250
420
  1907995
370
    25
100
AcDbSpline
210
0.0
220
0.0
230
1.0
 70
     8
 71
     3
 72
     8
 73
     4
 74
     0
 42
0.0000000001
 43
0.0000000001
 40
0.0
 40
0.0
 40
0.0
 40
0.0
 40
1.0
 40
1.0
 40
1.0
 40
1.0
 10
170.7376518127452
 20
192.1570046451053
 30
0.0
 10
170.1853670629149
 20
192.1570046451053
 30
0.0
 10
169.7376518127452
 20
191.7093575841372
 30
0.0
 10
169.7376518127452
 20
191.1571569499489
 30
0.0
  0
LINE
  5
C1
330
70
100
AcDbEntity
  8
0
 62
    18
420
        0
370
    25
100
AcDbLine
 10
181.6600610371891
 20
193.1568523402617
 30
0.0
 11
181.6600610371891
 21
192.1570046451053
 31
0.0
  0
LINE
  5
C2
330
70
100
AcDbEntity
  8
0
 62
    18
420
        0
370
    25
100
AcDbLine
 10
180.4211518345084
 20
153.5028927503592
 30
0.0
 11
180.4211518345084
 21
152.5030450552031
 31
0.0
  0
SPLINE
  5
C3
330
70
100
AcDbEntity
  8
0
 62
    18
420
        0
370
    25
100
AcDbSpline
210
0.0
220
0.0
230
1.0
 70
     8
 71
     3
 72
     8
 73
     4
 74
     0
 42
0.0000000001
 43
0.0000000001
 40
0.0
 40
0.0
 40
0.0
 40
0.0
 40
1.0
 40
1.0
 40
1.0
 40
1.0
 10
172.8758825706989
 20
153.5414485853266
 30
0.0
 10
173.0760385249976
 20
152.9224463595139
 30
0.0
 10
173.6524957657972
 20
152.5030450552031
 30
0.0
 10
174.303143830164
 20
152.5030450552031
 30
0.0
  0
LINE
  5
C4
330
70
100
AcDbEntity
  8
0
 62
    18
420
        0
370
    25
100
AcDbLine
 10
180.4211518345084
 20
152.5030450552031
 30
0.0
 11
174.303143830164
 21
152.5030450552031
 31
0.0
  0
LINE
  5
C5
330
70
100
AcDbEntity
  8
0
 62
    18
420
        0
370
    25
100
AcDbLine
 10
180.4211518345084
 20
153.5028927503592
 30
0.0
 11
174.268053975269
 21
153.5028927503592
 31
0.0
  0
SPLINE
  5
C6
330
70
100
AcDbEntity
  8
0
 62
    18
420
        0
370
    25
100
AcDbSpline
210
0.0
220
0.0
230
1.0
 70
     8
 71
     3
 72
     8
 73
     4
 74
     0
 42
0.0000000001
 43
0.0000000001
 40
0.0
 40
0.0
 40
0.0
 40
0.0
 40
1.0
 40
1.0
 40
1.0
 40
1.0
 10
173.7985850541683
 20
153.8307993991282
 30
0.0
 10
173.870773127722
 20
153.6338438924206
 30
0.0
 10
174.0582578634271
 20
153.5028927503592
 30
0.0
 10
174.268053975269
 20
153.5028927503592
 30
0.0
  0
LINE
  5
C7
330
70
100
AcDbEntity
  8
0
 62
    18
420
        0
370
    25
100
AcDbLine
 10
173.552305422332
 20
154.5027404455156
 30
0.0
 11
173.7985850541683
 21
153.8307993991282
 31
0.0
  0
LINE
  5
C8
330
70
100
AcDbEntity
  8
0
 62
    18
420
        0
370
    25
100
AcDbLine
 10
172.5650463868984
 20
154.5027404455156
 30
0.0
 11
172.8758825706983
 21
153.5414485853266
 31
0.0
  0
LINE
  5
C9
330
70
100
AcDbEntity
  8
0
 62
   250
420
  1907995
370
    25
100
AcDbLine
 10
98.44970754615443
 20
193.1568523402617
 30
0.0
 11
91.78970754615432
 21
193.1568523402617
 31
0.0
  0
LINE
  5
CA
330
70
100
AcDbEntity
  8
0
 62
   250
420
  1907995
370
    25
100
AcDbLine
 10
98.44970754615443
 20
192.1570046451053
 30
0.0
 11
91.78970754615432
 21
192.1570046451053
 31
0.0
  0
LINE
  5
CB
330
70
100
AcDbEntity
  8
0
 62
   250
420
  1907995
370
    25
100
AcDbLine
 10
91.78970754615432
 20
193.1568523402617
 30
0.0
 11
91.78970754615432
 21
191.1571569499489
 31
0.0
  0
LINE
  5
CC
330
70
100
AcDbEntity
  8
0
 62
   250
420
  1907995
370
    25
100
AcDbLine
 10
98.44970754615443
 20
193.1568523402617
 30
0.0
 11
98.44970754615443
 21
191.1571569499489
 31
0.0
  0
LINE
  5
CD
330
70
100
AcDbEntity
  8
0
 62
   250
420
  1907995
370
    25
100
AcDbLine
 10
65.84286632998811
 20
192.1570046451057
 30
0.0
 11
59.18286632998801
 21
192.1570046451057
 31
0.0
  0
LINE
  5
CE
330
70
100
AcDbEntity
  8
0
 62
   250
420
  1907995
370
    25
100
AcDbLine
 10
65.84286632998811
 20
193.1568523402617
 30
0.0
 11
59.18286632998801
 21
193.1568523402617
 31
0.0
  0
LINE
  5
CF
330
70
100
AcDbEntity
  8
0
 62
   250
420
  1907995
370
    25
100
AcDbLine
 10
59.18286632998801
 20
193.1568523402621
 30
0.0
 11
59.18286632998801
 21
191.1571569499493
 31
0.0
  0
LINE
  5
D0
330
70
100
AcDbEntity
  8
0
 62
   250
420
  1907995
370
    25
100
AcDbLine
 10
65.84286632998811
 20
193.1568523402617
 30
0.0
 11
65.84286632998811
 21
191.1571569499493
 31
0.0
  0
LINE
  5
D1
330
70
100
AcDbEntity
  8
0
 62
   250
420
  1907995
370
    25
100
AcDbLine
 10
31.72960043448406
 20
192.1570046451053
 30
0.0
 11
25.06960043448395
 21
192.1570046451053
 31
0.0
  0
LINE
  5
D2
330
70
100
AcDbEntity
  8
0
 62
   250
420
  1907995
370
    25
100
AcDbLine
 10
31.72960043448406
 20
193.1568523402617
 30
0.0
 11
25.06960043448395
 21
193.1568523402617
 31
0.0
  0
LINE
  5
D3
330
70
100
AcDbEntity
  8
0
 62
   250
420
  1907995
370
    25
100
AcDbLine
 10
25.06960043448395
 20
193.1568523402617
 30
0.0
 11
25.06960043448395
 21
191.1571569499493
 31
0.0
  0
LINE
  5
D4
330
70
100
AcDbEntity
  8
0
 62
   250
420
  1907995
370
    25
100
AcDbLine
 10
31.72960043448406
 20
193.1568523402617
 30
0.0
 11
31.72960043448406
 21
191.1571569499493
 31
0.0
  0
LINE
  5
D5
330
70
100
AcDbEntity
  8
0
 62
    18
420
        0
370
    25
100
AcDbLine
 10
31.72960043448406
 20
152.1835081161622
 30
0.0
 11
31.72960043448406
 21
154.5027404455159
 31
0.0
  0
LINE
  5
D6
330
70
100
AcDbEntity
  8
0
 62
    18
420
        0
370
    25
100
AcDbLine
 10
31.72960043448406
 20
152.1835081161622
 30
0.0
 11
25.06960043448395
 21
152.1835081161622
 31
0.0
  0
LINE
  5
D7
330
70
100
AcDbEntity
  8
0
 62
    18
420
        0
370
    25
100
AcDbLine
 10
31.72960043448406
 20
153.1833558113183
 30
0.0
 11
25.06960043448395
 21
153.1833558113183
 31
0.0
  0
LINE
  5
D8
330
70
100
AcDbEntity
  8
0
 62
    18
420
        0
370
    25
100
AcDbLine
 10
25.06960043448395
 20
152.1835081161619
 30
0.0
 11
25.06960043448395
 21
154.5027404455159
 31
0.0
  0
LINE
  5
D9
330
70
100
AcDbEntity
  8
0
 62
    18
420
        0
370
    25
100
AcDbLine
 10
65.84286632998811
 20
152.1835081161619
 30
0.0
 11
65.84286632998811
 21
154.5027404455159
 31
0.0
  0
LINE
  5
DA
330
70
100
AcDbEntity
  8
0
 62
    18
420
        0
370
    25
100
AcDbLine
 10
59.18286632998801
 20
152.1835081161619
 30
0.0
 11
59.18286632998801
 21
154.5027404455159
 31
0.0
  0
LINE
  5
DB
330
70
100
AcDbEntity
  8
0
 62
    18
420
        0
370
    25
100
AcDbLine
 10
65.84286632998811
 20
152.1835081161619
 30
0.0
 11
59.18286632998801
 21
152.1835081161619
 31
0.0
  0
LINE
  5
DC
330
70
100
AcDbEntity
  8
0
 62
    18
420
        0
370
    25
100
AcDbLine
 10
65.84286632998811
 20
153.1833558113183
 30
0.0
 11
59.18286632998801
 21
153.1833558113183
 31
0.0
  0
LINE
  5
DD
330
70
100
AcDbEntity
  8
0
 62
    18
420
        0
370
    25
100
AcDbLine
 10
98.44970754615443
 20
153.1833558113183
 30
0.0
 11
91.78970754615432
 21
153.1833558113183
 31
0.0
  0
LINE
  5
DE
330
70
100
AcDbEntity
  8
0
 62
    18
420
        0
370
    25
100
AcDbLine
 10
98.44970754615443
 20
152.1835081161622
 30
0.0
 11
91.78970754615432
 21
152.1835081161622
 31
0.0
  0
LINE
  5
DF
330
70
100
AcDbEntity
  8
0
 62
    18
420
        0
370
    25
100
AcDbLine
 10
91.78970754615432
 20
152.1835081161622
 30
0.0
 11
91.78970754615432
 21
154.5027404455159
 31
0.0
  0
LINE
  5
E0
330
70
100
AcDbEntity
  8
0
 62
    18
420
        0
370
    25
100
AcDbLine
 10
98.44970754615443
 20
152.1835081161622
 30
0.0
 11
98.44970754615443
 21
154.5027404455156
 31
0.0
  0
LINE
  5
E1
330
70
100
AcDbEntity
  8
0
 62
   250
420
  1907995
370
    25
100
AcDbLine
 10
146.057305422332
 20
198.1560908160441
 30
0.0
 11
144.5573054223323
 21
198.1560908160441
 31
0.0
  0
LINE
  5
E2
330
70
100
AcDbEntity
  8
0
 62
   250
420
  1907995
370
    25
100
AcDbLine
 10
144.5573054223323
 20
211.4837830725347
 30
0.0
 11
144.5573054223323
 21
198.1560908160441
 31
0.0
  0
LINE
  5
E3
330
70
100
AcDbEntity
  8
0
 62
   250
420
  1907995
370
    25
100
AcDbLine
 10
101.7847075461543
 20
198.1560908160435
 30
0.0
 11
21.78470754615408
 21
198.1560908160438
 31
0.0
  0
LINE
  5
E4
330
70
100
AcDbEntity
  8
0
 62
   250
420
  1907995
370
    25
100
AcDbLine
 10
55.83786632998807
 20
196.4963436420843
 30
0.0
 11
35.06460043448397
 21
196.4963436420843
 31
0.0
  0
LINE
  5
E5
330
70
100
AcDbEntity
  8
0
 62
   250
420
  1907995
370
    25
100
AcDbLine
 10
88.44970754615408
 20
196.4963436420843
 30
0.0
 11
69.17786632998802
 21
196.4963436420843
 31
0.0
  0
LINE
  5
E6
330
70
100
AcDbEntity
  8
0
 62
    18
420
        0
370
    25
100
AcDbLine
 10
55.83786632998807
 20
149.1635537533806
 30
0.0
 11
35.06460043448397
 21
149.1635537533806
 31
0.0
  0
LINE
  5
E7
330
70
100
AcDbEntity
  8
0
 62
    18
420
        0
370
    25
100
AcDbLine
 10
101.7847075461543
 20
147.5038065794214
 30
0.0
 11
21.78470754615408
 21
147.5038065794214
 31
0.0
  0
LINE
  5
E8
330
70
100
AcDbEntity
  8
0
 62
    18
420
        0
370
    25
100
AcDbLine
 10
88.44970754615408
 20
149.1635537533806
 30
0.0
 11
69.17786632998802
 21
149.1635537533806
 31
0.0
  0
SPLINE
  5
E9
330
70
100
AcDbEntity
  8
0
 62
   250
420
  1907995
370
    25
100
AcDbSpline
210
0.0
220
0.0
230
1.0
 70
     8
 71
     3
 72
     8
 73
     4
 74
     0
 42
0.0000000001
 43
0.0000000001
 40
0.0
 40
0.0
 40
0.0
 40
0.0
 40
1.0
 40
1.0
 40
1.0
 40
1.0
 10
77.09563450964342
 20
202.5268475525801
 30
0.0
 10
78.06784660502356
 20
201.9501960903333
 30
0.0
 10
79.27735410649515
 20
201.9501960903333
 30
0.0
 10
80.24956620187531
 20
202.5268475525801
 30
0.0
  0
CIRCLE
  5
EA
330
70
100
AcDbEntity
  8
0
 62
   250
420
  1907995
370
    25
100
AcDbCircle
 10
78.67260035575944
 20
205.1847412623907
 30
0.0
 40
2.627530215358912
  0
CIRCLE
  5
EB
330
70
100
AcDbEntity
  8
0
 62
   250
420
  1907995
370
    25
100
AcDbCircle
 10
78.67260035575935
 20
205.1847412623907
 30
0.0
 40
2.223294797611415
  0
SPLINE
  5
EC
330
70
100
AcDbEntity
  8
0
 62
   250
420
  1907995
370
    25
100
AcDbSpline
210
0.0
220
0.0
230
1.0
 70
     8
 71
     3
 72
    11
 73
     7
 74
     0
 42
0.0000000001
 43
0.0000000001
 40
0.0
 40
0.0
 40
0.0
 40
0.0
 40
1.0
 40
1.0
 40
1.0
 40
2.0
 40
2.0
 40
2.0
 40
2.0
 10
73.9837552399743
 20
205.9968754514996
 30
0.0
 10
73.53515758891837
 20
205.7307972030688
 30
0.0
 10
73.38722923564536
 20
205.1514933028415
 30
0.0
 10
73.65334801525538
 20
204.7029639753805
 30
0.0
 10
73.7340695665307
 20
204.5669120095692
 30
0.0
 10
73.84768254963332
 20
204.4533163302742
 30
0.0
 10
73.9837552399743
 20
204.3726070732819
 30
0.0
  0
SPLINE
  5
ED
330
70
100
AcDbEntity
  8
0
 62
   250
420
  1907995
370
    25
100
AcDbSpline
210
0.0
220
0.0
230
1.0
 70
     8
 71
     3
 72
    11
 73
     7
 74
     0
 42
0.0000000001
 43
0.0000000001
 40
0.0
 40
0.0
 40
0.0
 40
0.0
 40
1.0
 40
1.0
 40
1.0
 40
2.0
 40
2.0
 40
2.0
 40
2.0
 10
83.36144547154409
 20
204.3726070732819
 30
0.0
 10
83.81004312260037
 20
204.6386853217127
 30
0.0
 10
83.95797147587302
 20
205.2179892219403
 30
0.0
 10
83.69185269626335
 20
205.666518549401
 30
0.0
 10
83.61113114498769
 20
205.8025705152123
 30
0.0
 10
83.49751816188508
 20
205.9161661945072
 30
0.0
 10
83.36144547154409
 20
205.9968754514996
 30
0.0
  0
LINE
  5
EE
330
70
100
AcDbEntity
  8
0
 62
   250
420
  1907995
370
    25
100
AcDbLine
 10
80.24956620187531
 20
207.8426349722013
 30
0.0
 11
83.36144547154409
 21
205.9968754514996
 31
0.0
  0
LINE
  5
EF
330
70
100
AcDbEntity
  8
0
 62
   250
420
  1907995
370
    25
100
AcDbLine
 10
77.09563450964342
 20
207.8426349722013
 30
0.0
 11
73.98375523997462
 21
205.9968754514996
 31
0.0
  0
LINE
  5
F0
330
70
100
AcDbEntity
  8
0
 62
   250
420
  1907995
370
    25
100
AcDbLine
 10
73.98375523997462
 20
204.3726070732819
 30
0.0
 11
77.09563450964342
 21
202.5268475525801
 31
0.0
  0
LINE
  5
F1
330
70
100
AcDbEntity
  8
0
 62
   250
420
  1907995
370
    25
100
AcDbLine
 10
80.24956620187531
 20
202.5268475525801
 30
0.0
 11
83.36144547154409
 21
204.3726070732819
 31
0.0
  0
SPLINE
  5
F2
330
70
100
AcDbEntity
  8
0
 62
   250
420
  1907995
370
    25
100
AcDbSpline
210
0.0
220
0.0
230
1.0
 70
     8
 71
     3
 72
     8
 73
     4
 74
     0
 42
0.0000000001
 43
0.0000000001
 40
0.0
 40
0.0
 40
0.0
 40
0.0
 40
1.0
 40
1.0
 40
1.0
 40
1.0
 10
80.24956620187531
 20
207.8426349722013
 30
0.0
 10
79.27735410649515
 20
208.4192864344482
 30
0.0
 10
78.06784660502356
 20
208.4192864344482
 30
0.0
 10
77.09563450964342
 20
207.8426349722013
 30
0.0
  0
CIRCLE
  5
F3
330
70
100
AcDbEntity
  8
0
 62
   250
420
  1907995
370
    25
100
AcDbCircle
 10
74.46560591517652
 20
205.1847412623907
 30
0.0
 40
0.5151029470736188
  0
CIRCLE
  5
F4
330
70
100
AcDbEntity
  8
0
 62
   250
420
  1907995
370
    25
100
AcDbCircle
 10
82.87959479634212
 20
205.1847412623907
 30
0.0
 40
0.5151029470736589
  0
LINE
  5
F5
330
70
100
AcDbEntity
  8
0
 62
   250
420
  1907995
370
    25
100
AcDbLine
 10
76.70224332101324
 20
206.2148686978892
 30
0.0
 11
77.27887273064464
 21
206.2148686978892
 31
0.0
  0
LINE
  5
F6
330
70
100
AcDbEntity
  8
0
 62
   250
420
  1907995
370
    25
100
AcDbLine
 10
76.70224332101324
 20
204.154613826892
 30
0.0
 11
77.27887273064464
 21
204.1546138268923
 31
0.0
  0
LINE
  5
F7
330
70
100
AcDbEntity
  8
0
 62
   250
420
  1907995
370
    25
100
AcDbLine
 10
80.06632798087375
 20
204.154613826892
 30
0.0
 11
80.64295739050516
 21
204.154613826892
 31
0.0
  0
LINE
  5
F8
330
70
100
AcDbEntity
  8
0
 62
   250
420
  1907995
370
    25
100
AcDbLine
 10
80.06632798087375
 20
206.2148686978892
 30
0.0
 11
80.64295739050516
 21
206.2148686978892
 31
0.0
  0
LINE
  5
F9
330
70
100
AcDbEntity
  8
0
 62
   250
420
  1907995
370
    25
100
AcDbLine
 10
77.27887273064464
 20
204.1546138268923
 30
0.0
 11
77.27887273064464
 21
206.2148686978892
 31
0.0
  0
LINE
  5
FA
330
70
100
AcDbEntity
  8
0
 62
   250
420
  1907995
370
    25
100
AcDbLine
 10
80.06632798087375
 20
204.154613826892
 30
0.0
 11
80.06632798087375
 21
206.2148686978892
 31
0.0
  0
INSERT
  5
FC
330
70
100
AcDbEntity
  8
0
100
AcDbBlockReference
  2
Block_0
 10
0.0
 20
0.0
 30
0.0
  0
INSERT
  5
107
330
70
100
AcDbEntity
  8
0
100
AcDbBlockReference
  2
Block_1
 10
0.0
 20
0.0
 30
0.0
  0
INSERT
  5
112
330
70
100
AcDbEntity
  8
0
100
AcDbBlockReference
  2
Block_2
 10
0.0
 20
0.0
 30
0.0
  0
INSERT
  5
120
330
70
100
AcDbEntity
  8
0
100
AcDbBlockReference
  2
Block_3
 10
0.0
 20
0.0
 30
0.0
  0
INSERT
  5
12C
330
70
100
AcDbEntity
  8
0
100
AcDbBlockReference
  2
Block_4
 10
0.0
 20
0.0
 30
0.0
  0
INSERT
  5
137
330
70
100
AcDbEntity
  8
0
100
AcDbBlockReference
  2
Block_5
 10
0.0
 20
0.0
 30
0.0
  0
INSERT
  5
142
330
70
100
AcDbEntity
  8
0
100
AcDbBlockReference
  2
Block_6
 10
0.0
 20
0.0
 30
0.0
  0
MTEXT
  5
146
330
70
100
AcDbEntity
  8
0
100
AcDbMText
 10
59.55419822369618
 20
99.66610235265713
 30
0.0
 40
0.2
 41
0.0
 46
0.0
 71
     7
 72
     1
  1
\C18;\c0;\FMyriad Pro|b0|i0|c1;\H4.495800;\W1.000000;D
 73
     1
 44
1.0
  0
MTEXT
  5
147
330
70
100
AcDbEntity
  8
0
100
AcDbMText
 10
153.8920452474936
 20
111.9879331414739
 30
0.0
 40
0.2
 41
0.0
 46
0.0
 71
     7
 72
     1
  1
\C18;\c0;\FNetto Pro|b0|i0|c1;\H4.495800;\W1.000000;E
 73
     1
 44
1.0
  0
MTEXT
  5
148
330
70
100
AcDbEntity
  8
0
100
AcDbMText
 10
183.4628181290263
 20
148.9895850484625
 30
0.0
 40
0.2
 41
0.0
 46
0.0
 71
     7
 72
     1
  1
\C18;\c0;\FNetto Pro|b0|i0|c1;\H4.495800;\W1.000000;nF
 73
     1
 44
1.0
  0
LINE
  5
149
330
70
100
AcDbEntity
  8
0
 62
   250
420
  1907995
370
    18
100
AcDbLine
 10
43.48535092369608
 20
79.96693207974342
 30
0.0
 11
66.43949658905937
 21
79.96693207974342
 31
0.0
  0
LINE
  5
14A
330
70
100
AcDbEntity
  8
0
 62
   250
420
  1907995
370
    18
100
AcDbLine
 10
66.43949658905937
 20
79.96693207974342
 30
0.0
 11
78.59177429729071
 21
79.96693207974342
 31
0.0
  0
LINE
  5
14B
330
70
100
AcDbEntity
  8
0
 62
   250
420
  1907995
370
    18
100
AcDbLine
 10
78.59167980929247
 20
79.96693207974342
 30
0.0
 11
90.7439557004471
 21
79.96693207974342
 31
0.0
  0
LINE
  5
14C
330
70
100
AcDbEntity
  8
0
 62
   250
420
  1907995
370
    18
100
AcDbLine
 10
90.74386484660259
 20
79.96693207974342
 30
0.0
 11
102.8961407377572
 21
79.96693207974342
 31
0.0
  0
LINE
  5
14D
330
70
100
AcDbEntity
  8
0
 62
   250
420
  1907995
370
    18
100
AcDbLine
 10
102.8960462497589
 20
79.96693207974342
 30
0.0
 11
115.0483221409136
 21
79.96693207974342
 31
0.0
  0
LINE
  5
14E
330
70
100
AcDbEntity
  8
0
 62
   250
420
  1907995
370
    18
100
AcDbLine
 10
115.0482349212231
 20
79.96693207974342
 30
0.0
 11
127.2005108123774
 21
79.96693207974342
 31
0.0
  0
LINE
  5
14F
330
70
100
AcDbEntity
  8
0
 62
   250
420
  1907995
370
    18
100
AcDbLine
 10
127.2004163243795
 20
79.96693207974342
 30
0.0
 11
139.3526922155338
 21
79.96693207974342
 31
0.0
  0
LINE
  5
150
330
70
100
AcDbEntity
  8
0
 62
   250
420
  1907995
370
    18
100
AcDbLine
 10
139.3526486056889
 20
79.96693207974342
 30
0.0
 11
151.5049244968432
 21
79.96693207974342
 31
0.0
  0
LINE
  5
151
330
70
100
AcDbEntity
  8
0
 62
   250
420
  1907995
370
    18
100
AcDbLine
 10
151.5048300088453
 20
79.96693207974342
 30
0.0
 11
163.6571058999996
 21
79.96693207974342
 31
0.0
  0
LINE
  5
152
330
70
100
AcDbEntity
  8
0
 62
   250
420
  1907995
370
     9
100
AcDbLine
 10
43.69440442158636
 20
62.34901444799477
 30
0.0
 11
66.64855008694967
 21
62.34901444799477
 31
0.0
  0
LINE
  5
153
330
70
100
AcDbEntity
  8
0
 62
   250
420
  1907995
370
     9
100
AcDbLine
 10
66.64855008694967
 20
62.34901444799477
 30
0.0
 11
78.80082779518101
 21
62.34901444799477
 31
0.0
  0
LINE
  5
154
330
70
100
AcDbEntity
  8
0
 62
   250
420
  1907995
370
     9
100
AcDbLine
 10
78.80073330718275
 20
62.34901444799477
 30
0.0
 11
90.95300919833738
 21
62.34901444799477
 31
0.0
  0
LINE
  5
155
330
70
100
AcDbEntity
  8
0
 62
   250
420
  1907995
370
     9
100
AcDbLine
 10
90.95291834449287
 20
62.34901444799477
 30
0.0
 11
103.1051942356475
 21
62.34901444799477
 31
0.0
  0
LINE
  5
156
330
70
100
AcDbEntity
  8
0
 62
   250
420
  1907995
370
     9
100
AcDbLine
 10
151.7138835067356
 20
62.34901444799477
 30
0.0
 11
163.8661593978899
 21
62.34901444799477
 31
0.0
  0
LINE
  5
157
330
70
100
AcDbEntity
  8
0
 62
   250
420
  1907995
370
     9
100
AcDbLine
 10
43.69440442158636
 20
55.59781063324912
 30
0.0
 11
66.64855008694967
 21
55.59781063324912
 31
0.0
  0
LINE
  5
158
330
70
100
AcDbEntity
  8
0
 62
   250
420
  1907995
370
     9
100
AcDbLine
 10
66.64855008694967
 20
55.59781063324912
 30
0.0
 11
78.80082779518101
 21
55.59781063324912
 31
0.0
  0
LINE
  5
159
330
70
100
AcDbEntity
  8
0
 62
   250
420
  1907995
370
     9
100
AcDbLine
 10
78.80073330718275
 20
55.59781063324912
 30
0.0
 11
90.95300919833738
 21
55.59781063324912
 31
0.0
  0
LINE
  5
15A
330
70
100
AcDbEntity
  8
0
 62
   250
420
  1907995
370
     9
100
AcDbLine
 10
90.95291834449287
 20
55.59781063324912
 30
0.0
 11
103.1051942356475
 21
55.59781063324912
 31
0.0
  0
LINE
  5
15B
330
70
100
AcDbEntity
  8
0
 62
   250
420
  1907995
370
     9
100
AcDbLine
 10
43.69440442158636
 20
48.84656139158185
 30
0.0
 11
66.64855008694967
 21
48.84656139158185
 31
0.0
  0
LINE
  5
15C
330
70
100
AcDbEntity
  8
0
 62
   250
420
  1907995
370
     9
100
AcDbLine
 10
66.64855008694967
 20
48.84656139158185
 30
0.0
 11
78.80082779518101
 21
48.84656139158185
 31
0.0
  0
LINE
  5
15D
330
70
100
AcDbEntity
  8
0
 62
   250
420
  1907995
370
     9
100
AcDbLine
 10
78.80073330718275
 20
48.84656139158185
 30
0.0
 11
90.95300919833738
 21
48.84656139158185
 31
0.0
  0
LINE
  5
15E
330
70
100
AcDbEntity
  8
0
 62
   250
420
  1907995
370
     9
100
AcDbLine
 10
90.95291834449287
 20
48.84656139158185
 30
0.0
 11
103.1051942356475
 21
48.84656139158185
 31
0.0
  0
LINE
  5
15F
330
70
100
AcDbEntity
  8
0
 62
   250
420
  1907995
370
     9
100
AcDbLine
 10
43.69440442158636
 20
42.09535939391353
 30
0.0
 11
66.64855008694967
 21
42.09535939391353
 31
0.0
  0
LINE
  5
160
330
70
100
AcDbEntity
  8
0
 62
   250
420
  1907995
370
     9
100
AcDbLine
 10
66.64855008694967
 20
42.09535939391353
 30
0.0
 11
78.80082779518101
 21
42.09535939391353
 31
0.0
  0
LINE
  5
161
330
70
100
AcDbEntity
  8
0
 62
   250
420
  1907995
370
     9
100
AcDbLine
 10
78.80073330718275
 20
42.09535939391353
 30
0.0
 11
90.95300919833738
 21
42.09535939391353
 31
0.0
  0
LINE
  5
162
330
70
100
AcDbEntity
  8
0
 62
   250
420
  1907995
370
     9
100
AcDbLine
 10
90.95291834449287
 20
42.09535939391353
 30
0.0
 11
103.1051942356475
 21
42.09535939391353
 31
0.0
  0
LINE
  5
163
330
70
100
AcDbEntity
  8
0
 62
   250
420
  1907995
370
     9
100
AcDbLine
 10
103.1050997476492
 20
42.09535939391353
 30
0.0
 11
115.2573756388039
 21
42.09535939391353
 31
0.0
  0
LINE
  5
164
330
70
100
AcDbEntity
  8
0
 62
   250
420
  1907995
370
     9
100
AcDbLine
 10
115.2572884191134
 20
42.09535939391353
 30
0.0
 11
127.4095643102677
 21
42.09535939391353
 31
0.0
  0
LINE
  5
165
330
70
100
AcDbEntity
  8
0
 62
   250
420
  1907995
370
     9
100
AcDbLine
 10
127.4094698222698
 20
42.09535939391353
 30
0.0
 11
139.5617457134241
 21
42.09535939391353
 31
0.0
  0
LINE
  5
166
330
70
100
AcDbEntity
  8
0
 62
   250
420
  1907995
370
     9
100
AcDbLine
 10
139.5617021035792
 20
42.09535939391353
 30
0.0
 11
151.7139779947335
 21
42.09535939391353
 31
0.0
  0
LINE
  5
167
330
70
100
AcDbEntity
  8
0
 62
   250
420
  1907995
370
     9
100
AcDbLine
 10
151.7138835067356
 20
42.09535939391353
 30
0.0
 11
163.8661593978899
 21
42.09535939391353
 31
0.0
  0
LINE
  5
168
330
70
100
AcDbEntity
  8
0
 62
   250
420
  1907995
370
     9
100
AcDbLine
 10
43.69440442158636
 20
35.34415557916853
 30
0.0
 11
66.64855008694967
 21
35.34415557916853
 31
0.0
  0
LINE
  5
169
330
70
100
AcDbEntity
  8
0
 62
   250
420
  1907995
370
     9
100
AcDbLine
 10
66.64855008694967
 20
35.34415557916853
 30
0.0
 11
78.80082779518101
 21
35.34415557916853
 31
0.0
  0
LINE
  5
16A
330
70
100
AcDbEntity
  8
0
 62
   250
420
  1907995
370
     9
100
AcDbLine
 10
78.80073330718275
 20
35.34415557916853
 30
0.0
 11
90.95300919833738
 21
35.34415557916853
 31
0.0
  0
LINE
  5
16B
330
70
100
AcDbEntity
  8
0
 62
   250
420
  1907995
370
     9
100
AcDbLine
 10
90.95291834449287
 20
35.34415557916853
 30
0.0
 11
103.1051942356475
 21
35.34415557916853
 31
0.0
  0
LINE
  5
16C
330
70
100
AcDbEntity
  8
0
 62
   250
420
  1907995
370
     9
100
AcDbLine
 10
43.69440442158636
 20
28.59290633750126
 30
0.0
 11
66.64855008694967
 21
28.59290633750126
 31
0.0
  0
LINE
  5
16D
330
70
100
AcDbEntity
  8
0
 62
   250
420
  1907995
370
     9
100
AcDbLine
 10
66.64855008694967
 20
28.59290633750126
 30
0.0
 11
78.80082779518101
 21
28.59290633750126
 31
0.0
  0
LINE
  5
16E
330
70
100
AcDbEntity
  8
0
 62
   250
420
  1907995
370
     9
100
AcDbLine
 10
78.80073330718275
 20
28.59290633750126
 30
0.0
 11
90.95300919833738
 21
28.59290633750126
 31
0.0
  0
LINE
  5
16F
330
70
100
AcDbEntity
  8
0
 62
   250
420
  1907995
370
     9
100
AcDbLine
 10
90.95291834449287
 20
28.59290633750126
 30
0.0
 11
103.1051942356475
 21
28.59290633750126
 31
0.0
  0
LINE
  5
170
330
70
100
AcDbEntity
  8
0
 62
   250
420
  1907995
370
     9
100
AcDbLine
 10
103.1050997476492
 20
62.34901444799477
 30
0.0
 11
115.2573756388039
 21
62.34901444799477
 31
0.0
  0
LINE
  5
171
330
70
100
AcDbEntity
  8
0
 62
   250
420
  1907995
370
     9
100
AcDbLine
 10
115.2572884191134
 20
62.34901444799477
 30
0.0
 11
127.4095643102677
 21
62.34901444799477
 31
0.0
  0
LINE
  5
172
330
70
100
AcDbEntity
  8
0
 62
   250
420
  1907995
370
     9
100
AcDbLine
 10
127.4094698222698
 20
62.34901444799477
 30
0.0
 11
139.5617457134241
 21
62.34901444799477
 31
0.0
  0
LINE
  5
173
330
70
100
AcDbEntity
  8
0
 62
   250
420
  1907995
370
     9
100
AcDbLine
 10
139.5617021035792
 20
62.34901444799477
 30
0.0
 11
151.7139779947335
 21
62.34901444799477
 31
0.0
  0
LINE
  5
174
330
70
100
AcDbEntity
  8
0
 62
   250
420
  1907995
370
     9
100
AcDbLine
 10
103.1050997476492
 20
55.59781063324912
 30
0.0
 11
115.2573756388039
 21
55.59781063324912
 31
0.0
  0
LINE
  5
175
330
70
100
AcDbEntity
  8
0
 62
   250
420
  1907995
370
     9
100
AcDbLine
 10
115.2572884191134
 20
55.59781063324912
 30
0.0
 11
127.4095643102677
 21
55.59781063324912
 31
0.0
  0
LINE
  5
176
330
70
100
AcDbEntity
  8
0
 62
   250
420
  1907995
370
     9
100
AcDbLine
 10
127.4094698222698
 20
55.59781063324912
 30
0.0
 11
139.5617457134241
 21
55.59781063324912
 31
0.0
  0
LINE
  5
177
330
70
100
AcDbEntity
  8
0
 62
   250
420
  1907995
370
     9
100
AcDbLine
 10
139.5617021035792
 20
55.59781063324912
 30
0.0
 11
151.7139779947335
 21
55.59781063324912
 31
0.0
  0
LINE
  5
178
330
70
100
AcDbEntity
  8
0
 62
   250
420
  1907995
370
     9
100
AcDbLine
 10
151.7138835067356
 20
55.59781063324912
 30
0.0
 11
163.8661593978899
 21
55.59781063324912
 31
0.0
  0
LINE
  5
179
330
70
100
AcDbEntity
  8
0
 62
   250
420
  1907995
370
     9
100
AcDbLine
 10
103.1050997476492
 20
48.84656139158185
 30
0.0
 11
115.2573756388039
 21
48.84656139158185
 31
0.0
  0
LINE
  5
17A
330
70
100
AcDbEntity
  8
0
 62
   250
420
  1907995
370
     9
100
AcDbLine
 10
115.2572884191134
 20
48.84656139158185
 30
0.0
 11
127.4095643102677
 21
48.84656139158185
 31
0.0
  0
LINE
  5
17B
330
70
100
AcDbEntity
  8
0
 62
   250
420
  1907995
370
     9
100
AcDbLine
 10
127.4094698222698
 20
48.84656139158185
 30
0.0
 11
139.5617457134241
 21
48.84656139158185
 31
0.0
  0
LINE
  5
17C
330
70
100
AcDbEntity
  8
0
 62
   250
420
  1907995
370
     9
100
AcDbLine
 10
139.5617021035792
 20
48.84656139158185
 30
0.0
 11
151.7139779947335
 21
48.84656139158185
 31
0.0
  0
LINE
  5
17D
330
70
100
AcDbEntity
  8
0
 62
   250
420
  1907995
370
     9
100
AcDbLine
 10
151.7138835067356
 20
48.84656139158185
 30
0.0
 11
163.8661593978899
 21
48.84656139158185
 31
0.0
  0
LINE
  5
17E
330
70
100
AcDbEntity
  8
0
 62
   250
420
  1907995
370
     9
100
AcDbLine
 10
103.1050997476492
 20
35.34415557916853
 30
0.0
 11
115.2573756388039
 21
35.34415557916853
 31
0.0
  0
LINE
  5
17F
330
70
100
AcDbEntity
  8
0
 62
   250
420
  1907995
370
     9
100
AcDbLine
 10
115.2572884191134
 20
35.34415557916853
 30
0.0
 11
127.4095643102677
 21
35.34415557916853
 31
0.0
  0
LINE
  5
180
330
70
100
AcDbEntity
  8
0
 62
   250
420
  1907995
370
     9
100
AcDbLine
 10
127.4094698222698
 20
35.34415557916853
 30
0.0
 11
139.5617457134241
 21
35.34415557916853
 31
0.0
  0
LINE
  5
181
330
70
100
AcDbEntity
  8
0
 62
   250
420
  1907995
370
     9
100
AcDbLine
 10
139.5617021035792
 20
35.34415557916853
 30
0.0
 11
151.7139779947335
 21
35.34415557916853
 31
0.0
  0
LINE
  5
182
330
70
100
AcDbEntity
  8
0
 62
   250
420
  1907995
370
     9
100
AcDbLine
 10
151.7138835067356
 20
35.34415557916853
 30
0.0
 11
163.8661593978899
 21
35.34415557916853
 31
0.0
  0
LINE
  5
183
330
70
100
AcDbEntity
  8
0
 62
   250
420
  1907995
370
     9
100
AcDbLine
 10
103.1050997476492
 20
28.59290633750126
 30
0.0
 11
115.2573756388039
 21
28.59290633750126
 31
0.0
  0
LINE
  5
184
330
70
100
AcDbEntity
  8
0
 62
   250
420
  1907995
370
     9
100
AcDbLine
 10
115.2572884191134
 20
28.59290633750126
 30
0.0
 11
127.4095643102677
 21
28.59290633750126
 31
0.0
  0
LINE
  5
185
330
70
100
AcDbEntity
  8
0
 62
   250
420
  1907995
370
     9
100
AcDbLine
 10
127.4094698222698
 20
28.59290633750126
 30
0.0
 11
139.5617457134241
 21
28.59290633750126
 31
0.0
  0
LINE
  5
186
330
70
100
AcDbEntity
  8
0
 62
   250
420
  1907995
370
     9
100
AcDbLine
 10
139.5617021035792
 20
28.59290633750126
 30
0.0
 11
151.7139779947335
 21
28.59290633750126
 31
0.0
  0
LINE
  5
187
330
70
100
AcDbEntity
  8
0
 62
   250
420
  1907995
370
     9
100
AcDbLine
 10
151.7138835067356
 20
28.59290633750126
 30
0.0
 11
163.8661593978899
 21
28.59290633750126
 31
0.0
  0
LINE
  5
188
330
70
100
AcDbEntity
  8
0
 62
   250
420
  1907995
370
    18
100
AcDbLine
 10
43.48535092369608
 20
69.95916306462118
 30
0.0
 11
66.43949658905937
 21
69.95916306462118
 31
0.0
  0
LINE
  5
189
330
70
100
AcDbEntity
  8
0
 62
   250
420
  1907995
370
    18
100
AcDbLine
 10
66.43949658905937
 20
69.95916306462118
 30
0.0
 11
78.59177429729071
 21
69.95916306462118
 31
0.0
  0
LINE
  5
18A
330
70
100
AcDbEntity
  8
0
 62
   250
420
  1907995
370
    18
100
AcDbLine
 10
78.59167980929247
 20
69.95916306462118
 30
0.0
 11
90.7439557004471
 21
69.95916306462118
 31
0.0
  0
LINE
  5
18B
330
70
100
AcDbEntity
  8
0
 62
   250
420
  1907995
370
    18
100
AcDbLine
 10
90.74386484660259
 20
69.95916306462118
 30
0.0
 11
102.8961407377572
 21
69.95916306462118
 31
0.0
  0
LINE
  5
18C
330
70
100
AcDbEntity
  8
0
 62
   250
420
  1907995
370
    18
100
AcDbLine
 10
102.8960462497589
 20
69.95916306462118
 30
0.0
 11
115.0483221409136
 21
69.95916306462118
 31
0.0
  0
LINE
  5
18D
330
70
100
AcDbEntity
  8
0
 62
   250
420
  1907995
370
    18
100
AcDbLine
 10
115.0482349212231
 20
69.95916306462118
 30
0.0
 11
127.2005108123774
 21
69.95916306462118
 31
0.0
  0
LINE
  5
18E
330
70
100
AcDbEntity
  8
0
 62
   250
420
  1907995
370
    18
100
AcDbLine
 10
127.2004163243795
 20
69.95916306462118
 30
0.0
 11
139.3526922155338
 21
69.95916306462118
 31
0.0
  0
LINE
  5
18F
330
70
100
AcDbEntity
  8
0
 62
   250
420
  1907995
370
    18
100
AcDbLine
 10
139.3526486056889
 20
69.95916306462118
 30
0.0
 11
151.5049244968432
 21
69.95916306462118
 31
0.0
  0
LINE
  5
190
330
70
100
AcDbEntity
  8
0
 62
   250
420
  1907995
370
    18
100
AcDbLine
 10
151.5048300088453
 20
69.95916306462118
 30
0.0
 11
163.6571058999996
 21
69.95916306462118
 31
0.0
  0
LINE
  5
191
330
70
100
AcDbEntity
  8
0
 62
   250
420
  1907995
370
    18
100
AcDbLine
 10
43.69440442158636
 20
23.1526748913273
 30
0.0
 11
66.64855008694967
 21
23.1526748913273
 31
0.0
  0
LINE
  5
192
330
70
100
AcDbEntity
  8
0
 62
   250
420
  1907995
370
    18
100
AcDbLine
 10
66.64855008694967
 20
23.1526748913273
 30
0.0
 11
78.80082779518101
 21
23.1526748913273
 31
0.0
  0
LINE
  5
193
330
70
100
AcDbEntity
  8
0
 62
   250
420
  1907995
370
    18
100
AcDbLine
 10
78.80073330718275
 20
23.1526748913273
 30
0.0
 11
90.95300919833738
 21
23.1526748913273
 31
0.0
  0
LINE
  5
194
330
70
100
AcDbEntity
  8
0
 62
   250
420
  1907995
370
    18
100
AcDbLine
 10
90.95291834449287
 20
23.1526748913273
 30
0.0
 11
103.1051942356475
 21
23.1526748913273
 31
0.0
  0
LINE
  5
195
330
70
100
AcDbEntity
  8
0
 62
   250
420
  1907995
370
    18
100
AcDbLine
 10
103.1050997476492
 20
23.1526748913273
 30
0.0
 11
115.2573756388039
 21
23.1526748913273
 31
0.0
  0
LINE
  5
196
330
70
100
AcDbEntity
  8
0
 62
   250
420
  1907995
370
    18
100
AcDbLine
 10
115.2572884191134
 20
23.1526748913273
 30
0.0
 11
127.4095643102677
 21
23.1526748913273
 31
0.0
  0
LINE
  5
197
330
70
100
AcDbEntity
  8
0
 62
   250
420
  1907995
370
    18
100
AcDbLine
 10
127.4094698222698
 20
23.1526748913273
 30
0.0
 11
139.5617457134241
 21
23.1526748913273
 31
0.0
  0
LINE
  5
198
330
70
100
AcDbEntity
  8
0
 62
   250
420
  1907995
370
    18
100
AcDbLine
 10
139.5617021035792
 20
23.1526748913273
 30
0.0
 11
151.7139779947335
 21
23.1526748913273
 31
0.0
  0
LINE
  5
199
330
70
100
AcDbEntity
  8
0
 62
   250
420
  1907995
370
    18
100
AcDbLine
 10
151.7138835067356
 20
23.1526748913273
 30
0.0
 11
163.8661593978899
 21
23.1526748913273
 31
0.0
  0
MTEXT
  5
19A
330
70
100
AcDbEntity
  8
0
100
AcDbMText
 10
51.92153168777643
 20
73.66777943782763
 30
0.0
 40
0.2
 41
0.0
 46
0.0
 71
     7
 72
     1
  1
\C250;\c1776925;\FNetto Pro Bold|b1|i0|c1;\H2.360720;\W1.000000;Tipo
 73
     1
 44
1.0
  0
MTEXT
  5
19B
330
70
100
AcDbEntity
  8
0
100
AcDbMText
 10
71.5406614571772
 20
75.57153920297669
 30
0.0
 40
0.2
 41
0.0
 46
0.0
 71
     7
 72
     1
  1
\C250;\c1776925;\FNetto Pro Bold|b1|i0|c1;\H2.360720;\W1.000000;A
 73
     1
 44
1.0
  0
MTEXT
  5
19C
330
70
100
AcDbEntity
  8
0
100
AcDbMText
 10
69.86358897495759
 20
71.76057457719332
 30
0.0
 40
0.2
 41
0.0
 46
0.0
 71
     7
 72
     1
  1
\C250;\c1776925;\FNetto Pro Bold|b1|i0|c1;\H2.360720;\W1.000000;mm
 73
     1
 44
1.0
  0
MTEXT
  5
19D
330
70
100
AcDbEntity
  8
0
100
AcDbMText
 10
83.70460459649732
 20
75.57153920297669
 30
0.0
 40
0.2
 41
0.0
 46
0.0
 71
     7
 72
     1
  1
\C250;\c1776925;\FNetto Pro Bold|b1|i0|c1;\H2.360720;\W1.000000;B
 73
     1
 44
1.0
  0
MTEXT
  5
19E
330
70
100
AcDbEntity
  8
0
100
AcDbMText
 10
82.01719682782195
 20
71.76057457719332
 30
0.0
 40
0.2
 41
0.0
 46
0.0
 71
     7
 72
     1
  1
\C250;\c1776925;\FNetto Pro Bold|b1|i0|c1;\H2.360720;\W1.000000;mm
 73
     1
 44
1.0
  0
MTEXT
  5
19F
330
70
100
AcDbEntity
  8
0
100
AcDbMText
 10
95.93469356913425
 20
75.57153920297669
 30
0.0
 40
0.2
 41
0.0
 46
0.0
 71
     7
 72
     1
  1
\C250;\c1776925;\FNetto Pro Bold|b1|i0|c1;\H2.360720;\W1.000000;C
 73
     1
 44
1.0
  0
MTEXT
  5
1A0
330
70
100
AcDbEntity
  8
0
100
AcDbMText
 10
94.17114919023488
 20
71.76057457719332
 30
0.0
 40
0.2
 41
0.0
 46
0.0
 71
     7
 72
     1
  1
\C250;\c1776925;\FNetto Pro Bold|b1|i0|c1;\H2.360720;\W1.000000;mm
 73
     1
 44
1.0
  0
MTEXT
  5
1A1
330
70
100
AcDbEntity
  8
0
100
AcDbMText
 10
107.1880979717028
 20
75.57153920297669
 30
0.0
 40
0.2
 41
0.0
 46
0.0
 71
     7
 72
     1
  1
\C250;\c1776925;\FNetto Pro Bold|b1|i0|c1;\H2.360720;\W1.000000;D*
 73
     1
 44
1.0
  0
MTEXT
  5
1A2
330
70
100
AcDbEntity
  8
0
100
AcDbMText
 10
106.321311947614
 20
71.76057457719332
 30
0.0
 40
0.2
 41
0.0
 46
0.0
 71
     7
 72
     1
  1
\C250;\c1776925;\FNetto Pro Bold|b1|i0|c1;\H2.360720;\W1.000000;mm
 73
     1
 44
1.0
  0
MTEXT
  5
1A3
330
70
100
AcDbEntity
  8
0
100
AcDbMText
 10
119.4619396570024
 20
75.57153920297669
 30
0.0
 40
0.2
 41
0.0
 46
0.0
 71
     7
 72
     1
  1
\C250;\c1776925;\FNetto Pro Bold|b1|i0|c1;\H2.360720;\W1.000000;E*
 73
     1
 44
1.0
  0
MTEXT
  5
1A4
330
70
100
AcDbEntity
  8
0
100
AcDbMText
 10
118.4752643100269
 20
71.76057457719332
 30
0.0
 40
0.2
 41
0.0
 46
0.0
 71
     7
 72
     1
  1
\C250;\c1776925;\FNetto Pro Bold|b1|i0|c1;\H2.360720;\W1.000000;mm
 73
     1
 44
1.0
  0
MTEXT
  5
1A5
330
70
100
AcDbEntity
  8
0
100
AcDbMText
 10
132.4427149358753
 20
75.57153920297669
 30
0.0
 40
0.2
 41
0.0
 46
0.0
 71
     7
 72
     1
  1
\C250;\c1776925;\FNetto Pro Bold|b1|i0|c1;\H2.360720;\W1.000000;F
 73
     1
 44
1.0
  0
MTEXT
  5
1A6
330
70
100
AcDbEntity
  8
0
100
AcDbMText
 10
130.6288721628912
 20
71.76057457719332
 30
0.0
 40
0.2
 41
0.0
 46
0.0
 71
     7
 72
     1
  1
\C250;\c1776925;\FNetto Pro Bold|b1|i0|c1;\H2.360720;\W1.000000;mm
 73
     1
 44
1.0
  0
MTEXT
  5
1A7
330
70
100
AcDbEntity
  8
0
100
AcDbMText
 10
144.4464611351313
 20
75.57153920297669
 30
0.0
 40
0.2
 41
0.0
 46
0.0
 71
     7
 72
     1
  1
\C250;\c1776925;\FNetto Pro Bold|b1|i0|c1;\H2.360720;\W1.000000;G
 73
     1
 44
1.0
  0
MTEXT
  5
1A8
330
70
100
AcDbEntity
  8
0
100
AcDbMText
 10
142.7824800157556
 20
71.76057457719332
 30
0.0
 40
0.2
 41
0.0
 46
0.0
 71
     7
 72
     1
  1
\C250;\c1776925;\FNetto Pro Bold|b1|i0|c1;\H2.360720;\W1.000000;mm
 73
     1
 44
1.0
  0
MTEXT
  5
1A9
330
70
100
AcDbEntity
  8
0
100
AcDbMText
 10
153.4192123264645
 20
73.66433434234238
 30
0.0
 40
0.2
 41
0.0
 46
0.0
 71
     7
 72
     1
  1
\C250;\c1776925;\FNetto Pro Bold|b1|i0|c1;\H2.360720;\W1.000000;kg
 73
     1
 44
1.0
  0
MTEXT
  5
1AA
330
70
100
AcDbEntity
  8
0
100
AcDbMText
 10
45.10500196415413
 20
64.43327635107919
 30
0.0
 40
0.2
 41
0.0
 46
0.0
 71
     7
 72
     1
  1
\C250;\c1776925;\FNetto Pro Bold|b1|i0|c1;\H2.360720;\W1.000000;RBZ-20-400
 73
     1
 44
1.0
  0
MTEXT
  5
1AB
330
70
100
AcDbEntity
  8
0
100
AcDbMText
 10
68.61536708414459
 20
64.51664766182223
 30
0.0
 40
0.2
 41
0.0
 46
0.0
 71
     7
 72
     1
  1
\C250;\c1776925;\FNetto Pro|b0|i0|c1;\H2.360720;\W1.000000;235
 73
     1
 44
1.0
  0
MTEXT
  5
1AC
330
70
100
AcDbEntity
  8
0
100
AcDbMText
 10
80.76931944655751
 20
64.51664766182223
 30
0.0
 40
0.2
 41
0.0
 46
0.0
 71
     7
 72
     1
  1
\C250;\c1776925;\FNetto Pro|b0|i0|c1;\H2.360720;\W1.000000;125
 73
     1
 44
1.0
  0
MTEXT
  5
1AD
330
70
100
AcDbEntity
  8
0
100
AcDbMText
 10
92.92292729942188
 20
64.51664766182223
 30
0.0
 40
0.2
 41
0.0
 46
0.0
 71
     7
 72
     1
  1
\C250;\c1776925;\FNetto Pro|b0|i0|c1;\H2.360720;\W1.000000;165
 73
     1
 44
1.0
  0
MTEXT
  5
1AE
330
70
100
AcDbEntity
  8
0
100
AcDbMText
 10
104.5198077218699
 20
64.51664766182223
 30
0.0
 40
0.2
 41
0.0
 46
0.0
 71
     7
 72
     1
  1
\C250;\c1776925;\FNetto Pro|b0|i0|c1;\H2.360720;\W1.000000;150
 73
     1
 44
1.0
  0
MTEXT
  5
1AF
330
70
100
AcDbEntity
  8
0
100
AcDbMText
 10
119.1124538547705
 20
64.44503812238429
 30
0.0
 40
0.2
 41
0.0
 46
0.0
 71
     7
 72
     1
  1
\C250;\c1776925;\FNetto Pro|b0|i0|c1;\H2.360720;\W1.000000;95
 73
     1
 44
1.0
  0
MTEXT
  5
1B0
330
70
100
AcDbEntity
  8
0
100
AcDbMText
 10
132.7516762043952
 20
64.51664766182223
 30
0.0
 40
0.2
 41
0.0
 46
0.0
 71
     7
 72
     1
  1
\C250;\c1776925;\FNetto Pro|b0|i0|c1;\H2.360720;\W1.000000;7
 73
     1
 44
1.0
  0
MTEXT
  5
1B1
330
70
100
AcDbEntity
  8
0
100
AcDbMText
 10
143.305037204361
 20
64.51664766182223
 30
0.0
 40
0.2
 41
0.0
 46
0.0
 71
     7
 72
     1
  1
\C250;\c1776925;\FNetto Pro|b0|i0|c1;\H2.360720;\W1.000000;145
 73
     1
 44
1.0
  0
MTEXT
  5
1B2
330
70
100
AcDbEntity
  8
0
100
AcDbMText
 10
153.6882104873555
 20
64.77330727547334
 30
0.0
 40
0.2
 41
0.0
 46
0.0
 71
     7
 72
     1
  1
\C250;\c1776925;\FNetto Pro|b0|i0|c1;\H2.360720;\W1.000000;14
 73
     1
 44
1.0
  0
MTEXT
  5
1B3
330
70
100
AcDbEntity
  8
0
100
AcDbMText
 10
45.11499274106135
 20
57.6808891999895
 30
0.0
 40
0.2
 41
0.0
 46
0.0
 71
     7
 72
     1
  1
\C250;\c1776925;\FNetto Pro Bold|b1|i0|c1;\H2.360720;\W1.000000;RBZ-25-400
 73
     1
 44
1.0
  0
MTEXT
  5
1B4
330
70
100
AcDbEntity
  8
0
100
AcDbMText
 10
45.12498351796858
 20
50.92884655844835
 30
0.0
 40
0.2
 41
0.0
 46
0.0
 71
     7
 72
     1
  1
\C250;\c1776925;\FNetto Pro Bold|b1|i0|c1;\H2.360720;\W1.000000;RBZ-30-400
 73
     1
 44
1.0
  0
MTEXT
  5
1B5
330
70
100
AcDbEntity
  8
0
100
AcDbMText
 10
68.63534863795905
 20
51.01221786919139
 30
0.0
 40
0.2
 41
0.0
 46
0.0
 71
     7
 72
     1
  1
\C250;\c1776925;\FNetto Pro|b0|i0|c1;\H2.360720;\W1.000000;255
 73
     1
 44
1.0
  0
MTEXT
  5
1B6
330
70
100
AcDbEntity
  8
0
100
AcDbMText
 10
80.78930100037196
 20
51.01221786919139
 30
0.0
 40
0.2
 41
0.0
 46
0.0
 71
     7
 72
     1
  1
\C250;\c1776925;\FNetto Pro|b0|i0|c1;\H2.360720;\W1.000000;125
 73
     1
 44
1.0
  0
MTEXT
  5
1B7
330
70
100
AcDbEntity
  8
0
100
AcDbMText
 10
92.94290885323633
 20
51.01221786919139
 30
0.0
 40
0.2
 41
0.0
 46
0.0
 71
     7
 72
     1
  1
\C250;\c1776925;\FNetto Pro|b0|i0|c1;\H2.360720;\W1.000000;200
 73
     1
 44
1.0
  0
MTEXT
  5
1B8
330
70
100
AcDbEntity
  8
0
100
AcDbMText
 10
105.0968612156492
 20
51.01221786919139
 30
0.0
 40
0.2
 41
0.0
 46
0.0
 71
     7
 72
     1
  1
\C250;\c1776925;\FNetto Pro|b0|i0|c1;\H2.360720;\W1.000000;160
 73
     1
 44
1.0
  0
MTEXT
  5
1B9
330
70
100
AcDbEntity
  8
0
100
AcDbMText
 10
119.3793212459722
 20
51.09490016083739
 30
0.0
 40
0.2
 41
0.0
 46
0.0
 71
     7
 72
     1
  1
\C250;\c1776925;\FNetto Pro|b0|i0|c1;\H2.360720;\W1.000000;95
 73
     1
 44
1.0
  0
MTEXT
  5
1BA
330
70
100
AcDbEntity
  8
0
100
AcDbMText
 10
132.7716577582097
 20
51.01221786919139
 30
0.0
 40
0.2
 41
0.0
 46
0.0
 71
     7
 72
     1
  1
\C250;\c1776925;\FNetto Pro|b0|i0|c1;\H2.360720;\W1.000000;9
 73
     1
 44
1.0
  0
MTEXT
  5
1BB
330
70
100
AcDbEntity
  8
0
100
AcDbMText
 10
143.3250187581755
 20
51.01221786919139
 30
0.0
 40
0.2
 41
0.0
 46
0.0
 71
     7
 72
     1
  1
\C250;\c1776925;\FNetto Pro|b0|i0|c1;\H2.360720;\W1.000000;150
 73
     1
 44
1.0
  0
MTEXT
  5
1BC
330
70
100
AcDbEntity
  8
0
100
AcDbMText
 10
153.8203490760159
 20
51.07031079181141
 30
0.0
 40
0.2
 41
0.0
 46
0.0
 71
     7
 72
     1
  1
\C250;\c1776925;\FNetto Pro|b0|i0|c1;\H2.360720;\W1.000000;19
 73
     1
 44
1.0
  0
MTEXT
  5
1BD
330
70
100
AcDbEntity
  8
0
100
AcDbMText
 10
45.13497429487581
 20
44.17714842645572
 30
0.0
 40
0.2
 41
0.0
 46
0.0
 71
     7
 72
     1
  1
\C250;\c1776925;\FNetto Pro Bold|b1|i0|c1;\H2.360720;\W1.000000;RBZ-40-400
 73
     1
 44
1.0
  0
MTEXT
  5
1BE
330
70
100
AcDbEntity
  8
0
100
AcDbMText
 10
45.14496507178303
 20
37.42510578491456
 30
0.0
 40
0.2
 41
0.0
 46
0.0
 71
     7
 72
     1
  1
\C250;\c1776925;\FNetto Pro Bold|b1|i0|c1;\H2.360720;\W1.000000;RBZ-50-400
 73
     1
 44
1.0
  0
MTEXT
  5
1BF
330
70
100
AcDbEntity
  8
0
100
AcDbMText
 10
45.15495584869025
 20
30.6730631433734
 30
0.0
 40
0.2
 41
0.0
 46
0.0
 71
     7
 72
     1
  1
\C250;\c1776925;\FNetto Pro Bold|b1|i0|c1;\H2.360720;\W1.000000;RBZ-60-400
 73
     1
 44
1.0
  0
MTEXT
  5
1C0
330
70
100
AcDbEntity
  8
0
100
AcDbMText
 10
45.16494662559748
 20
24.60762803204254
 30
0.0
 40
0.2
 41
0.0
 46
0.0
 71
     7
 72
     1
  1
\C250;\c1776925;\FNetto Pro Bold|b1|i0|c1;\H2.360720;\W1.000000;RBZ-80-400
 73
     1
 44
1.0
  0
MTEXT
  5
1C1
330
70
100
AcDbEntity
  8
0
100
AcDbMText
 10
52.07502982639097
 20
11.26063910308761
 30
0.0
 40
0.2
 41
0.0
 46
0.0
 71
     7
 72
     1
  1
\C250;\c1776925;\FNetto Pro Bold|b1|i0|c1;\H2.450315;\W1.000000;Tipo
 73
     1
 44
1.0
  0
MTEXT
  5
1C2
330
70
100
AcDbEntity
  8
0
100
AcDbMText
 10
90.31931552119095
 20
-25.19360109335167
 30
0.0
 40
0.2
 41
0.0
 46
0.0
 71
     7
 72
     1
  1
\C250;\c1776925;\FNetto Pro|b0|i0|c1;\H2.100270;\W1.000000;* Distance between fixations
 73
     1
 44
1.0
  0
LINE
  5
1C3
330
70
100
AcDbEntity
  8
0
 62
   250
420
  1907995
370
    18
100
AcDbLine
 10
43.52785319429403
 20
-27.62077234151155
 30
0.0
 11
67.35316643112368
 21
-27.62077234151155
 31
0.0
  0
LINE
  5
1C4
330
70
100
AcDbEntity
  8
0
 62
   250
420
  1907995
370
    18
100
AcDbLine
 10
67.35316643112368
 20
-27.62077234151155
 30
0.0
 11
79.9666536486616
 21
-27.62077234151155
 31
0.0
  0
LINE
  5
1C5
330
70
100
AcDbEntity
  8
0
 62
   250
420
  1907995
370
    18
100
AcDbLine
 10
79.96655557460624
 20
-27.62077234151155
 30
0.0
 11
92.58004090610439
 21
-27.62077234151155
 31
0.0
  0
LINE
  5
1C6
330
70
100
AcDbEntity
  8
0
 62
   250
420
  1907995
370
    18
100
AcDbLine
 10
92.57994660412796
 20
-27.62077234151155
 30
0.0
 11
105.1934319356264
 21
-27.62077234151155
 31
0.0
  0
LINE
  5
1C7
330
70
100
AcDbEntity
  8
0
 62
   250
420
  1907995
370
    18
100
AcDbLine
 10
105.1933338615704
 20
-27.62077234151155
 30
0.0
 11
117.8068191930689
 21
-27.62077234151155
 31
0.0
  0
LINE
  5
1C8
330
70
100
AcDbEntity
  8
0
 62
   250
420
  1907995
370
    18
100
AcDbLine
 10
117.8067286631713
 20
-27.62077234151155
 30
0.0
 11
130.4202139946698
 21
-27.62077234151155
 31
0.0
  0
LINE
  5
1C9
330
70
100
AcDbEntity
  8
0
 62
   250
420
  1907995
370
    18
100
AcDbLine
 10
130.4201159206145
 20
-27.62077234151155
 30
0.0
 11
143.0336012521123
 21
-27.62077234151155
 31
0.0
  0
LINE
  5
1CA
330
70
100
AcDbEntity
  8
0
 62
   250
420
  1907995
370
    18
100
AcDbLine
 10
143.0335559871638
 20
-27.62077234151155
 30
0.0
 11
155.6470413186623
 21
-27.62077234151155
 31
0.0
  0
LINE
  5
1CB
330
70
100
AcDbEntity
  8
0
 62
   250
420
  1907995
370
    18
100
AcDbLine
 10
155.6469432446063
 20
-27.62077234151155
 30
0.0
 11
168.2604285761048
 21
-27.62077234151155
 31
0.0
  0
LINE
  5
1CC
330
70
100
AcDbEntity
  8
0
 62
   250
420
  1907995
370
     9
100
AcDbLine
 10
43.52785319429403
 20
-1.043155491950724
 30
0.0
 11
67.35316643112368
 21
-1.043155491950724
 31
0.0
  0
LINE
  5
1CD
330
70
100
AcDbEntity
  8
0
 62
   250
420
  1907995
370
     9
100
AcDbLine
 10
67.35316643112368
 20
-1.043155491950724
 30
0.0
 11
79.9666536486616
 21
-1.043155491950724
 31
0.0
  0
LINE
  5
1CE
330
70
100
AcDbEntity
  8
0
 62
   250
420
  1907995
370
     9
100
AcDbLine
 10
79.96655557460624
 20
-1.043155491950724
 30
0.0
 11
92.58004090610439
 21
-1.043155491950724
 31
0.0
  0
LINE
  5
1CF
330
70
100
AcDbEntity
  8
0
 62
   250
420
  1907995
370
     9
100
AcDbLine
 10
92.57994660412796
 20
-1.043155491950724
 30
0.0
 11
105.1934319356264
 21
-1.043155491950724
 31
0.0
  0
LINE
  5
1D0
330
70
100
AcDbEntity
  8
0
 62
   250
420
  1907995
370
     9
100
AcDbLine
 10
105.1933338615704
 20
-1.043155491950724
 30
0.0
 11
117.8068191930689
 21
-1.043155491950724
 31
0.0
  0
LINE
  5
1D1
330
70
100
AcDbEntity
  8
0
 62
   250
420
  1907995
370
     9
100
AcDbLine
 10
117.8067286631713
 20
-1.043155491950724
 30
0.0
 11
130.4202139946698
 21
-1.043155491950724
 31
0.0
  0
LINE
  5
1D2
330
70
100
AcDbEntity
  8
0
 62
   250
420
  1907995
370
     9
100
AcDbLine
 10
130.4201159206145
 20
-1.043155491950724
 30
0.0
 11
143.0336012521123
 21
-1.043155491950724
 31
0.0
  0
LINE
  5
1D3
330
70
100
AcDbEntity
  8
0
 62
   250
420
  1907995
370
     9
100
AcDbLine
 10
143.0335559871638
 20
-1.043155491950724
 30
0.0
 11
155.6470413186623
 21
-1.043155491950724
 31
0.0
  0
LINE
  5
1D4
330
70
100
AcDbEntity
  8
0
 62
   250
420
  1907995
370
     9
100
AcDbLine
 10
155.6469432446063
 20
-1.043155491950724
 30
0.0
 11
168.2604285761048
 21
-1.043155491950724
 31
0.0
  0
LINE
  5
1D5
330
70
100
AcDbEntity
  8
0
 62
   250
420
  1907995
370
     9
100
AcDbLine
 10
43.52785319429403
 20
-7.687584104977226
 30
0.0
 11
67.35316643112368
 21
-7.687584104977226
 31
0.0
  0
LINE
  5
1D6
330
70
100
AcDbEntity
  8
0
 62
   250
420
  1907995
370
     9
100
AcDbLine
 10
67.35316643112368
 20
-7.687584104977226
 30
0.0
 11
79.9666536486616
 21
-7.687584104977226
 31
0.0
  0
LINE
  5
1D7
330
70
100
AcDbEntity
  8
0
 62
   250
420
  1907995
370
     9
100
AcDbLine
 10
79.96655557460624
 20
-7.687584104977226
 30
0.0
 11
92.58004090610439
 21
-7.687584104977226
 31
0.0
  0
LINE
  5
1D8
330
70
100
AcDbEntity
  8
0
 62
   250
420
  1907995
370
     9
100
AcDbLine
 10
92.57994660412796
 20
-7.687584104977226
 30
0.0
 11
105.1934319356264
 21
-7.687584104977226
 31
0.0
  0
LINE
  5
1D9
330
70
100
AcDbEntity
  8
0
 62
   250
420
  1907995
370
     9
100
AcDbLine
 10
105.1933338615704
 20
-7.687584104977226
 30
0.0
 11
117.8068191930689
 21
-7.687584104977226
 31
0.0
  0
LINE
  5
1DA
330
70
100
AcDbEntity
  8
0
 62
   250
420
  1907995
370
     9
100
AcDbLine
 10
117.8067286631713
 20
-7.687584104977226
 30
0.0
 11
130.4202139946698
 21
-7.687584104977226
 31
0.0
  0
LINE
  5
1DB
330
70
100
AcDbEntity
  8
0
 62
   250
420
  1907995
370
     9
100
AcDbLine
 10
130.4201159206145
 20
-7.687584104977226
 30
0.0
 11
143.0336012521123
 21
-7.687584104977226
 31
0.0
  0
LINE
  5
1DC
330
70
100
AcDbEntity
  8
0
 62
   250
420
  1907995
370
     9
100
AcDbLine
 10
143.0335559871638
 20
-7.687584104977226
 30
0.0
 11
155.6470413186623
 21
-7.687584104977226
 31
0.0
  0
LINE
  5
1DD
330
70
100
AcDbEntity
  8
0
 62
   250
420
  1907995
370
     9
100
AcDbLine
 10
155.6469432446063
 20
-7.687584104977226
 30
0.0
 11
168.2604285761048
 21
-7.687584104977226
 31
0.0
  0
LINE
  5
1DE
330
70
100
AcDbEntity
  8
0
 62
   250
420
  1907995
370
     9
100
AcDbLine
 10
43.52785319429403
 20
-14.33196368097636
 30
0.0
 11
67.35316643112368
 21
-14.33196368097636
 31
0.0
  0
LINE
  5
1DF
330
70
100
AcDbEntity
  8
0
 62
   250
420
  1907995
370
     9
100
AcDbLine
 10
67.35316643112368
 20
-14.33196368097636
 30
0.0
 11
79.9666536486616
 21
-14.33196368097636
 31
0.0
  0
LINE
  5
1E0
330
70
100
AcDbEntity
  8
0
 62
   250
420
  1907995
370
     9
100
AcDbLine
 10
79.96655557460624
 20
-14.33196368097636
 30
0.0
 11
92.58004090610439
 21
-14.33196368097636
 31
0.0
  0
LINE
  5
1E1
330
70
100
AcDbEntity
  8
0
 62
   250
420
  1907995
370
     9
100
AcDbLine
 10
92.57994660412796
 20
-14.33196368097636
 30
0.0
 11
105.1934319356264
 21
-14.33196368097636
 31
0.0
  0
LINE
  5
1E2
330
70
100
AcDbEntity
  8
0
 62
   250
420
  1907995
370
     9
100
AcDbLine
 10
105.1933338615704
 20
-14.33196368097636
 30
0.0
 11
117.8068191930689
 21
-14.33196368097636
 31
0.0
  0
LINE
  5
1E3
330
70
100
AcDbEntity
  8
0
 62
   250
420
  1907995
370
     9
100
AcDbLine
 10
117.8067286631713
 20
-14.33196368097636
 30
0.0
 11
130.4202139946698
 21
-14.33196368097636
 31
0.0
  0
LINE
  5
1E4
330
70
100
AcDbEntity
  8
0
 62
   250
420
  1907995
370
     9
100
AcDbLine
 10
130.4201159206145
 20
-14.33196368097636
 30
0.0
 11
143.0336012521123
 21
-14.33196368097636
 31
0.0
  0
LINE
  5
1E5
330
70
100
AcDbEntity
  8
0
 62
   250
420
  1907995
370
     9
100
AcDbLine
 10
143.0335559871638
 20
-14.33196368097636
 30
0.0
 11
155.6470413186623
 21
-14.33196368097636
 31
0.0
  0
LINE
  5
1E6
330
70
100
AcDbEntity
  8
0
 62
   250
420
  1907995
370
     9
100
AcDbLine
 10
155.6469432446063
 20
-14.33196368097636
 30
0.0
 11
168.2604285761048
 21
-14.33196368097636
 31
0.0
  0
LINE
  5
1E7
330
70
100
AcDbEntity
  8
0
 62
   250
420
  1907995
370
     9
100
AcDbLine
 10
43.52785319429403
 20
-20.97639229400287
 30
0.0
 11
67.35316643112368
 21
-20.97639229400287
 31
0.0
  0
LINE
  5
1E8
330
70
100
AcDbEntity
  8
0
 62
   250
420
  1907995
370
     9
100
AcDbLine
 10
67.35316643112368
 20
-20.97639229400287
 30
0.0
 11
79.9666536486616
 21
-20.97639229400287
 31
0.0
  0
LINE
  5
1E9
330
70
100
AcDbEntity
  8
0
 62
   250
420
  1907995
370
     9
100
AcDbLine
 10
79.96655557460624
 20
-20.97639229400287
 30
0.0
 11
92.58004090610439
 21
-20.97639229400287
 31
0.0
  0
LINE
  5
1EA
330
70
100
AcDbEntity
  8
0
 62
   250
420
  1907995
370
     9
100
AcDbLine
 10
92.57994660412796
 20
-20.97639229400287
 30
0.0
 11
105.1934319356264
 21
-20.97639229400287
 31
0.0
  0
LINE
  5
1EB
330
70
100
AcDbEntity
  8
0
 62
   250
420
  1907995
370
     9
100
AcDbLine
 10
105.1933338615704
 20
-20.97639229400287
 30
0.0
 11
117.8068191930689
 21
-20.97639229400287
 31
0.0
  0
LINE
  5
1EC
330
70
100
AcDbEntity
  8
0
 62
   250
420
  1907995
370
     9
100
AcDbLine
 10
117.8067286631713
 20
-20.97639229400287
 30
0.0
 11
130.4202139946698
 21
-20.97639229400287
 31
0.0
  0
LINE
  5
1ED
330
70
100
AcDbEntity
  8
0
 62
   250
420
  1907995
370
     9
100
AcDbLine
 10
130.4201159206145
 20
-20.97639229400287
 30
0.0
 11
143.0336012521123
 21
-20.97639229400287
 31
0.0
  0
LINE
  5
1EE
330
70
100
AcDbEntity
  8
0
 62
   250
420
  1907995
370
     9
100
AcDbLine
 10
143.0335559871638
 20
-20.97639229400287
 30
0.0
 11
155.6470413186623
 21
-20.97639229400287
 31
0.0
  0
LINE
  5
1EF
330
70
100
AcDbEntity
  8
0
 62
   250
420
  1907995
370
     9
100
AcDbLine
 10
155.6469432446063
 20
-20.97639229400287
 30
0.0
 11
168.2604285761048
 21
-20.97639229400287
 31
0.0
  0
LINE
  5
1F0
330
70
100
AcDbEntity
  8
0
 62
   250
420
  1907995
370
    18
100
AcDbLine
 10
43.31879969640374
 20
17.81060249040804
 30
0.0
 11
67.14411293323339
 21
17.81060249040804
 31
0.0
  0
LINE
  5
1F1
330
70
100
AcDbEntity
  8
0
 62
   250
420
  1907995
370
    18
100
AcDbLine
 10
67.14411293323339
 20
17.81060249040804
 30
0.0
 11
79.75760015077132
 21
17.81060249040804
 31
0.0
  0
LINE
  5
1F2
330
70
100
AcDbEntity
  8
0
 62
   250
420
  1907995
370
    18
100
AcDbLine
 10
79.75750207671595
 20
17.81060249040804
 30
0.0
 11
92.3709874082141
 21
17.81060249040804
 31
0.0
  0
LINE
  5
1F3
330
70
100
AcDbEntity
  8
0
 62
   250
420
  1907995
370
    18
100
AcDbLine
 10
92.37089310623765
 20
17.81060249040804
 30
0.0
 11
104.9843784377358
 21
17.81060249040804
 31
0.0
  0
LINE
  5
1F4
330
70
100
AcDbEntity
  8
0
 62
   250
420
  1907995
370
    18
100
AcDbLine
 10
104.9842803636804
 20
17.81060249040804
 30
0.0
 11
117.5977656951786
 21
17.81060249040804
 31
0.0
  0
LINE
  5
1F5
330
70
100
AcDbEntity
  8
0
 62
   250
420
  1907995
370
    18
100
AcDbLine
 10
117.5976751652811
 20
17.81060249040804
 30
0.0
 11
130.2111604967795
 21
17.81060249040804
 31
0.0
  0
LINE
  5
1F6
330
70
100
AcDbEntity
  8
0
 62
   250
420
  1907995
370
    18
100
AcDbLine
 10
130.2110624227241
 20
17.81060249040804
 30
0.0
 11
142.824547754222
 21
17.81060249040804
 31
0.0
  0
LINE
  5
1F7
330
70
100
AcDbEntity
  8
0
 62
   250
420
  1907995
370
    18
100
AcDbLine
 10
142.8245024892736
 20
17.81060249040804
 30
0.0
 11
155.437987820772
 21
17.81060249040804
 31
0.0
  0
LINE
  5
1F8
330
70
100
AcDbEntity
  8
0
 62
   250
420
  1907995
370
    18
100
AcDbLine
 10
155.437889746716
 20
17.81060249040804
 30
0.0
 11
168.0513750782145
 21
17.81060249040804
 31
0.0
  0
LINE
  5
1F9
330
70
100
AcDbEntity
  8
0
 62
   250
420
  1907995
370
    18
100
AcDbLine
 10
43.31879969640374
 20
7.210856651193
 30
0.0
 11
67.14411293323339
 21
7.210856651193
 31
0.0
  0
LINE
  5
1FA
330
70
100
AcDbEntity
  8
0
 62
   250
420
  1907995
370
    18
100
AcDbLine
 10
67.14411293323339
 20
7.210856651193
 30
0.0
 11
79.75760015077132
 21
7.210856651193
 31
0.0
  0
LINE
  5
1FB
330
70
100
AcDbEntity
  8
0
 62
   250
420
  1907995
370
    18
100
AcDbLine
 10
79.75750207671595
 20
7.210856651193
 30
0.0
 11
92.3709874082141
 21
7.210856651193
 31
0.0
  0
LINE
  5
1FC
330
70
100
AcDbEntity
  8
0
 62
   250
420
  1907995
370
    18
100
AcDbLine
 10
92.37089310623765
 20
7.210856651193
 30
0.0
 11
104.9843784377358
 21
7.210856651193
 31
0.0
  0
LINE
  5
1FD
330
70
100
AcDbEntity
  8
0
 62
   250
420
  1907995
370
    18
100
AcDbLine
 10
104.9842803636804
 20
7.210856651193
 30
0.0
 11
117.5977656951786
 21
7.210856651193
 31
0.0
  0
LINE
  5
1FE
330
70
100
AcDbEntity
  8
0
 62
   250
420
  1907995
370
    18
100
AcDbLine
 10
117.5976751652811
 20
7.210856651193
 30
0.0
 11
130.2111604967795
 21
7.210856651193
 31
0.0
  0
LINE
  5
1FF
330
70
100
AcDbEntity
  8
0
 62
   250
420
  1907995
370
    18
100
AcDbLine
 10
130.2110624227241
 20
7.210856651193
 30
0.0
 11
142.824547754222
 21
7.210856651193
 31
0.0
  0
LINE
  5
200
330
70
100
AcDbEntity
  8
0
 62
   250
420
  1907995
370
    18
100
AcDbLine
 10
142.8245024892736
 20
7.210856651193
 30
0.0
 11
155.437987820772
 21
7.210856651193
 31
0.0
  0
LINE
  5
201
330
70
100
AcDbEntity
  8
0
 62
   250
420
  1907995
370
    18
100
AcDbLine
 10
155.437889746716
 20
7.210856651193
 30
0.0
 11
168.0513750782145
 21
7.210856651193
 31
0.0
  0
MTEXT
  5
202
330
70
100
AcDbEntity
  8
0
100
AcDbMText
 10
72.43830022060571
 20
13.14441731442223
 30
0.0
 40
0.2
 41
0.0
 46
0.0
 71
     7
 72
     1
  1
\C250;\c1776925;\FNetto Pro Bold|b1|i0|c1;\H2.450315;\W1.000000;A
 73
     1
 44
1.0
  0
MTEXT
  5
203
330
70
100
AcDbEntity
  8
0
100
AcDbMText
 10
70.69749347190897
 20
9.188069659161316
 30
0.0
 40
0.2
 41
0.0
 46
0.0
 71
     7
 72
     1
  1
\C250;\c1776925;\FNetto Pro Bold|b1|i0|c1;\H2.450315;\W1.000000;mm
 73
     1
 44
1.0
  0
MTEXT
  5
204
330
70
100
AcDbEntity
  8
0
100
AcDbMText
 10
85.06388615494932
 20
13.14441731442223
 30
0.0
 40
0.2
 41
0.0
 46
0.0
 71
     7
 72
     1
  1
\C250;\c1776925;\FNetto Pro Bold|b1|i0|c1;\H2.450315;\W1.000000;B
 73
     1
 44
1.0
  0
MTEXT
  5
205
330
70
100
AcDbEntity
  8
0
100
AcDbMText
 10
83.31274411979682
 20
9.188069659161316
 30
0.0
 40
0.2
 41
0.0
 46
0.0
 71
     7
 72
     1
  1
\C250;\c1776925;\FNetto Pro Bold|b1|i0|c1;\H2.450315;\W1.000000;mm
 73
     1
 44
1.0
  0
MTEXT
  5
206
330
70
100
AcDbEntity
  8
0
100
AcDbMText
 10
97.75837399899792
 20
13.14441731442223
 30
0.0
 40
0.2
 41
0.0
 46
0.0
 71
     7
 72
     1
  1
\C250;\c1776925;\FNetto Pro Bold|b1|i0|c1;\H2.450315;\W1.000000;C
 73
     1
 44
1.0
  0
MTEXT
  5
207
330
70
100
AcDbEntity
  8
0
100
AcDbMText
 10
95.92730574858762
 20
9.188069659161316
 30
0.0
 40
0.2
 41
0.0
 46
0.0
 71
     7
 72
     1
  1
\C250;\c1776925;\FNetto Pro Bold|b1|i0|c1;\H2.450315;\W1.000000;mm
 73
     1
 44
1.0
  0
MTEXT
  5
208
330
70
100
AcDbEntity
  8
0
100
AcDbMText
 10
109.4389702417374
 20
13.14441731442223
 30
0.0
 40
0.2
 41
0.0
 46
0.0
 71
     7
 72
     1
  1
\C250;\c1776925;\FNetto Pro Bold|b1|i0|c1;\H2.450315;\W1.000000;D*
 73
     1
 44
1.0
  0
MTEXT
  5
209
330
70
100
AcDbEntity
  8
0
100
AcDbMText
 10
108.5391113009902
 20
9.188069659161316
 30
0.0
 40
0.2
 41
0.0
 46
0.0
 71
     7
 72
     1
  1
\C250;\c1776925;\FNetto Pro Bold|b1|i0|c1;\H2.450315;\W1.000000;mm
 73
     1
 44
1.0
  0
MTEXT
  5
20A
330
70
100
AcDbEntity
  8
0
100
AcDbMText
 10
122.1785888366428
 20
13.14441731442223
 30
0.0
 40
0.2
 41
0.0
 46
0.0
 71
     7
 72
     1
  1
\C250;\c1776925;\FNetto Pro Bold|b1|i0|c1;\H2.450315;\W1.000000;E*
 73
     1
 44
1.0
  0
MTEXT
  5
20B
330
70
100
AcDbEntity
  8
0
100
AcDbMText
 10
121.1540174393295
 20
9.188069659161316
 30
0.0
 40
0.2
 41
0.0
 46
0.0
 71
     7
 72
     1
  1
\C250;\c1776925;\FNetto Pro Bold|b1|i0|c1;\H2.450315;\W1.000000;mm
 73
     1
 44
1.0
  0
MTEXT
  5
20C
330
70
100
AcDbEntity
  8
0
100
AcDbMText
 10
135.6516682603579
 20
13.14441731442223
 30
0.0
 40
0.2
 41
0.0
 46
0.0
 71
     7
 72
     1
  1
\C250;\c1776925;\FNetto Pro Bold|b1|i0|c1;\H2.450315;\W1.000000;F
 73
     1
 44
1.0
  0
MTEXT
  5
20D
330
70
100
AcDbEntity
  8
0
100
AcDbMText
 10
133.7689235776689
 20
9.188069659161316
 30
0.0
 40
0.2
 41
0.0
 46
0.0
 71
     7
 72
     1
  1
\C250;\c1776925;\FNetto Pro Bold|b1|i0|c1;\H2.450315;\W1.000000;mm
 73
     1
 44
1.0
  0
MTEXT
  5
20E
330
70
100
AcDbEntity
  8
0
100
AcDbMText
 10
148.110856082764
 20
13.14441731442223
 30
0.0
 40
0.2
 41
0.0
 46
0.0
 71
     7
 72
     1
  1
\C250;\c1776925;\FNetto Pro Bold|b1|i0|c1;\H2.450315;\W1.000000;G
 73
     1
 44
1.0
  0
MTEXT
  5
20F
330
70
100
AcDbEntity
  8
0
100
AcDbMText
 10
146.3838297160082
 20
9.188069659161316
 30
0.0
 40
0.2
 41
0.0
 46
0.0
 71
     7
 72
     1
  1
\C250;\c1776925;\FNetto Pro Bold|b1|i0|c1;\H2.450315;\W1.000000;mm
 73
     1
 44
1.0
  0
MTEXT
  5
210
330
70
100
AcDbEntity
  8
0
100
AcDbMText
 10
159.9888562968083
 20
11.16417642950062
 30
0.0
 40
0.2
 41
0.0
 46
0.0
 71
     7
 72
     1
  1
\C250;\c1776925;\FNetto Pro Bold|b1|i0|c1;\H2.450315;\W1.000000;kg
 73
     1
 44
1.0
  0
MTEXT
  5
211
330
70
100
AcDbEntity
  8
0
100
AcDbMText
 10
44.95326464277552
 20
0.9309024808463759
 30
0.0
 40
0.2
 41
0.0
 46
0.0
 71
     7
 72
     1
  1
\C250;\c1776925;\FNetto Pro Bold|b1|i0|c1;\H2.450315;\W1.000000;RBEZ-40-400
 73
     1
 44
1.0
  0
MTEXT
  5
212
330
70
100
AcDbEntity
  8
0
100
AcDbMText
 10
70.89276658941566
 20
0.9309024808463759
 30
0.0
 40
0.2
 41
0.0
 46
0.0
 71
     7
 72
     1
  1
\C250;\c1776925;\FNetto Pro Light|b0|i0|c1;\H2.450315;\W1.000000;300
 73
     1
 44
1.0
  0
MTEXT
  5
213
330
70
100
AcDbEntity
  8
0
100
AcDbMText
 10
83.93004143424661
 20
0.9309024808463759
 30
0.0
 40
0.2
 41
0.0
 46
0.0
 71
     7
 72
     1
  1
\C250;\c1776925;\FNetto Pro Light|b0|i0|c1;\H2.450315;\W1.000000;145
 73
     1
 44
1.0
  0
MTEXT
  5
214
330
70
100
AcDbEntity
  8
0
100
AcDbMText
 10
96.31309264642863
 20
0.9309024808463759
 30
0.0
 40
0.2
 41
0.0
 46
0.0
 71
     7
 72
     1
  1
\C250;\c1776925;\FNetto Pro Light|b0|i0|c1;\H2.450315;\W1.000000;235
 73
     1
 44
1.0
  0
MTEXT
  5
215
330
70
100
AcDbEntity
  8
0
100
AcDbMText
 10
109.0248059679035
 20
0.9309024808463759
 30
0.0
 40
0.2
 41
0.0
 46
0.0
 71
     7
 72
     1
  1
\C250;\c1776925;\FNetto Pro Light|b0|i0|c1;\H2.450315;\W1.000000;160
 73
     1
 44
1.0
  0
MTEXT
  5
216
330
70
100
AcDbEntity
  8
0
100
AcDbMText
 10
122.0066147754219
 20
0.9309024808463759
 30
0.0
 40
0.2
 41
0.0
 46
0.0
 71
     7
 72
     1
  1
\C250;\c1776925;\FNetto Pro Light|b0|i0|c1;\H2.450315;\W1.000000;113
 73
     1
 44
1.0
  0
MTEXT
  5
217
330
70
100
AcDbEntity
  8
0
100
AcDbMText
 10
135.8503864733498
 20
0.9309024808463759
 30
0.0
 40
0.2
 41
0.0
 46
0.0
 71
     7
 72
     1
  1
\C250;\c1776925;\FNetto Pro Light|b0|i0|c1;\H2.450315;\W1.000000;9
 73
     1
 44
1.0
  0
MTEXT
  5
218
330
70
100
AcDbEntity
  8
0
100
AcDbMText
 10
146.8178479506427
 20
0.9309024808463759
 30
0.0
 40
0.2
 41
0.0
 46
0.0
 71
     7
 72
     1
  1
\C250;\c1776925;\FNetto Pro Light|b0|i0|c1;\H2.450315;\W1.000000;180
 73
     1
 44
1.0
  0
MTEXT
  5
219
330
70
100
AcDbEntity
  8
0
100
AcDbMText
 10
160.1527790453992
 20
0.9309024808463759
 30
0.0
 40
0.2
 41
0.0
 46
0.0
 71
     7
 72
     1
  1
\C250;\c1776925;\FNetto Pro Light|b0|i0|c1;\H2.450315;\W1.000000;30
 73
     1
 44
1.0
  0
MTEXT
  5
21A
330
70
100
AcDbEntity
  8
0
100
AcDbMText
 10
44.95326464277552
 20
-5.714342200652035
 30
0.0
 40
0.2
 41
0.0
 46
0.0
 71
     7
 72
     1
  1
\C250;\c1776925;\FNetto Pro Bold|b1|i0|c1;\H2.450315;\W1.000000;RBEZ-50-400
 73
     1
 44
1.0
  0
MTEXT
  5
21B
330
70
100
AcDbEntity
  8
0
100
AcDbMText
 10
70.89276658941566
 20
-5.714342200652035
 30
0.0
 40
0.2
 41
0.0
 46
0.0
 71
     7
 72
     1
  1
\C250;\c1776925;\FNetto Pro Light|b0|i0|c1;\H2.450315;\W1.000000;300
 73
     1
 44
1.0
  0
MTEXT
  5
21C
330
70
100
AcDbEntity
  8
0
100
AcDbMText
 10
83.93004143424661
 20
-5.714342200652035
 30
0.0
 40
0.2
 41
0.0
 46
0.0
 71
     7
 72
     1
  1
\C250;\c1776925;\FNetto Pro Light|b0|i0|c1;\H2.450315;\W1.000000;145
 73
     1
 44
1.0
  0
MTEXT
  5
21D
330
70
100
AcDbEntity
  8
0
100
AcDbMText
 10
96.31309264642863
 20
-5.714342200652035
 30
0.0
 40
0.2
 41
0.0
 46
0.0
 71
     7
 72
     1
  1
\C250;\c1776925;\FNetto Pro Light|b0|i0|c1;\H2.450315;\W1.000000;235
 73
     1
 44
1.0
  0
MTEXT
  5
21E
330
70
100
AcDbEntity
  8
0
100
AcDbMText
 10
109.0248059679035
 20
-5.714342200652035
 30
0.0
 40
0.2
 41
0.0
 46
0.0
 71
     7
 72
     1
  1
\C250;\c1776925;\FNetto Pro Light|b0|i0|c1;\H2.450315;\W1.000000;160
 73
     1
 44
1.0
  0
MTEXT
  5
21F
330
70
100
AcDbEntity
  8
0
100
AcDbMText
 10
122.0066147754219
 20
-5.714342200652035
 30
0.0
 40
0.2
 41
0.0
 46
0.0
 71
     7
 72
     1
  1
\C250;\c1776925;\FNetto Pro Light|b0|i0|c1;\H2.450315;\W1.000000;113
 73
     1
 44
1.0
  0
MTEXT
  5
220
330
70
100
AcDbEntity
  8
0
100
AcDbMText
 10
135.8503864733498
 20
-5.714342200652035
 30
0.0
 40
0.2
 41
0.0
 46
0.0
 71
     7
 72
     1
  1
\C250;\c1776925;\FNetto Pro Light|b0|i0|c1;\H2.450315;\W1.000000;9
 73
     1
 44
1.0
  0
MTEXT
  5
221
330
70
100
AcDbEntity
  8
0
100
AcDbMText
 10
146.8178479506427
 20
-5.714342200652035
 30
0.0
 40
0.2
 41
0.0
 46
0.0
 71
     7
 72
     1
  1
\C250;\c1776925;\FNetto Pro Light|b0|i0|c1;\H2.450315;\W1.000000;180
 73
     1
 44
1.0
  0
MTEXT
  5
222
330
70
100
AcDbEntity
  8
0
100
AcDbMText
 10
160.1527790453992
 20
-5.714342200652035
 30
0.0
 40
0.2
 41
0.0
 46
0.0
 71
     7
 72
     1
  1
\C250;\c1776925;\FNetto Pro Light|b0|i0|c1;\H2.450315;\W1.000000;30
 73
     1
 44
1.0
  0
MTEXT
  5
223
330
70
100
AcDbEntity
  8
0
100
AcDbMText
 10
44.95326464277552
 20
-12.35958688215045
 30
0.0
 40
0.2
 41
0.0
 46
0.0
 71
     7
 72
     1
  1
\C250;\c1776925;\FNetto Pro Bold|b1|i0|c1;\H2.450315;\W1.000000;RBEZ-60-400
 73
     1
 44
1.0
  0
MTEXT
  5
224
330
70
100
AcDbEntity
  8
0
100
AcDbMText
 10
70.89276658941566
 20
-12.35958688215045
 30
0.0
 40
0.2
 41
0.0
 46
0.0
 71
     7
 72
     1
  1
\C250;\c1776925;\FNetto Pro Light|b0|i0|c1;\H2.450315;\W1.000000;300
 73
     1
 44
1.0
  0
MTEXT
  5
225
330
70
100
AcDbEntity
  8
0
100
AcDbMText
 10
83.93004143424661
 20
-12.35958688215045
 30
0.0
 40
0.2
 41
0.0
 46
0.0
 71
     7
 72
     1
  1
\C250;\c1776925;\FNetto Pro Light|b0|i0|c1;\H2.450315;\W1.000000;145
 73
     1
 44
1.0
  0
MTEXT
  5
226
330
70
100
AcDbEntity
  8
0
100
AcDbMText
 10
96.31309264642863
 20
-12.35958688215045
 30
0.0
 40
0.2
 41
0.0
 46
0.0
 71
     7
 72
     1
  1
\C250;\c1776925;\FNetto Pro Light|b0|i0|c1;\H2.450315;\W1.000000;235
 73
     1
 44
1.0
  0
MTEXT
  5
227
330
70
100
AcDbEntity
  8
0
100
AcDbMText
 10
109.0248059679035
 20
-12.35958688215045
 30
0.0
 40
0.2
 41
0.0
 46
0.0
 71
     7
 72
     1
  1
\C250;\c1776925;\FNetto Pro Light|b0|i0|c1;\H2.450315;\W1.000000;160
 73
     1
 44
1.0
  0
MTEXT
  5
228
330
70
100
AcDbEntity
  8
0
100
AcDbMText
 10
122.0066147754219
 20
-12.35958688215045
 30
0.0
 40
0.2
 41
0.0
 46
0.0
 71
     7
 72
     1
  1
\C250;\c1776925;\FNetto Pro Light|b0|i0|c1;\H2.450315;\W1.000000;113
 73
     1
 44
1.0
  0
MTEXT
  5
229
330
70
100
AcDbEntity
  8
0
100
AcDbMText
 10
135.8503864733498
 20
-12.35958688215045
 30
0.0
 40
0.2
 41
0.0
 46
0.0
 71
     7
 72
     1
  1
\C250;\c1776925;\FNetto Pro Light|b0|i0|c1;\H2.450315;\W1.000000;9
 73
     1
 44
1.0
  0
MTEXT
  5
22A
330
70
100
AcDbEntity
  8
0
100
AcDbMText
 10
146.8178479506427
 20
-12.35958688215045
 30
0.0
 40
0.2
 41
0.0
 46
0.0
 71
     7
 72
     1
  1
\C250;\c1776925;\FNetto Pro Light|b0|i0|c1;\H2.450315;\W1.000000;180
 73
     1
 44
1.0
  0
MTEXT
  5
22B
330
70
100
AcDbEntity
  8
0
100
AcDbMText
 10
160.1527790453992
 20
-12.35958688215045
 30
0.0
 40
0.2
 41
0.0
 46
0.0
 71
     7
 72
     1
  1
\C250;\c1776925;\FNetto Pro Light|b0|i0|c1;\H2.450315;\W1.000000;30
 73
     1
 44
1.0
  0
MTEXT
  5
22C
330
70
100
AcDbEntity
  8
0
100
AcDbMText
 10
44.95326464277552
 20
-19.00414254455181
 30
0.0
 40
0.2
 41
0.0
 46
0.0
 71
     7
 72
     1
  1
\C250;\c1776925;\FNetto Pro Bold|b1|i0|c1;\H2.450315;\W1.000000;RBEZ-80-400
 73
     1
 44
1.0
  0
MTEXT
  5
22D
330
70
100
AcDbEntity
  8
0
100
AcDbMText
 10
71.08982605117195
 20
-19.00414254455181
 30
0.0
 40
0.2
 41
0.0
 46
0.0
 71
     7
 72
     1
  1
\C250;\c1776925;\FNetto Pro Light|b0|i0|c1;\H2.450315;\W1.000000;345
 73
     1
 44
1.0
  0
MTEXT
  5
22E
330
70
100
AcDbEntity
  8
0
100
AcDbMText
 10
83.86424011047834
 20
-19.00414254455181
 30
0.0
 40
0.2
 41
0.0
 46
0.0
 71
     7
 72
     1
  1
\C250;\c1776925;\FNetto Pro Light|b0|i0|c1;\H2.450315;\W1.000000;155
 73
     1
 44
1.0
  0
MTEXT
  5
22F
330
70
100
AcDbEntity
  8
0
100
AcDbMText
 10
96.27519659609088
 20
-19.00414254455181
 30
0.0
 40
0.2
 41
0.0
 46
0.0
 71
     7
 72
     1
  1
\C250;\c1776925;\FNetto Pro Light|b0|i0|c1;\H2.450315;\W1.000000;255
 73
     1
 44
1.0
  0
MTEXT
  5
230
330
70
100
AcDbEntity
  8
0
100
AcDbMText
 10
108.97657463111
 20
-19.00414254455181
 30
0.0
 40
0.2
 41
0.0
 46
0.0
 71
     7
 72
     1
  1
\C250;\c1776925;\FNetto Pro Light|b0|i0|c1;\H2.450315;\W1.000000;180
 73
     1
 44
1.0
  0
MTEXT
  5
231
330
70
100
AcDbEntity
  8
0
100
AcDbMText
 10
122.0310749533672
 20
-19.00414254455181
 30
0.0
 40
0.2
 41
0.0
 46
0.0
 71
     7
 72
     1
  1
\C250;\c1776925;\FNetto Pro Light|b0|i0|c1;\H2.450315;\W1.000000;121
 73
     1
 44
1.0
  0
MTEXT
  5
232
330
70
100
AcDbEntity
  8
0
100
AcDbMText
 10
135.4834838041707
 20
-19.00414254455181
 30
0.0
 40
0.2
 41
0.0
 46
0.0
 71
     7
 72
     1
  1
\C250;\c1776925;\FNetto Pro Light|b0|i0|c1;\H2.450315;\W1.000000;11
 73
     1
 44
1.0
  0
MTEXT
  5
233
330
70
100
AcDbEntity
  8
0
100
AcDbMText
 10
146.932225120753
 20
-19.00414254455181
 30
0.0
 40
0.2
 41
0.0
 46
0.0
 71
     7
 72
     1
  1
\C250;\c1776925;\FNetto Pro Light|b0|i0|c1;\H2.450315;\W1.000000;195
 73
     1
 44
1.0
  0
MTEXT
  5
234
330
70
100
AcDbEntity
  8
0
100
AcDbMText
 10
160.1837849047665
 20
-19.00414254455181
 30
0.0
 40
0.2
 41
0.0
 46
0.0
 71
     7
 72
     1
  1
\C250;\c1776925;\FNetto Pro Light|b0|i0|c1;\H2.450315;\W1.000000;40
 73
     1
 44
1.0
  0
MTEXT
  5
235
330
70
100
AcDbEntity
  8
0
100
AcDbMText
 10
68.79714372888535
 20
57.99619618131529
 30
0.0
 40
0.2
 41
0.0
 46
0.0
 71
     7
 72
     1
  1
\C250;\c1776925;\FNetto Pro|b0|i0|c1;\H2.360720;\W1.000000;235
 73
     1
 44
1.0
  0
MTEXT
  5
236
330
70
100
AcDbEntity
  8
0
100
AcDbMText
 10
80.95109609129826
 20
57.99619618131529
 30
0.0
 40
0.2
 41
0.0
 46
0.0
 71
     7
 72
     1
  1
\C250;\c1776925;\FNetto Pro|b0|i0|c1;\H2.360720;\W1.000000;125
 73
     1
 44
1.0
  0
MTEXT
  5
237
330
70
100
AcDbEntity
  8
0
100
AcDbMText
 10
93.10470394416263
 20
57.99619618131529
 30
0.0
 40
0.2
 41
0.0
 46
0.0
 71
     7
 72
     1
  1
\C250;\c1776925;\FNetto Pro|b0|i0|c1;\H2.360720;\W1.000000;165
 73
     1
 44
1.0
  0
MTEXT
  5
238
330
70
100
AcDbEntity
  8
0
100
AcDbMText
 10
104.7015843666106
 20
57.99619618131529
 30
0.0
 40
0.2
 41
0.0
 46
0.0
 71
     7
 72
     1
  1
\C250;\c1776925;\FNetto Pro|b0|i0|c1;\H2.360720;\W1.000000;150
 73
     1
 44
1.0
  0
MTEXT
  5
239
330
70
100
AcDbEntity
  8
0
100
AcDbMText
 10
119.3405861264801
 20
57.96026491199648
 30
0.0
 40
0.2
 41
0.0
 46
0.0
 71
     7
 72
     1
  1
\C250;\c1776925;\FNetto Pro|b0|i0|c1;\H2.360720;\W1.000000;95
 73
     1
 44
1.0
  0
MTEXT
  5
23A
330
70
100
AcDbEntity
  8
0
100
AcDbMText
 10
132.933452849136
 20
57.99619618131529
 30
0.0
 40
0.2
 41
0.0
 46
0.0
 71
     7
 72
     1
  1
\C250;\c1776925;\FNetto Pro|b0|i0|c1;\H2.360720;\W1.000000;7
 73
     1
 44
1.0
  0
MTEXT
  5
23B
330
70
100
AcDbEntity
  8
0
100
AcDbMText
 10
143.4868138491018
 20
57.99619618131529
 30
0.0
 40
0.2
 41
0.0
 46
0.0
 71
     7
 72
     1
  1
\C250;\c1776925;\FNetto Pro|b0|i0|c1;\H2.360720;\W1.000000;145
 73
     1
 44
1.0
  0
MTEXT
  5
23C
330
70
100
AcDbEntity
  8
0
100
AcDbMText
 10
153.8699871320963
 20
58.2528557949664
 30
0.0
 40
0.2
 41
0.0
 46
0.0
 71
     7
 72
     1
  1
\C250;\c1776925;\FNetto Pro|b0|i0|c1;\H2.360720;\W1.000000;14
 73
     1
 44
1.0
  0
MTEXT
  5
23D
330
70
100
AcDbEntity
  8
0
100
AcDbMText
 10
68.83665382664405
 20
44.20374564019418
 30
0.0
 40
0.2
 41
0.0
 46
0.0
 71
     7
 72
     1
  1
\C250;\c1776925;\FNetto Pro|b0|i0|c1;\H2.360720;\W1.000000;255
 73
     1
 44
1.0
  0
MTEXT
  5
23E
330
70
100
AcDbEntity
  8
0
100
AcDbMText
 10
80.99060618905694
 20
44.20374564019418
 30
0.0
 40
0.2
 41
0.0
 46
0.0
 71
     7
 72
     1
  1
\C250;\c1776925;\FNetto Pro|b0|i0|c1;\H2.360720;\W1.000000;125
 73
     1
 44
1.0
  0
MTEXT
  5
23F
330
70
100
AcDbEntity
  8
0
100
AcDbMText
 10
93.14421404192133
 20
44.20374564019418
 30
0.0
 40
0.2
 41
0.0
 46
0.0
 71
     7
 72
     1
  1
\C250;\c1776925;\FNetto Pro|b0|i0|c1;\H2.360720;\W1.000000;200
 73
     1
 44
1.0
  0
MTEXT
  5
240
330
70
100
AcDbEntity
  8
0
100
AcDbMText
 10
105.2981664043342
 20
44.20374564019418
 30
0.0
 40
0.2
 41
0.0
 46
0.0
 71
     7
 72
     1
  1
\C250;\c1776925;\FNetto Pro|b0|i0|c1;\H2.360720;\W1.000000;160
 73
     1
 44
1.0
  0
MTEXT
  5
241
330
70
100
AcDbEntity
  8
0
100
AcDbMText
 10
119.2490804877446
 20
43.89403155607022
 30
0.0
 40
0.2
 41
0.0
 46
0.0
 71
     7
 72
     1
  1
\C250;\c1776925;\FNetto Pro|b0|i0|c1;\H2.360720;\W1.000000;95
 73
     1
 44
1.0
  0
MTEXT
  5
242
330
70
100
AcDbEntity
  8
0
100
AcDbMText
 10
132.9729629468947
 20
44.20374564019418
 30
0.0
 40
0.2
 41
0.0
 46
0.0
 71
     7
 72
     1
  1
\C250;\c1776925;\FNetto Pro|b0|i0|c1;\H2.360720;\W1.000000;9
 73
     1
 44
1.0
  0
MTEXT
  5
243
330
70
100
AcDbEntity
  8
0
100
AcDbMText
 10
143.5263239468605
 20
44.20374564019418
 30
0.0
 40
0.2
 41
0.0
 46
0.0
 71
     7
 72
     1
  1
\C250;\c1776925;\FNetto Pro|b0|i0|c1;\H2.360720;\W1.000000;150
 73
     1
 44
1.0
  0
MTEXT
  5
244
330
70
100
AcDbEntity
  8
0
100
AcDbMText
 10
154.0216540123746
 20
44.2618385628142
 30
0.0
 40
0.2
 41
0.0
 46
0.0
 71
     7
 72
     1
  1
\C250;\c1776925;\FNetto Pro|b0|i0|c1;\H2.360720;\W1.000000;20
 73
     1
 44
1.0
  0
MTEXT
  5
245
330
70
100
AcDbEntity
  8
0
100
AcDbMText
 10
68.83844206334112
 20
37.71291121493701
 30
0.0
 40
0.2
 41
0.0
 46
0.0
 71
     7
 72
     1
  1
\C250;\c1776925;\FNetto Pro|b0|i0|c1;\H2.360720;\W1.000000;255
 73
     1
 44
1.0
  0
MTEXT
  5
246
330
70
100
AcDbEntity
  8
0
100
AcDbMText
 10
80.99239442575401
 20
37.71291121493701
 30
0.0
 40
0.2
 41
0.0
 46
0.0
 71
     7
 72
     1
  1
\C250;\c1776925;\FNetto Pro|b0|i0|c1;\H2.360720;\W1.000000;145
 73
     1
 44
1.0
  0
MTEXT
  5
247
330
70
100
AcDbEntity
  8
0
100
AcDbMText
 10
93.1460022786184
 20
37.71291121493701
 30
0.0
 40
0.2
 41
0.0
 46
0.0
 71
     7
 72
     1
  1
\C250;\c1776925;\FNetto Pro|b0|i0|c1;\H2.360720;\W1.000000;220
 73
     1
 44
1.0
  0
MTEXT
  5
248
330
70
100
AcDbEntity
  8
0
100
AcDbMText
 10
105.2999546410313
 20
37.71291121493701
 30
0.0
 40
0.2
 41
0.0
 46
0.0
 71
     7
 72
     1
  1
\C250;\c1776925;\FNetto Pro|b0|i0|c1;\H2.360720;\W1.000000;160
 73
     1
 44
1.0
  0
MTEXT
  5
249
330
70
100
AcDbEntity
  8
0
100
AcDbMText
 10
118.927029832937
 20
37.59956757347229
 30
0.0
 40
0.2
 41
0.0
 46
0.0
 71
     7
 72
     1
  1
\C250;\c1776925;\FNetto Pro|b0|i0|c1;\H2.360720;\W1.000000;115
 73
     1
 44
1.0
  0
MTEXT
  5
24A
330
70
100
AcDbEntity
  8
0
100
AcDbMText
 10
132.9747511835917
 20
37.71291121493701
 30
0.0
 40
0.2
 41
0.0
 46
0.0
 71
     7
 72
     1
  1
\C250;\c1776925;\FNetto Pro|b0|i0|c1;\H2.360720;\W1.000000;9
 73
     1
 44
1.0
  0
MTEXT
  5
24B
330
70
100
AcDbEntity
  8
0
100
AcDbMText
 10
143.5281121835576
 20
37.71291121493701
 30
0.0
 40
0.2
 41
0.0
 46
0.0
 71
     7
 72
     1
  1
\C250;\c1776925;\FNetto Pro|b0|i0|c1;\H2.360720;\W1.000000;175
 73
     1
 44
1.0
  0
MTEXT
  5
24C
330
70
100
AcDbEntity
  8
0
100
AcDbMText
 10
154.0234448564437
 20
37.77100413755704
 30
0.0
 40
0.2
 41
0.0
 46
0.0
 71
     7
 72
     1
  1
\C250;\c1776925;\FNetto Pro|b0|i0|c1;\H2.360720;\W1.000000;25
 73
     1
 44
1.0
  0
MTEXT
  5
24D
330
70
100
AcDbEntity
  8
0
100
AcDbMText
 10
68.99175554113686
 20
30.91601235358556
 30
0.0
 40
0.2
 41
0.0
 46
0.0
 71
     7
 72
     1
  1
\C250;\c1776925;\FNetto Pro|b0|i0|c1;\H2.360720;\W1.000000;255
 73
     1
 44
1.0
  0
MTEXT
  5
24E
330
70
100
AcDbEntity
  8
0
100
AcDbMText
 10
81.14570790354974
 20
30.91601235358556
 30
0.0
 40
0.2
 41
0.0
 46
0.0
 71
     7
 72
     1
  1
\C250;\c1776925;\FNetto Pro|b0|i0|c1;\H2.360720;\W1.000000;145
 73
     1
 44
1.0
  0
MTEXT
  5
24F
330
70
100
AcDbEntity
  8
0
100
AcDbMText
 10
93.29931575641413
 20
30.91601235358556
 30
0.0
 40
0.2
 41
0.0
 46
0.0
 71
     7
 72
     1
  1
\C250;\c1776925;\FNetto Pro|b0|i0|c1;\H2.360720;\W1.000000;240
 73
     1
 44
1.0
  0
MTEXT
  5
250
330
70
100
AcDbEntity
  8
0
100
AcDbMText
 10
105.453268118827
 20
30.91601235358556
 30
0.0
 40
0.2
 41
0.0
 46
0.0
 71
     7
 72
     1
  1
\C250;\c1776925;\FNetto Pro|b0|i0|c1;\H2.360720;\W1.000000;180
 73
     1
 44
1.0
  0
MTEXT
  5
251
330
70
100
AcDbEntity
  8
0
100
AcDbMText
 10
118.8536560278033
 20
31.01281953672109
 30
0.0
 40
0.2
 41
0.0
 46
0.0
 71
     7
 72
     1
  1
\C250;\c1776925;\FNetto Pro|b0|i0|c1;\H2.360720;\W1.000000;115
 73
     1
 44
1.0
  0
MTEXT
  5
252
330
70
100
AcDbEntity
  8
0
100
AcDbMText
 10
133.1280646613875
 20
30.91601235358556
 30
0.0
 40
0.2
 41
0.0
 46
0.0
 71
     7
 72
     1
  1
\C250;\c1776925;\FNetto Pro|b0|i0|c1;\H2.360720;\W1.000000;9
 73
     1
 44
1.0
  0
MTEXT
  5
253
330
70
100
AcDbEntity
  8
0
100
AcDbMText
 10
143.6814256613533
 20
30.91601235358556
 30
0.0
 40
0.2
 41
0.0
 46
0.0
 71
     7
 72
     1
  1
\C250;\c1776925;\FNetto Pro|b0|i0|c1;\H2.360720;\W1.000000;175
 73
     1
 44
1.0
  0
MTEXT
  5
254
330
70
100
AcDbEntity
  8
0
100
AcDbMText
 10
154.1767583342395
 20
30.97410527620559
 30
0.0
 40
0.2
 41
0.0
 46
0.0
 71
     7
 72
     1
  1
\C250;\c1776925;\FNetto Pro|b0|i0|c1;\H2.360720;\W1.000000;28
 73
     1
 44
1.0
  0
MTEXT
  5
255
330
70
100
AcDbEntity
  8
0
100
AcDbMText
 10
69.17800761387493
 20
24.63487658414619
 30
0.0
 40
0.2
 41
0.0
 46
0.0
 71
     7
 72
     1
  1
\C250;\c1776925;\FNetto Pro|b0|i0|c1;\H2.360720;\W1.000000;305
 73
     1
 44
1.0
  0
MTEXT
  5
256
330
70
100
AcDbEntity
  8
0
100
AcDbMText
 10
81.33195997628783
 20
24.63487658414619
 30
0.0
 40
0.2
 41
0.0
 46
0.0
 71
     7
 72
     1
  1
\C250;\c1776925;\FNetto Pro|b0|i0|c1;\H2.360720;\W1.000000;155
 73
     1
 44
1.0
  0
MTEXT
  5
257
330
70
100
AcDbEntity
  8
0
100
AcDbMText
 10
93.4855678291522
 20
24.63487658414619
 30
0.0
 40
0.2
 41
0.0
 46
0.0
 71
     7
 72
     1
  1
\C250;\c1776925;\FNetto Pro|b0|i0|c1;\H2.360720;\W1.000000;255
 73
     1
 44
1.0
  0
MTEXT
  5
258
330
70
100
AcDbEntity
  8
0
100
AcDbMText
 10
105.6395201915651
 20
24.63487658414619
 30
0.0
 40
0.2
 41
0.0
 46
0.0
 71
     7
 72
     1
  1
\C250;\c1776925;\FNetto Pro|b0|i0|c1;\H2.360720;\W1.000000;180
 73
     1
 44
1.0
  0
MTEXT
  5
259
330
70
100
AcDbEntity
  8
0
100
AcDbMText
 10
118.8059860329841
 20
24.71446905577885
 30
0.0
 40
0.2
 41
0.0
 46
0.0
 71
     7
 72
     1
  1
\C250;\c1776925;\FNetto Pro|b0|i0|c1;\H2.360720;\W1.000000;115
 73
     1
 44
1.0
  0
MTEXT
  5
25A
330
70
100
AcDbEntity
  8
0
100
AcDbMText
 10
133.3143167341256
 20
24.63487658414619
 30
0.0
 40
0.2
 41
0.0
 46
0.0
 71
     7
 72
     1
  1
\C250;\c1776925;\FNetto Pro|b0|i0|c1;\H2.360720;\W1.000000;11
 73
     1
 44
1.0
  0
MTEXT
  5
25B
330
70
100
AcDbEntity
  8
0
100
AcDbMText
 10
143.8676777340914
 20
24.63487658414619
 30
0.0
 40
0.2
 41
0.0
 46
0.0
 71
     7
 72
     1
  1
\C250;\c1776925;\FNetto Pro|b0|i0|c1;\H2.360720;\W1.000000;190
 73
     1
 44
1.0
  0
MTEXT
  5
25C
330
70
100
AcDbEntity
  8
0
100
AcDbMText
 10
154.3630104069775
 20
24.69296950676621
 30
0.0
 40
0.2
 41
0.0
 46
0.0
 71
     7
 72
     1
  1
\C250;\c1776925;\FNetto Pro|b0|i0|c1;\H2.360720;\W1.000000;31
 73
     1
 44
1.0
  0
LINE
  5
25E
330
70
100
AcDbEntity
  8
CENTRO
  6
AI-Linetype-0
 62
   250
420
  1907995
370
    25
100
AcDbLine
 10
172.8873054223318
 20
135.8355839769464
 30
0.0
 11
172.8873054223318
 21
132.9183662753682
 31
0.0
  0
LINE
  5
260
330
70
100
AcDbEntity
  8
CENTRO
  6
AI-Linetype-1
 62
   250
420
  1907995
370
    25
100
AcDbLine
 10
138.8873054223319
 20
135.8355839769464
 30
0.0
 11
138.8873054223319
 21
132.9183662753675
 31
0.0
  0
LINE
  5
262
330
70
100
AcDbEntity
  8
CENTRO
  6
AI-Linetype-2
 62
   250
420
  1907995
370
    25
100
AcDbLine
 10
142.0364969492119
 20
141.4163806320038
 30
0.0
 11
144.9215091224946
 21
141.4163806320038
 31
0.0
  0
LINE
  5
264
330
70
100
AcDbEntity
  8
CENTRO
  6
AI-Linetype-3
 62
   250
420
  1907995
370
    25
100
AcDbLine
 10
24.78470754615419
 20
131.5714395328169
 30
0.0
 11
24.78470754615419
 21
135.8355839769458
 31
0.0
  0
LINE
  5
266
330
70
100
AcDbEntity
  8
CENTRO
  6
AI-Linetype-4
 62
   250
420
  1907995
370
    25
100
AcDbLine
 10
98.78470754615392
 20
131.5714395328176
 30
0.0
 11
98.78470754615392
 21
135.8355839769458
 31
0.0
  0
LINE
  5
269
330
70
100
AcDbEntity
  8
LINE_025
 62
   250
420
  1907995
370
    25
100
AcDbLine
 10
148.6673054223321
 20
211.4837830725347
 30
0.0
 11
148.6673054223321
 21
196.6270539640135
 31
0.0
  0
LINE
  5
26A
330
70
100
AcDbEntity
  8
LINE_025
 62
   250
420
  1907995
370
    25
100
AcDbLine
 10
149.7773054223319
 20
211.4837830725347
 30
0.0
 11
149.7773054223319
 21
196.6270539640135
 31
0.0
  0
LINE
  5
26B
330
70
100
AcDbEntity
  8
LINE_025
 62
   250
420
  1907995
370
    25
100
AcDbLine
 10
150.8873054223323
 20
211.4837830725347
 30
0.0
 11
150.8873054223323
 21
196.6270539640135
 31
0.0
  0
LINE
  5
26C
330
70
100
AcDbEntity
  8
LINE_025
 62
   250
420
  1907995
370
    25
100
AcDbLine
 10
151.9973054223321
 20
211.4837830725347
 30
0.0
 11
151.9973054223321
 21
196.6270539640135
 31
0.0
  0
LINE
  5
26D
330
70
100
AcDbEntity
  8
LINE_025
 62
   250
420
  1907995
370
    25
100
AcDbLine
 10
153.1073054223318
 20
211.4837830725347
 30
0.0
 11
153.1073054223318
 21
196.6270539640135
 31
0.0
  0
LINE
  5
26E
330
70
100
AcDbEntity
  8
LINE_025
 62
   250
420
  1907995
370
    25
100
AcDbLine
 10
154.2173054223322
 20
211.4837830725347
 30
0.0
 11
154.2173054223322
 21
196.6270539640135
 31
0.0
  0
LINE
  5
26F
330
70
100
AcDbEntity
  8
LINE_025
 62
   250
420
  1907995
370
    25
100
AcDbLine
 10
155.3273054223319
 20
211.4837830725347
 30
0.0
 11
155.3273054223319
 21
196.6270539640135
 31
0.0
  0
LINE
  5
270
330
70
100
AcDbEntity
  8
LINE_025
 62
   250
420
  1907995
370
    25
100
AcDbLine
 10
156.4373054223323
 20
211.4837830725347
 30
0.0
 11
156.4373054223323
 21
196.6270539640135
 31
0.0
  0
LINE
  5
271
330
70
100
AcDbEntity
  8
LINE_025
 62
   250
420
  1907995
370
    25
100
AcDbLine
 10
157.5473054223321
 20
211.4837830725347
 30
0.0
 11
157.5473054223321
 21
196.6270539640135
 31
0.0
  0
LINE
  5
272
330
70
100
AcDbEntity
  8
LINE_025
 62
   250
420
  1907995
370
    25
100
AcDbLine
 10
158.6573054223318
 20
211.4837830725347
 30
0.0
 11
158.6573054223318
 21
196.6270539640135
 31
0.0
  0
LINE
  5
273
330
70
100
AcDbEntity
  8
LINE_025
 62
   250
420
  1907995
370
    25
100
AcDbLine
 10
159.7673054223322
 20
211.4837830725347
 30
0.0
 11
159.7673054223322
 21
196.6270539640135
 31
0.0
  0
LINE
  5
274
330
70
100
AcDbEntity
  8
LINE_025
 62
   250
420
  1907995
370
    25
100
AcDbLine
 10
160.877305422332
 20
211.4837830725347
 30
0.0
 11
160.877305422332
 21
196.6270539640135
 31
0.0
  0
LINE
  5
275
330
70
100
AcDbEntity
  8
LINE_025
 62
   250
420
  1907995
370
    25
100
AcDbLine
 10
161.9873054223324
 20
211.4837830725347
 30
0.0
 11
161.9873054223324
 21
196.6270539640135
 31
0.0
  0
LINE
  5
276
330
70
100
AcDbEntity
  8
LINE_025
 62
   250
420
  1907995
370
    25
100
AcDbLine
 10
163.0973054223321
 20
211.4837830725347
 30
0.0
 11
163.0973054223321
 21
196.6270539640135
 31
0.0
  0
LINE
  5
277
330
70
100
AcDbEntity
  8
LINE_025
 62
   250
420
  1907995
370
    25
100
AcDbLine
 10
148.6673054223321
 20
196.1271301164355
 30
0.0
 11
148.6673054223321
 21
191.1571569499489
 31
0.0
  0
LINE
  5
278
330
70
100
AcDbEntity
  8
LINE_025
 62
   250
420
  1907995
370
    25
100
AcDbLine
 10
149.7773054223313
 20
196.1271301164355
 30
0.0
 11
149.7773054223313
 21
191.1571569499489
 31
0.0
  0
LINE
  5
279
330
70
100
AcDbEntity
  8
LINE_025
 62
   250
420
  1907995
370
    25
100
AcDbLine
 10
150.8873054223317
 20
196.1271301164355
 30
0.0
 11
150.8873054223317
 21
191.1571569499489
 31
0.0
  0
LINE
  5
27A
330
70
100
AcDbEntity
  8
LINE_025
 62
   250
420
  1907995
370
    25
100
AcDbLine
 10
151.9973054223321
 20
196.1271301164355
 30
0.0
 11
151.9973054223321
 21
191.1571569499489
 31
0.0
  0
LINE
  5
27B
330
70
100
AcDbEntity
  8
LINE_025
 62
   250
420
  1907995
370
    25
100
AcDbLine
 10
153.1073054223318
 20
196.1271301164355
 30
0.0
 11
153.1073054223318
 21
191.1571569499489
 31
0.0
  0
LINE
  5
27C
330
70
100
AcDbEntity
  8
LINE_025
 62
   250
420
  1907995
370
    25
100
AcDbLine
 10
154.2173054223322
 20
196.1271301164355
 30
0.0
 11
154.2173054223322
 21
191.1571569499489
 31
0.0
  0
LINE
  5
27D
330
70
100
AcDbEntity
  8
LINE_025
 62
   250
420
  1907995
370
    25
100
AcDbLine
 10
155.3273054223319
 20
196.1271301164355
 30
0.0
 11
155.3273054223319
 21
191.1571569499489
 31
0.0
  0
LINE
  5
27E
330
70
100
AcDbEntity
  8
LINE_025
 62
   250
420
  1907995
370
    25
100
AcDbLine
 10
156.4373054223323
 20
196.1271301164355
 30
0.0
 11
156.4373054223323
 21
191.1571569499489
 31
0.0
  0
LINE
  5
27F
330
70
100
AcDbEntity
  8
LINE_025
 62
   250
420
  1907995
370
    25
100
AcDbLine
 10
157.5473054223321
 20
196.1271301164355
 30
0.0
 11
157.5473054223321
 21
191.1571569499489
 31
0.0
  0
LINE
  5
280
330
70
100
AcDbEntity
  8
LINE_025
 62
   250
420
  1907995
370
    25
100
AcDbLine
 10
158.6573054223325
 20
196.1271301164355
 30
0.0
 11
158.6573054223325
 21
191.1571569499489
 31
0.0
  0
LINE
  5
281
330
70
100
AcDbEntity
  8
LINE_025
 62
   250
420
  1907995
370
    25
100
AcDbLine
 10
159.7673054223316
 20
196.1271301164355
 30
0.0
 11
159.7673054223316
 21
191.1571569499489
 31
0.0
  0
LINE
  5
282
330
70
100
AcDbEntity
  8
LINE_025
 62
   250
420
  1907995
370
    25
100
AcDbLine
 10
160.877305422332
 20
196.1271301164355
 30
0.0
 11
160.877305422332
 21
191.1571569499489
 31
0.0
  0
LINE
  5
283
330
70
100
AcDbEntity
  8
LINE_025
 62
   250
420
  1907995
370
    25
100
AcDbLine
 10
161.9873054223324
 20
196.1271301164355
 30
0.0
 11
161.9873054223324
 21
191.1571569499489
 31
0.0
  0
LINE
  5
284
330
70
100
AcDbEntity
  8
LINE_025
 62
   250
420
  1907995
370
    25
100
AcDbLine
 10
163.0973054223327
 20
196.1271301164355
 30
0.0
 11
163.0973054223327
 21
191.1571569499489
 31
0.0
  0
CIRCLE
  5
285
330
70
100
AcDbEntity
  8
LINE_025
 62
   250
420
  1907995
370
    25
100
AcDbCircle
 10
28.38470754615423
 20
205.1755361620035
 30
0.0
 40
2.807374199096265
  0
CIRCLE
  5
286
330
70
100
AcDbEntity
  8
LINE_025
 62
   250
420
  1907995
370
    25
100
AcDbCircle
 10
28.38470754615432
 20
205.1755361620036
 30
0.0
 40
1.75460887443511
  0
LINE
  5
287
330
70
100
AcDbEntity
  8
LINE_025
 62
   250
420
  1907995
370
    25
100
AcDbLine
 10
29.39780860223063
 20
203.4667620615568
 30
0.0
 11
30.41090965830726
 21
205.2212373081005
 31
0.0
  0
LINE
  5
288
330
70
100
AcDbEntity
  8
LINE_025
 62
   250
420
  1907995
370
    25
100
AcDbLine
 10
30.41090965830726
 20
205.2212373081005
 30
0.0
 11
29.39780860223063
 21
206.9757125546444
 31
0.0
  0
LINE
  5
289
330
70
100
AcDbEntity
  8
LINE_025
 62
   250
420
  1907995
370
    25
100
AcDbLine
 10
27.37160649007769
 20
206.9757125546444
 30
0.0
 11
26.35850543400105
 21
205.2212373081005
 31
0.0
  0
LINE
  5
28A
330
70
100
AcDbEntity
  8
LINE_025
 62
   250
420
  1907995
370
    25
100
AcDbLine
 10
26.35850543400105
 20
205.2212373081005
 30
0.0
 11
27.37160649007769
 21
203.4667620615568
 31
0.0
  0
LINE
  5
28B
330
70
100
AcDbEntity
  8
LINE_025
 62
   250
420
  1907995
370
    25
100
AcDbLine
 10
29.39780860223063
 20
203.4667620615568
 30
0.0
 11
27.37160649007769
 21
203.4667620615568
 31
0.0
  0
LINE
  5
28C
330
70
100
AcDbEntity
  8
LINE_025
 62
   250
420
  1907995
370
    25
100
AcDbLine
 10
29.39780860223063
 20
206.9757125546444
 30
0.0
 11
27.37160649007769
 21
206.9757125546444
 31
0.0
  0
LINE
  5
28D
330
70
100
AcDbEntity
  8
LINE_025
 62
   250
420
  1907995
370
    25
100
AcDbLine
 10
144.5573054223316
 20
205.1755361620038
 30
0.0
 11
144.5573054223316
 21
207.5504706314242
 31
0.0
  0
LINE
  5
28E
330
70
100
AcDbEntity
  8
LINE_025
 62
   250
420
  1907995
370
    25
100
AcDbLine
 10
144.2952897285276
 20
205.1755361620038
 30
0.0
 11
144.2952897285276
 21
207.5504706314242
 31
0.0
  0
LINE
  5
28F
330
70
100
AcDbEntity
  8
LINE_025
 62
   250
420
  1907995
370
    25
100
AcDbLine
 10
144.1773569973994
 20
204.3761200560802
 30
0.0
 11
142.8033454996751
 21
204.3761200560802
 31
0.0
  0
LINE
  5
290
330
70
100
AcDbEntity
  8
LINE_025
 62
   250
420
  1907995
370
    25
100
AcDbLine
 10
142.6854127685469
 20
203.9764118646554
 30
0.0
 11
142.6854127685469
 21
206.3746604593519
 31
0.0
  0
LINE
  5
291
330
70
100
AcDbEntity
  8
LINE_025
 62
   250
420
  1907995
370
    25
100
AcDbLine
 10
144.1972817303682
 20
203.5767038116933
 30
0.0
 11
142.7834207667064
 21
203.5767038116933
 31
0.0
  0
LINE
  5
292
330
70
100
AcDbEntity
  8
LINE_025
 62
   250
420
  1907995
370
    25
100
AcDbLine
 10
144.1773569973994
 20
205.9749522679271
 30
0.0
 11
142.8033454996751
 21
205.9749522679271
 31
0.0
  0
LINE
  5
293
330
70
100
AcDbEntity
  8
LINE_025
 62
   250
420
  1907995
370
    25
100
AcDbLine
 10
144.1916533386877
 20
206.7743685123137
 30
0.0
 11
142.7890491583869
 21
206.7743685123137
 31
0.0
  0
LINE
  5
294
330
70
100
AcDbEntity
  8
LINE_025
 62
   250
420
  1907995
370
    25
100
AcDbLine
 10
144.2952897285276
 20
202.8006016925827
 30
0.0
 11
144.5573054223316
 21
202.8006016925827
 31
0.0
  0
LINE
  5
295
330
70
100
AcDbEntity
  8
LINE_025
 62
   250
420
  1907995
370
    25
100
AcDbLine
 10
144.2952897285276
 20
205.1755361620038
 30
0.0
 11
144.2952897285276
 21
202.8006016925827
 31
0.0
  0
LINE
  5
296
330
70
100
AcDbEntity
  8
LINE_025
 62
   250
420
  1907995
370
    25
100
AcDbLine
 10
144.5573054223316
 20
205.1755361620038
 30
0.0
 11
144.5573054223316
 21
202.8006016925827
 31
0.0
  0
LINE
  5
297
330
70
100
AcDbEntity
  8
LINE_025
 62
   250
420
  1907995
370
    25
100
AcDbLine
 10
144.2952897285276
 20
207.5504706314242
 30
0.0
 11
144.5573054223316
 21
207.5504706314242
 31
0.0
  0
SPLINE
  5
298
330
70
100
AcDbEntity
  8
LINE_025
 62
   250
420
  1907995
370
    25
100
AcDbSpline
210
0.0
220
0.0
230
1.0
 70
     8
 71
     3
 72
     8
 73
     4
 74
     0
 42
0.0000000001
 43
0.0000000001
 40
0.0
 40
0.0
 40
0.0
 40
0.0
 40
1.0
 40
1.0
 40
1.0
 40
1.0
 10
167.8385758412136
 20
204.33249645482
 30
0.0
 10
168.0044860642027
 20
204.8826747753762
 30
0.0
 10
168.0043703113901
 20
205.4695657147934
 30
0.0
 10
167.8382430773872
 20
206.0196785673719
 30
0.0
  0
LINE
  5
299
330
70
100
AcDbEntity
  8
LINE_025
 62
   250
420
  1907995
370
    25
100
AcDbLine
 10
169.396687164504
 20
203.9246693069526
 30
0.0
 11
169.396687164504
 21
206.4490955324985
 31
0.0
  0
LINE
  5
29A
330
70
100
AcDbEntity
  8
LINE_025
 62
   250
420
  1907995
370
    25
100
AcDbLine
 10
167.5543232175132
 20
202.839235332882
 30
0.0
 11
167.5543232175132
 21
207.511836991125
 31
0.0
  0
LINE
  5
29B
330
70
100
AcDbEntity
  8
LINE_025
 62
   250
420
  1907995
370
    25
100
AcDbLine
 10
167.217305422332
 20
202.839235332882
 30
0.0
 11
167.217305422332
 21
207.511836991125
 31
0.0
  0
SPLINE
  5
29C
330
70
100
AcDbEntity
  8
LINE_025
 62
   250
420
  1907995
370
    25
100
AcDbSpline
210
0.0
220
0.0
230
1.0
 70
     8
 71
     3
 72
     8
 73
     4
 74
     0
 42
0.0000000001
 43
0.0000000001
 40
0.0
 40
0.0
 40
0.0
 40
0.0
 40
1.0
 40
1.0
 40
1.0
 40
1.0
 10
167.838578634047
 20
203.4894658216659
 30
0.0
 10
168.0043718719374
 20
203.7460258468128
 30
0.0
 10
168.0043718719374
 20
204.0759266521193
 30
0.0
 10
167.838578634047
 20
204.3324866772662
 30
0.0
  0
LINE
  5
29D
330
70
100
AcDbEntity
  8
LINE_025
 62
   250
420
  1907995
370
    25
100
AcDbLine
 10
167.8385553009838
 20
203.4894563272932
 30
0.0
 11
169.2522475057206
 21
203.4894563272932
 31
0.0
  0
LINE
  5
29E
330
70
100
AcDbEntity
  8
LINE_025
 62
   250
420
  1907995
370
    25
100
AcDbLine
 10
167.217305422332
 20
202.839235332882
 30
0.0
 11
167.5543232175132
 21
202.839235332882
 31
0.0
  0
LINE
  5
29F
330
70
100
AcDbEntity
  8
LINE_025
 62
   250
420
  1907995
370
    25
100
AcDbLine
 10
167.5543232175132
 20
202.839235332882
 30
0.0
 11
167.8385553009838
 21
203.4894563272932
 31
0.0
  0
LINE
  5
2A0
330
70
100
AcDbEntity
  8
LINE_025
 62
   250
420
  1907995
370
    25
100
AcDbLine
 10
167.8385553009838
 20
204.3324963176578
 30
0.0
 11
169.2723189030231
 21
204.3324963176578
 31
0.0
  0
LINE
  5
2A1
330
70
100
AcDbEntity
  8
LINE_025
 62
   250
420
  1907995
370
    25
100
AcDbLine
 10
167.5543232175132
 20
207.511836991125
 30
0.0
 11
167.8385553009838
 21
206.8616159967144
 31
0.0
  0
LINE
  5
2A2
330
70
100
AcDbEntity
  8
LINE_025
 62
   250
420
  1907995
370
    25
100
AcDbLine
 10
167.8385553009838
 20
206.0185760063494
 30
0.0
 11
169.2723189030231
 21
206.0185760063494
 31
0.0
  0
LINE
  5
2A3
330
70
100
AcDbEntity
  8
LINE_025
 62
   250
420
  1907995
370
    25
100
AcDbLine
 10
167.8385553009838
 20
206.8616159967144
 30
0.0
 11
169.2708879566886
 21
206.8616159967144
 31
0.0
  0
SPLINE
  5
2A4
330
70
100
AcDbEntity
  8
LINE_025
 62
   250
420
  1907995
370
    25
100
AcDbSpline
210
0.0
220
0.0
230
1.0
 70
     8
 71
     3
 72
     8
 73
     4
 74
     0
 42
0.0000000001
 43
0.0000000001
 40
0.0
 40
0.0
 40
0.0
 40
0.0
 40
1.0
 40
1.0
 40
1.0
 40
1.0
 10
167.838578634047
 20
206.0185856467411
 30
0.0
 10
168.0043718719374
 20
206.275145671888
 30
0.0
 10
168.0043718719374
 20
206.6050464771945
 30
0.0
 10
167.838578634047
 20
206.8616065023414
 30
0.0
  0
LINE
  5
2A5
330
70
100
AcDbEntity
  8
LINE_025
 62
   250
420
  1907995
370
    25
100
AcDbLine
 10
167.217305422332
 20
207.511836991125
 30
0.0
 11
167.5543232175132
 21
207.511836991125
 31
0.0
  0
LINE
  5
2A6
330
70
100
AcDbEntity
  8
LINE_025
 62
   250
420
  1907995
370
    25
100
AcDbLine
 10
140.3739947591618
 20
205.9513970205674
 30
0.0
 11
140.7561933927398
 21
206.3335374434426
 31
0.0
  0
LINE
  5
2A7
330
70
100
AcDbEntity
  8
LINE_025
 62
   250
420
  1907995
370
    25
100
AcDbLine
 10
140.3739947591618
 20
204.3996753034395
 30
0.0
 11
140.7561933927398
 21
204.0175348805647
 31
0.0
  0
LINE
  5
2A8
330
70
100
AcDbEntity
  8
LINE_025
 62
   250
420
  1907995
370
    25
100
AcDbLine
 10
140.7561933927398
 20
206.3335374434426
 30
0.0
 11
142.6854127685469
 21
206.3335374434426
 31
0.0
  0
LINE
  5
2A9
330
70
100
AcDbEntity
  8
LINE_025
 62
   250
420
  1907995
370
    25
100
AcDbLine
 10
140.7561933927398
 20
204.0175348805647
 30
0.0
 11
142.6854127685469
 21
204.0175348805647
 31
0.0
  0
LINE
  5
2AA
330
70
100
AcDbEntity
  8
LINE_025
 62
   250
420
  1907995
370
    25
100
AcDbLine
 10
142.6854127685469
 20
203.9017839152559
 30
0.0
 11
142.6854127685469
 21
206.4391731515759
 31
0.0
  0
LINE
  5
2AB
330
70
100
AcDbEntity
  8
LINE_025
 62
   250
420
  1907995
370
    25
100
AcDbLine
 10
140.7561933927398
 20
204.0175348805647
 30
0.0
 11
140.7561933927398
 21
206.3335374434426
 31
0.0
  0
LINE
  5
2AC
330
70
100
AcDbEntity
  8
LINE_025
 62
   250
420
  1907995
370
    25
100
AcDbLine
 10
140.7561933927398
 20
204.3996753034395
 30
0.0
 11
142.6854127685469
 21
204.3996753034395
 31
0.0
  0
LINE
  5
2AD
330
70
100
AcDbEntity
  8
LINE_025
 62
   250
420
  1907995
370
    25
100
AcDbLine
 10
140.7561933927398
 20
205.9513970205674
 30
0.0
 11
142.6854127685469
 21
205.9513970205674
 31
0.0
  0
LINE
  5
2AE
330
70
100
AcDbEntity
  8
LINE_025
 62
   250
420
  1907995
370
    25
100
AcDbLine
 10
140.3739947591618
 20
204.3996753034395
 30
0.0
 11
140.3739947591618
 21
205.9513970205674
 31
0.0
  0
CIRCLE
  5
2AF
330
70
100
AcDbEntity
  8
LINE_025
 62
   250
420
  1907995
370
    25
100
AcDbCircle
 10
62.43786632998798
 20
205.1755361620035
 30
0.0
 40
2.807374199096145
  0
CIRCLE
  5
2B0
330
70
100
AcDbEntity
  8
LINE_025
 62
   250
420
  1907995
370
    25
100
AcDbCircle
 10
62.43786632998798
 20
205.1755361620036
 30
0.0
 40
1.75460887443511
  0
LINE
  5
2B1
330
70
100
AcDbEntity
  8
LINE_025
 62
   250
420
  1907995
370
    25
100
AcDbLine
 10
63.45096738606461
 20
203.4667620615568
 30
0.0
 11
64.46406844214124
 21
205.2212373081005
 31
0.0
  0
LINE
  5
2B2
330
70
100
AcDbEntity
  8
LINE_025
 62
   250
420
  1907995
370
    25
100
AcDbLine
 10
64.46406844214124
 20
205.2212373081005
 30
0.0
 11
63.45096738606461
 21
206.9757125546444
 31
0.0
  0
LINE
  5
2B3
330
70
100
AcDbEntity
  8
LINE_025
 62
   250
420
  1907995
370
    25
100
AcDbLine
 10
61.42476527391135
 20
206.9757125546444
 30
0.0
 11
60.41166421783504
 21
205.2212373081005
 31
0.0
  0
LINE
  5
2B4
330
70
100
AcDbEntity
  8
LINE_025
 62
   250
420
  1907995
370
    25
100
AcDbLine
 10
60.41166421783504
 20
205.2212373081005
 30
0.0
 11
61.42476527391135
 21
203.4667620615568
 31
0.0
  0
LINE
  5
2B5
330
70
100
AcDbEntity
  8
LINE_025
 62
   250
420
  1907995
370
    25
100
AcDbLine
 10
63.45096738606461
 20
203.4667620615568
 30
0.0
 11
61.42476527391135
 21
203.4667620615568
 31
0.0
  0
LINE
  5
2B6
330
70
100
AcDbEntity
  8
LINE_025
 62
   250
420
  1907995
370
    25
100
AcDbLine
 10
63.45096738606461
 20
206.9757125546444
 30
0.0
 11
61.42476527391135
 21
206.9757125546444
 31
0.0
  0
CIRCLE
  5
2B7
330
70
100
AcDbEntity
  8
LINE_025
 62
   250
420
  1907995
370
    25
100
AcDbCircle
 10
95.18470754615419
 20
205.1755361620035
 30
0.0
 40
2.807374199096185
  0
CIRCLE
  5
2B8
330
70
100
AcDbEntity
  8
LINE_025
 62
   250
420
  1907995
370
    25
100
AcDbCircle
 10
95.1847075461541
 20
205.1755361620036
 30
0.0
 40
1.75460887443511
  0
LINE
  5
2B9
330
70
100
AcDbEntity
  8
LINE_025
 62
   250
420
  1907995
370
    25
100
AcDbLine
 10
96.19780860223073
 20
203.4667620615568
 30
0.0
 11
97.21090965830738
 21
205.2212373081005
 31
0.0
  0
LINE
  5
2BA
330
70
100
AcDbEntity
  8
LINE_025
 62
   250
420
  1907995
370
    25
100
AcDbLine
 10
97.21090965830738
 20
205.2212373081005
 30
0.0
 11
96.19780860223073
 21
206.9757125546444
 31
0.0
  0
LINE
  5
2BB
330
70
100
AcDbEntity
  8
LINE_025
 62
   250
420
  1907995
370
    25
100
AcDbLine
 10
94.17160649007747
 20
206.9757125546444
 30
0.0
 11
93.15850543400117
 21
205.2212373081005
 31
0.0
  0
LINE
  5
2BC
330
70
100
AcDbEntity
  8
LINE_025
 62
   250
420
  1907995
370
    25
100
AcDbLine
 10
93.15850543400117
 20
205.2212373081005
 30
0.0
 11
94.17160649007747
 21
203.4667620615568
 31
0.0
  0
LINE
  5
2BD
330
70
100
AcDbEntity
  8
LINE_025
 62
   250
420
  1907995
370
    25
100
AcDbLine
 10
96.19780860223073
 20
203.4667620615568
 30
0.0
 11
94.17160649007747
 21
203.4667620615568
 31
0.0
  0
LINE
  5
2BE
330
70
100
AcDbEntity
  8
LINE_025
 62
   250
420
  1907995
370
    25
100
AcDbLine
 10
96.19780860223073
 20
206.9757125546444
 30
0.0
 11
94.17160649007747
 21
206.9757125546444
 31
0.0
  0
LINE
  5
2BF
330
70
100
AcDbEntity
  8
LINE_025
 62
   250
420
  1907995
370
    25
100
AcDbLine
 10
144.5573054223323
 20
141.4163806320038
 30
0.0
 11
144.5573054223323
 21
139.041446162583
 31
0.0
  0
LINE
  5
2C0
330
70
100
AcDbEntity
  8
LINE_025
 62
   250
420
  1907995
370
    25
100
AcDbLine
 10
144.2952897285276
 20
141.4163806320038
 30
0.0
 11
144.2952897285276
 21
139.041446162583
 31
0.0
  0
LINE
  5
2C1
330
70
100
AcDbEntity
  8
LINE_025
 62
   250
420
  1907995
370
    25
100
AcDbLine
 10
144.2952897285276
 20
139.041446162583
 30
0.0
 11
144.5573054223323
 21
139.041446162583
 31
0.0
  0
LINE
  5
2C2
330
70
100
AcDbEntity
  8
LINE_025
 62
   250
420
  1907995
370
    25
100
AcDbLine
 10
142.6854127685469
 20
140.217256334655
 30
0.0
 11
142.6854127685469
 21
142.6155049293518
 31
0.0
  0
SPLINE
  5
2C3
330
70
100
AcDbEntity
  8
LINE_025
 62
   250
420
  1907995
370
    25
100
AcDbSpline
210
0.0
220
0.0
230
1.0
 70
     8
 71
     3
 72
     8
 73
     4
 74
     0
 42
0.0000000001
 43
0.0000000001
 40
0.0
 40
0.0
 40
0.0
 40
0.0
 40
1.0
 40
1.0
 40
1.0
 40
1.0
 10
142.8033233739994
 20
143.0152039792344
 30
0.0
 10
142.6461092333965
 20
142.7719198478685
 30
0.0
 10
142.6461092333965
 20
142.4590900108352
 30
0.0
 10
142.8033233739994
 20
142.2158058794692
 30
0.0
  0
SPLINE
  5
2C4
330
70
100
AcDbEntity
  8
LINE_025
 62
   250
420
  1907995
370
    25
100
AcDbSpline
210
0.0
220
0.0
230
1.0
 70
     8
 71
     3
 72
     8
 73
     4
 74
     0
 42
0.0000000001
 43
0.0000000001
 40
0.0
 40
0.0
 40
0.0
 40
0.0
 40
1.0
 40
1.0
 40
1.0
 40
1.0
 10
142.8033260223151
 20
142.2157966078627
 30
0.0
 10
142.646108350624
 20
141.6944438363792
 30
0.0
 10
142.646108350624
 20
141.1383174276283
 30
0.0
 10
142.8033260223151
 20
140.6169646561448
 30
0.0
  0
LINE
  5
2C5
330
70
100
AcDbEntity
  8
LINE_025
 62
   250
420
  1907995
370
    25
100
AcDbLine
 10
142.6854127685469
 20
140.258379350565
 30
0.0
 11
142.6854127685469
 21
142.5743819134425
 31
0.0
  0
LINE
  5
2C6
330
70
100
AcDbEntity
  8
LINE_025
 62
   250
420
  1907995
370
    25
100
AcDbLine
 10
144.1773569973994
 20
143.0152129823136
 30
0.0
 11
142.8033454996751
 21
143.0152129823136
 31
0.0
  0
LINE
  5
2C7
330
70
100
AcDbEntity
  8
LINE_025
 62
   250
420
  1907995
370
    25
100
AcDbLine
 10
144.1773569973994
 20
142.2157967379274
 30
0.0
 11
142.8033454996751
 21
142.2157967379274
 31
0.0
  0
SPLINE
  5
2C8
330
70
100
AcDbEntity
  8
LINE_025
 62
   250
420
  1907995
370
    25
100
AcDbSpline
210
0.0
220
0.0
230
1.0
 70
     8
 71
     3
 72
     8
 73
     4
 74
     0
 42
0.0000000001
 43
0.0000000001
 40
0.0
 40
0.0
 40
0.0
 40
0.0
 40
1.0
 40
1.0
 40
1.0
 40
1.0
 10
144.1773764747594
 20
140.6169646561448
 30
0.0
 10
144.3345941464506
 20
141.1383174276283
 30
0.0
 10
144.3345941464506
 20
141.6944438363792
 30
0.0
 10
144.1773764747594
 20
142.2157966078627
 30
0.0
  0
SPLINE
  5
2C9
330
70
100
AcDbEntity
  8
LINE_025
 62
   250
420
  1907995
370
    25
100
AcDbSpline
210
0.0
220
0.0
230
1.0
 70
     8
 71
     3
 72
     8
 73
     4
 74
     0
 42
0.0000000001
 43
0.0000000001
 40
0.0
 40
0.0
 40
0.0
 40
0.0
 40
1.0
 40
1.0
 40
1.0
 40
1.0
 10
144.1773791230757
 20
142.2158058794692
 30
0.0
 10
144.3345932636787
 20
142.4590900108352
 30
0.0
 10
144.3345932636787
 20
142.7719198478685
 30
0.0
 10
144.1773791230757
 20
143.0152039792344
 30
0.0
  0
LINE
  5
2CA
330
70
100
AcDbEntity
  8
LINE_025
 62
   250
420
  1907995
370
    25
100
AcDbLine
 10
144.1773569973994
 20
140.6169645260801
 30
0.0
 11
142.8033454996751
 21
140.6169645260801
 31
0.0
  0
LINE
  5
2CB
330
70
100
AcDbEntity
  8
LINE_025
 62
   250
420
  1907995
370
    25
100
AcDbLine
 10
144.2952897285276
 20
143.7913151014245
 30
0.0
 11
144.5573054223323
 21
143.7913151014245
 31
0.0
  0
LINE
  5
2CC
330
70
100
AcDbEntity
  8
LINE_025
 62
   250
420
  1907995
370
    25
100
AcDbLine
 10
144.2952897285276
 20
141.4163806320038
 30
0.0
 11
144.2952897285276
 21
143.7913151014245
 31
0.0
  0
LINE
  5
2CD
330
70
100
AcDbEntity
  8
LINE_025
 62
   250
420
  1907995
370
    25
100
AcDbLine
 10
144.5573054223323
 20
141.4163806320038
 30
0.0
 11
144.5573054223323
 21
143.7913151014245
 31
0.0
  0
LINE
  5
2CE
330
70
100
AcDbEntity
  8
LINE_025
 62
   250
420
  1907995
370
    25
100
AcDbLine
 10
144.1773569973994
 20
139.8175482816932
 30
0.0
 11
142.8033454996751
 21
139.8175482816932
 31
0.0
  0
SPLINE
  5
2CF
330
70
100
AcDbEntity
  8
LINE_025
 62
   250
420
  1907995
370
    25
100
AcDbSpline
210
0.0
220
0.0
230
1.0
 70
     8
 71
     3
 72
     8
 73
     4
 74
     0
 42
0.0000000001
 43
0.0000000001
 40
0.0
 40
0.0
 40
0.0
 40
0.0
 40
1.0
 40
1.0
 40
1.0
 40
1.0
 10
142.8033233739994
 20
140.6169553845376
 30
0.0
 10
142.6461092333965
 20
140.3736712531717
 30
0.0
 10
142.6461092333965
 20
140.060841416139
 30
0.0
 10
142.8033233739994
 20
139.8175572847731
 30
0.0
  0
SPLINE
  5
2D0
330
70
100
AcDbEntity
  8
LINE_025
 62
   250
420
  1907995
370
    25
100
AcDbSpline
210
0.0
220
0.0
230
1.0
 70
     8
 71
     3
 72
     8
 73
     4
 74
     0
 42
0.0000000001
 43
0.0000000001
 40
0.0
 40
0.0
 40
0.0
 40
0.0
 40
1.0
 40
1.0
 40
1.0
 40
1.0
 10
144.1773791230757
 20
139.8175572847731
 30
0.0
 10
144.3345932636787
 20
140.060841416139
 30
0.0
 10
144.3345932636787
 20
140.3736712531717
 30
0.0
 10
144.1773791230757
 20
140.6169553845376
 30
0.0
  0
LINE
  5
2D1
330
70
100
AcDbEntity
  8
LINE_025
 62
   250
420
  1907995
370
    25
100
AcDbLine
 10
167.5543232175132
 20
139.0800798028823
 30
0.0
 11
167.8385553009838
 21
139.7303007972931
 31
0.0
  0
LINE
  5
2D2
330
70
100
AcDbEntity
  8
LINE_025
 62
   250
420
  1907995
370
    25
100
AcDbLine
 10
167.217305422332
 20
139.0800798028823
 30
0.0
 11
167.217305422332
 21
143.7526814611253
 31
0.0
  0
LINE
  5
2D3
330
70
100
AcDbEntity
  8
LINE_025
 62
   250
420
  1907995
370
    25
100
AcDbLine
 10
167.5543232175132
 20
139.0800798028823
 30
0.0
 11
167.5543232175132
 21
143.7526814611253
 31
0.0
  0
LINE
  5
2D4
330
70
100
AcDbEntity
  8
LINE_025
 62
   250
420
  1907995
370
    25
100
AcDbLine
 10
167.217305422332
 20
139.0800798028823
 30
0.0
 11
167.5543232175132
 21
139.0800798028823
 31
0.0
  0
LINE
  5
2D5
330
70
100
AcDbEntity
  8
LINE_025
 62
   250
420
  1907995
370
    25
100
AcDbLine
 10
167.217305422332
 20
143.7526814611253
 30
0.0
 11
167.5543232175132
 21
143.7526814611253
 31
0.0
  0
SPLINE
  5
2D6
330
70
100
AcDbEntity
  8
LINE_025
 62
   250
420
  1907995
370
    25
100
AcDbSpline
210
0.0
220
0.0
230
1.0
 70
     8
 71
     3
 72
     8
 73
     4
 74
     0
 42
0.0000000001
 43
0.0000000001
 40
0.0
 40
0.0
 40
0.0
 40
0.0
 40
1.0
 40
1.0
 40
1.0
 40
1.0
 10
167.838578634047
 20
142.2594301167413
 30
0.0
 10
168.0043718719374
 20
142.5159901418882
 30
0.0
 10
168.0043718719374
 20
142.8458909471945
 30
0.0
 10
167.838578634047
 20
143.1024509723413
 30
0.0
  0
LINE
  5
2D7
330
70
100
AcDbEntity
  8
LINE_025
 62
   250
420
  1907995
370
    25
100
AcDbLine
 10
167.8385553009838
 20
143.1024604667143
 30
0.0
 11
169.2723189030231
 21
143.1024604667143
 31
0.0
  0
LINE
  5
2D8
330
70
100
AcDbEntity
  8
LINE_025
 62
   250
420
  1907995
370
    25
100
AcDbLine
 10
167.8385553009838
 20
142.2594204763497
 30
0.0
 11
169.2723189030231
 21
142.2594204763497
 31
0.0
  0
LINE
  5
2D9
330
70
100
AcDbEntity
  8
LINE_025
 62
   250
420
  1907995
370
    25
100
AcDbLine
 10
167.5543232175132
 20
143.7526814611253
 30
0.0
 11
167.8385553009838
 21
143.1024604667143
 31
0.0
  0
SPLINE
  5
2DA
330
70
100
AcDbEntity
  8
LINE_025
 62
   250
420
  1907995
370
    25
100
AcDbSpline
210
0.0
220
0.0
230
1.0
 70
     8
 71
     3
 72
     8
 73
     4
 74
     0
 42
0.0000000001
 43
0.0000000001
 40
0.0
 40
0.0
 40
0.0
 40
0.0
 40
1.0
 40
1.0
 40
1.0
 40
1.0
 10
169.2723422360864
 20
142.2594301167413
 30
0.0
 10
169.4381354739767
 20
142.5159901418882
 30
0.0
 10
169.4381354739767
 20
142.8458909471945
 30
0.0
 10
169.2723422360864
 20
143.1024509723413
 30
0.0
  0
LINE
  5
2DB
330
70
100
AcDbEntity
  8
LINE_025
 62
   250
420
  1907995
370
    25
100
AcDbLine
 10
167.8385553009838
 20
140.5733407876577
 30
0.0
 11
169.2723189030231
 21
140.5733407876577
 31
0.0
  0
LINE
  5
2DC
330
70
100
AcDbEntity
  8
LINE_025
 62
   250
420
  1907995
370
    25
100
AcDbLine
 10
169.396687164504
 20
140.1518207194661
 30
0.0
 11
169.396687164504
 21
142.6809405445414
 31
0.0
  0
SPLINE
  5
2DD
330
70
100
AcDbEntity
  8
LINE_025
 62
   250
420
  1907995
370
    25
100
AcDbSpline
210
0.0
220
0.0
230
1.0
 70
     8
 71
     3
 72
     8
 73
     4
 74
     0
 42
0.0000000001
 43
0.0000000001
 40
0.0
 40
0.0
 40
0.0
 40
0.0
 40
1.0
 40
1.0
 40
1.0
 40
1.0
 10
169.2690611828585
 20
140.5625453118098
 30
0.0
 10
169.4392291583862
 20
141.1190549081268
 30
0.0
 10
169.4392291583862
 20
141.7137063558807
 30
0.0
 10
169.2690611828585
 20
142.2702159521977
 30
0.0
  0
SPLINE
  5
2DE
330
70
100
AcDbEntity
  8
LINE_025
 62
   250
420
  1907995
370
    25
100
AcDbSpline
210
0.0
220
0.0
230
1.0
 70
     8
 71
     3
 72
     8
 73
     4
 74
     0
 42
0.0000000001
 43
0.0000000001
 40
0.0
 40
0.0
 40
0.0
 40
0.0
 40
1.0
 40
1.0
 40
1.0
 40
1.0
 10
167.8385758412136
 20
140.5733409248196
 30
0.0
 10
168.0060840405015
 20
141.1288183276171
 30
0.0
 10
168.0043179835016
 20
141.7215934958088
 30
0.0
 10
167.833502915051
 20
142.2760632379996
 30
0.0
  0
LINE
  5
2DF
330
70
100
AcDbEntity
  8
LINE_025
 62
   250
420
  1907995
370
    25
100
AcDbLine
 10
167.8385553009838
 20
139.7303007972931
 30
0.0
 11
169.2723189030231
 21
139.7303007972931
 31
0.0
  0
SPLINE
  5
2E0
330
70
100
AcDbEntity
  8
LINE_025
 62
   250
420
  1907995
370
    25
100
AcDbSpline
210
0.0
220
0.0
230
1.0
 70
     8
 71
     3
 72
     8
 73
     4
 74
     0
 42
0.0000000001
 43
0.0000000001
 40
0.0
 40
0.0
 40
0.0
 40
0.0
 40
1.0
 40
1.0
 40
1.0
 40
1.0
 10
169.2723422360864
 20
139.7303102916662
 30
0.0
 10
169.4381354739767
 20
139.986870316813
 30
0.0
 10
169.4381354739767
 20
140.3167711221193
 30
0.0
 10
169.2723422360864
 20
140.5733311472661
 30
0.0
  0
SPLINE
  5
2E1
330
70
100
AcDbEntity
  8
LINE_025
 62
   250
420
  1907995
370
    25
100
AcDbSpline
210
0.0
220
0.0
230
1.0
 70
     8
 71
     3
 72
     8
 73
     4
 74
     0
 42
0.0000000001
 43
0.0000000001
 40
0.0
 40
0.0
 40
0.0
 40
0.0
 40
1.0
 40
1.0
 40
1.0
 40
1.0
 10
167.838578634047
 20
139.7303102916662
 30
0.0
 10
168.0043718719374
 20
139.986870316813
 30
0.0
 10
168.0043718719374
 20
140.3167711221193
 30
0.0
 10
167.838578634047
 20
140.5733311472661
 30
0.0
  0
CIRCLE
  5
2E2
330
70
100
AcDbEntity
  8
LINE_025
 62
   250
420
  1907995
370
    25
100
AcDbCircle
 10
95.18470754615419
 20
141.4163806320038
 30
0.0
 40
2.807374199096024
  0
CIRCLE
  5
2E3
330
70
100
AcDbEntity
  8
LINE_025
 62
   250
420
  1907995
370
    25
100
AcDbCircle
 10
95.1847075461541
 20
141.4163806320038
 30
0.0
 40
1.75460887443515
  0
LINE
  5
2E4
330
70
100
AcDbEntity
  8
LINE_025
 62
   250
420
  1907995
370
    25
100
AcDbLine
 10
96.19780860223073
 20
139.7076065315567
 30
0.0
 11
97.21090965830738
 21
141.4620817781007
 31
0.0
  0
LINE
  5
2E5
330
70
100
AcDbEntity
  8
LINE_025
 62
   250
420
  1907995
370
    25
100
AcDbLine
 10
97.21090965830738
 20
141.4620817781007
 30
0.0
 11
96.19780860223073
 21
143.2165570246447
 31
0.0
  0
LINE
  5
2E6
330
70
100
AcDbEntity
  8
LINE_025
 62
   250
420
  1907995
370
    25
100
AcDbLine
 10
94.17160649007747
 20
143.2165570246447
 30
0.0
 11
93.15850543400117
 21
141.4620817781007
 31
0.0
  0
LINE
  5
2E7
330
70
100
AcDbEntity
  8
LINE_025
 62
   250
420
  1907995
370
    25
100
AcDbLine
 10
93.15850543400117
 20
141.4620817781007
 30
0.0
 11
94.17160649007747
 21
139.7076065315567
 31
0.0
  0
LINE
  5
2E8
330
70
100
AcDbEntity
  8
LINE_025
 62
   250
420
  1907995
370
    25
100
AcDbLine
 10
96.19780860223073
 20
139.7076065315567
 30
0.0
 11
94.17160649007747
 21
139.7076065315567
 31
0.0
  0
LINE
  5
2E9
330
70
100
AcDbEntity
  8
LINE_025
 62
   250
420
  1907995
370
    25
100
AcDbLine
 10
96.19780860223073
 20
143.2165570246447
 30
0.0
 11
94.17160649007747
 21
143.2165570246447
 31
0.0
  0
CIRCLE
  5
2EA
330
70
100
AcDbEntity
  8
LINE_025
 62
   250
420
  1907995
370
    25
100
AcDbCircle
 10
62.43786632998798
 20
141.4163806320038
 30
0.0
 40
2.807374199095984
  0
CIRCLE
  5
2EB
330
70
100
AcDbEntity
  8
LINE_025
 62
   250
420
  1907995
370
    25
100
AcDbCircle
 10
62.43786632998798
 20
141.4163806320038
 30
0.0
 40
1.75460887443515
  0
LINE
  5
2EC
330
70
100
AcDbEntity
  8
LINE_025
 62
   250
420
  1907995
370
    25
100
AcDbLine
 10
63.45096738606461
 20
139.7076065315567
 30
0.0
 11
64.46406844214124
 21
141.4620817781007
 31
0.0
  0
LINE
  5
2ED
330
70
100
AcDbEntity
  8
LINE_025
 62
   250
420
  1907995
370
    25
100
AcDbLine
 10
64.46406844214124
 20
141.4620817781007
 30
0.0
 11
63.45096738606461
 21
143.2165570246447
 31
0.0
  0
LINE
  5
2EE
330
70
100
AcDbEntity
  8
LINE_025
 62
   250
420
  1907995
370
    25
100
AcDbLine
 10
61.42476527391135
 20
143.2165570246447
 30
0.0
 11
60.41166421783504
 21
141.4620817781007
 31
0.0
  0
LINE
  5
2EF
330
70
100
AcDbEntity
  8
LINE_025
 62
   250
420
  1907995
370
    25
100
AcDbLine
 10
60.41166421783504
 20
141.4620817781007
 30
0.0
 11
61.42476527391135
 21
139.7076065315567
 31
0.0
  0
LINE
  5
2F0
330
70
100
AcDbEntity
  8
LINE_025
 62
   250
420
  1907995
370
    25
100
AcDbLine
 10
63.45096738606461
 20
139.7076065315567
 30
0.0
 11
61.42476527391135
 21
139.7076065315567
 31
0.0
  0
LINE
  5
2F1
330
70
100
AcDbEntity
  8
LINE_025
 62
   250
420
  1907995
370
    25
100
AcDbLine
 10
63.45096738606461
 20
143.2165570246447
 30
0.0
 11
61.42476527391135
 21
143.2165570246447
 31
0.0
  0
CIRCLE
  5
2F2
330
70
100
AcDbEntity
  8
LINE_025
 62
   250
420
  1907995
370
    25
100
AcDbCircle
 10
28.38470754615423
 20
141.4163806320038
 30
0.0
 40
2.807374199096105
  0
CIRCLE
  5
2F3
330
70
100
AcDbEntity
  8
LINE_025
 62
   250
420
  1907995
370
    25
100
AcDbCircle
 10
28.38470754615432
 20
141.4163806320038
 30
0.0
 40
1.75460887443515
  0
LINE
  5
2F4
330
70
100
AcDbEntity
  8
LINE_025
 62
   250
420
  1907995
370
    25
100
AcDbLine
 10
29.39780860223063
 20
139.7076065315567
 30
0.0
 11
30.41090965830726
 21
141.4620817781007
 31
0.0
  0
LINE
  5
2F5
330
70
100
AcDbEntity
  8
LINE_025
 62
   250
420
  1907995
370
    25
100
AcDbLine
 10
30.41090965830726
 20
141.4620817781007
 30
0.0
 11
29.39780860223063
 21
143.2165570246447
 31
0.0
  0
LINE
  5
2F6
330
70
100
AcDbEntity
  8
LINE_025
 62
   250
420
  1907995
370
    25
100
AcDbLine
 10
27.37160649007769
 20
143.2165570246447
 30
0.0
 11
26.35850543400105
 21
141.4620817781007
 31
0.0
  0
LINE
  5
2F7
330
70
100
AcDbEntity
  8
LINE_025
 62
   250
420
  1907995
370
    25
100
AcDbLine
 10
26.35850543400105
 20
141.4620817781007
 30
0.0
 11
27.37160649007769
 21
139.7076065315567
 31
0.0
  0
LINE
  5
2F8
330
70
100
AcDbEntity
  8
LINE_025
 62
   250
420
  1907995
370
    25
100
AcDbLine
 10
29.39780860223063
 20
139.7076065315567
 30
0.0
 11
27.37160649007769
 21
139.7076065315567
 31
0.0
  0
LINE
  5
2F9
330
70
100
AcDbEntity
  8
LINE_025
 62
   250
420
  1907995
370
    25
100
AcDbLine
 10
29.39780860223063
 20
143.2165570246447
 30
0.0
 11
27.37160649007769
 21
143.2165570246447
 31
0.0
  0
SPLINE
  5
2FA
330
70
100
AcDbEntity
  8
LINE_025
 62
   250
420
  1907995
370
    25
100
AcDbSpline
210
0.0
220
0.0
230
1.0
 70
     8
 71
     3
 72
     8
 73
     4
 74
     0
 42
0.0000000001
 43
0.0000000001
 40
0.0
 40
0.0
 40
0.0
 40
0.0
 40
1.0
 40
1.0
 40
1.0
 40
1.0
 10
169.2723189030231
 20
204.3324963176578
 30
0.0
 10
169.4381432516642
 20
204.8822951047768
 30
0.0
 10
169.4381432516642
 20
205.4687772192305
 30
0.0
 10
169.2723189030231
 20
206.0185760063494
 30
0.0
  0
SPLINE
  5
2FB
330
70
100
AcDbEntity
  8
LINE_025
 62
   250
420
  1907995
370
    25
100
AcDbSpline
210
0.0
220
0.0
230
1.0
 70
     8
 71
     3
 72
     8
 73
     4
 74
     0
 42
0.0000000001
 43
0.0000000001
 40
0.0
 40
0.0
 40
0.0
 40
0.0
 40
1.0
 40
1.0
 40
1.0
 40
1.0
 10
142.8033454996751
 20
205.9749522679271
 30
0.0
 10
142.6461018581704
 20
205.453603237525
 30
0.0
 10
142.6461018581704
 20
204.8974690864823
 30
0.0
 10
142.8033454996751
 20
204.3761200560798
 30
0.0
  0
SPLINE
  5
2FC
330
70
100
AcDbEntity
  8
LINE_025
 62
   250
420
  1907995
370
    25
100
AcDbSpline
210
0.0
220
0.0
230
1.0
 70
     8
 71
     3
 72
     8
 73
     4
 74
     0
 42
0.0000000001
 43
0.0000000001
 40
0.0
 40
0.0
 40
0.0
 40
0.0
 40
1.0
 40
1.0
 40
1.0
 40
1.0
 10
144.1773791230751
 20
204.3761109145377
 30
0.0
 10
144.3345941656643
 20
204.8974673644383
 30
0.0
 10
144.3345932444938
 20
205.4535962086274
 30
0.0
 10
144.1773764747594
 20
205.9749521378627
 30
0.0
  0
SPLINE
  5
2FD
330
70
100
AcDbEntity
  8
LINE_025
 62
   250
420
  1907995
370
    25
100
AcDbSpline
210
0.0
220
0.0
230
1.0
 70
     8
 71
     3
 72
     8
 73
     4
 74
     0
 42
0.0000000001
 43
0.0000000001
 40
0.0
 40
0.0
 40
0.0
 40
0.0
 40
1.0
 40
1.0
 40
1.0
 40
1.0
 10
142.7890491583869
 20
206.7743685123137
 30
0.0
 10
142.643458778738
 20
206.5263117972944
 30
0.0
 10
142.6489787900368
 20
206.2176463413996
 30
0.0
 10
142.8033454996751
 20
205.9749522679271
 30
0.0
  0
SPLINE
  5
2FE
330
70
100
AcDbEntity
  8
LINE_025
 62
   250
420
  1907995
370
    25
100
AcDbSpline
210
0.0
220
0.0
230
1.0
 70
     8
 71
     3
 72
     8
 73
     4
 74
     0
 42
0.0000000001
 43
0.0000000001
 40
0.0
 40
0.0
 40
0.0
 40
0.0
 40
1.0
 40
1.0
 40
1.0
 40
1.0
 10
142.8033454996751
 20
204.3761200560798
 30
0.0
 10
142.650710248325
 20
204.1334262689212
 30
0.0
 10
142.6430653189308
 20
203.8266979050197
 30
0.0
 10
142.7834207667064
 20
203.5767038116933
 30
0.0
  0
SPLINE
  5
2FF
330
70
100
AcDbEntity
  8
LINE_025
 62
   250
420
  1907995
370
    25
100
AcDbSpline
210
0.0
220
0.0
230
1.0
 70
     8
 71
     3
 72
     8
 73
     4
 74
     0
 42
0.0000000001
 43
0.0000000001
 40
0.0
 40
0.0
 40
0.0
 40
0.0
 40
1.0
 40
1.0
 40
1.0
 40
1.0
 10
144.1773569973994
 20
205.9749522679271
 30
0.0
 10
144.3317237070377
 20
206.2176463413996
 30
0.0
 10
144.3372437183365
 20
206.5263117972944
 30
0.0
 10
144.1916533386877
 20
206.7743685123137
 30
0.0
  0
SPLINE
  5
300
330
70
100
AcDbEntity
  8
LINE_025
 62
   250
420
  1907995
370
    25
100
AcDbSpline
210
0.0
220
0.0
230
1.0
 70
     8
 71
     3
 72
     8
 73
     4
 74
     0
 42
0.0000000001
 43
0.0000000001
 40
0.0
 40
0.0
 40
0.0
 40
0.0
 40
1.0
 40
1.0
 40
1.0
 40
1.0
 10
144.1773569973994
 20
204.3761200560798
 30
0.0
 10
144.3346006389035
 20
204.8974690864823
 30
0.0
 10
144.3346006389035
 20
205.453603237525
 30
0.0
 10
144.1773569973994
 20
205.9749522679271
 30
0.0
  0
SPLINE
  5
301
330
70
100
AcDbEntity
  8
LINE_025
 62
   250
420
  1907995
370
    25
100
AcDbSpline
210
0.0
220
0.0
230
1.0
 70
     8
 71
     3
 72
     8
 73
     4
 74
     0
 42
0.0000000001
 43
0.0000000001
 40
0.0
 40
0.0
 40
0.0
 40
0.0
 40
1.0
 40
1.0
 40
1.0
 40
1.0
 10
144.1972817303682
 20
203.5767038116933
 30
0.0
 10
144.3376371781431
 20
203.8266979050197
 30
0.0
 10
144.3299922487495
 20
204.1334262689212
 30
0.0
 10
144.1773569973994
 20
204.3761200560798
 30
0.0
  0
SPLINE
  5
302
330
70
100
AcDbEntity
  8
LINE_025
 62
   250
420
  1907995
370
    25
100
AcDbSpline
210
0.0
220
0.0
230
1.0
 70
     8
 71
     3
 72
     8
 73
     4
 74
     0
 42
0.0000000001
 43
0.0000000001
 40
0.0
 40
0.0
 40
0.0
 40
0.0
 40
1.0
 40
1.0
 40
1.0
 40
1.0
 10
169.2723189030231
 20
206.0185760063494
 30
0.0
 10
169.4387487988634
 20
206.2751090684549
 30
0.0
 10
169.4381877516677
 20
206.6056492230745
 30
0.0
 10
169.2708879566886
 20
206.8616159967141
 30
0.0
  0
SPLINE
  5
303
330
70
100
AcDbEntity
  8
LINE_025
 62
   250
420
  1907995
370
    25
100
AcDbSpline
210
0.0
220
0.0
230
1.0
 70
     8
 71
     3
 72
     8
 73
     4
 74
     0
 42
0.0000000001
 43
0.0000000001
 40
0.0
 40
0.0
 40
0.0
 40
0.0
 40
1.0
 40
1.0
 40
1.0
 40
1.0
 10
169.2522475057238
 20
203.4894563272977
 30
0.0
 10
169.437190061556
 20
203.7377370129788
 30
0.0
 10
169.445236361484
 20
204.0756981679919
 30
0.0
 10
169.2723189030231
 20
204.3324963176578
 30
0.0
  0
LINE
  5
304
330
70
100
AcDbEntity
  8
LINE_025
 62
   250
420
  1907995
370
    25
100
AcDbLine
 10
148.6673054223321
 20
149.8051421369168
 30
0.0
 11
148.6673054223321
 21
136.2500760952297
 31
0.0
  0
LINE
  5
305
330
70
100
AcDbEntity
  8
LINE_025
 62
   250
420
  1907995
370
    25
100
AcDbLine
 10
149.7773054223319
 20
149.8051421369168
 30
0.0
 11
149.7773054223319
 21
136.2500760952297
 31
0.0
  0
LINE
  5
306
330
70
100
AcDbEntity
  8
LINE_025
 62
   250
420
  1907995
370
    25
100
AcDbLine
 10
150.8873054223323
 20
149.8051421369168
 30
0.0
 11
150.8873054223323
 21
136.2500760952297
 31
0.0
  0
LINE
  5
307
330
70
100
AcDbEntity
  8
LINE_025
 62
   250
420
  1907995
370
    25
100
AcDbLine
 10
151.9973054223321
 20
149.8051421369168
 30
0.0
 11
151.9973054223321
 21
136.2500760952297
 31
0.0
  0
LINE
  5
308
330
70
100
AcDbEntity
  8
LINE_025
 62
   250
420
  1907995
370
    25
100
AcDbLine
 10
153.1073054223325
 20
149.8051421369168
 30
0.0
 11
153.1073054223318
 21
136.2500760952297
 31
0.0
  0
LINE
  5
309
330
70
100
AcDbEntity
  8
LINE_025
 62
   250
420
  1907995
370
    25
100
AcDbLine
 10
154.2173054223322
 20
149.8051421369168
 30
0.0
 11
154.2173054223322
 21
136.2500760952297
 31
0.0
  0
LINE
  5
30A
330
70
100
AcDbEntity
  8
LINE_025
 62
   250
420
  1907995
370
    25
100
AcDbLine
 10
155.3273054223319
 20
149.8051421369168
 30
0.0
 11
155.3273054223319
 21
136.2500760952297
 31
0.0
  0
LINE
  5
30B
330
70
100
AcDbEntity
  8
LINE_025
 62
   250
420
  1907995
370
    25
100
AcDbLine
 10
156.4373054223323
 20
149.8051421369168
 30
0.0
 11
156.4373054223323
 21
136.2500760952297
 31
0.0
  0
LINE
  5
30C
330
70
100
AcDbEntity
  8
LINE_025
 62
   250
420
  1907995
370
    25
100
AcDbLine
 10
157.5473054223321
 20
149.8051421369168
 30
0.0
 11
157.5473054223321
 21
136.2500760952297
 31
0.0
  0
LINE
  5
30D
330
70
100
AcDbEntity
  8
LINE_025
 62
   250
420
  1907995
370
    25
100
AcDbLine
 10
158.6573054223318
 20
149.8051421369168
 30
0.0
 11
158.6573054223318
 21
136.2500760952297
 31
0.0
  0
LINE
  5
30E
330
70
100
AcDbEntity
  8
LINE_025
 62
   250
420
  1907995
370
    25
100
AcDbLine
 10
159.7673054223322
 20
149.8051421369168
 30
0.0
 11
159.7673054223322
 21
136.2500760952297
 31
0.0
  0
LINE
  5
30F
330
70
100
AcDbEntity
  8
LINE_025
 62
   250
420
  1907995
370
    25
100
AcDbLine
 10
160.877305422332
 20
149.8051421369168
 30
0.0
 11
160.877305422332
 21
136.2500760952297
 31
0.0
  0
LINE
  5
310
330
70
100
AcDbEntity
  8
LINE_025
 62
   250
420
  1907995
370
    25
100
AcDbLine
 10
161.9873054223324
 20
149.8051421369168
 30
0.0
 11
161.9873054223324
 21
136.2500760952297
 31
0.0
  0
LINE
  5
311
330
70
100
AcDbEntity
  8
LINE_025
 62
   250
420
  1907995
370
    25
100
AcDbLine
 10
163.0973054223321
 20
149.8051421369168
 30
0.0
 11
163.0973054223321
 21
136.2500760952297
 31
0.0
  0
LINE
  5
312
330
70
100
AcDbEntity
  8
LINE_025
 62
   250
420
  1907995
370
    25
100
AcDbLine
 10
140.7561933927405
 20
140.6405197734394
 30
0.0
 11
142.6854127685469
 21
140.6405197734394
 31
0.0
  0
LINE
  5
313
330
70
100
AcDbEntity
  8
LINE_025
 62
   250
420
  1907995
370
    25
100
AcDbLine
 10
140.7561933927405
 20
140.258379350565
 30
0.0
 11
142.6854127685469
 21
140.258379350565
 31
0.0
  0
LINE
  5
314
330
70
100
AcDbEntity
  8
LINE_025
 62
   250
420
  1907995
370
    25
100
AcDbLine
 10
140.3739947591624
 20
140.6405197734394
 30
0.0
 11
140.3739947591624
 21
142.192241490568
 31
0.0
  0
LINE
  5
315
330
70
100
AcDbEntity
  8
LINE_025
 62
   250
420
  1907995
370
    25
100
AcDbLine
 10
140.7561933927405
 20
140.258379350565
 30
0.0
 11
140.7561933927405
 21
142.5743819134425
 31
0.0
  0
LINE
  5
316
330
70
100
AcDbEntity
  8
LINE_025
 62
   250
420
  1907995
370
    25
100
AcDbLine
 10
140.3739947591624
 20
140.6405197734394
 30
0.0
 11
140.7561933927405
 21
140.258379350565
 31
0.0
  0
LINE
  5
317
330
70
100
AcDbEntity
  8
LINE_025
 62
   250
420
  1907995
370
    25
100
AcDbLine
 10
140.7561933927405
 20
142.192241490568
 30
0.0
 11
142.6854127685469
 21
142.192241490568
 31
0.0
  0
LINE
  5
318
330
70
100
AcDbEntity
  8
LINE_025
 62
   250
420
  1907995
370
    25
100
AcDbLine
 10
140.7561933927405
 20
142.5743819134425
 30
0.0
 11
142.6854127685469
 21
142.5743819134425
 31
0.0
  0
LINE
  5
319
330
70
100
AcDbEntity
  8
LINE_025
 62
   250
420
  1907995
370
    25
100
AcDbLine
 10
140.3739947591624
 20
142.192241490568
 30
0.0
 11
140.7561933927405
 21
142.5743819134425
 31
0.0
  0
LINE
  5
31A
330
70
100
AcDbEntity
  8
LINE_025
 62
   250
420
  1907995
370
    25
100
AcDbLine
 10
148.6673054223321
 20
154.5027404455156
 30
0.0
 11
148.6673054223321
 21
150.3050659844952
 31
0.0
  0
LINE
  5
31B
330
70
100
AcDbEntity
  8
LINE_025
 62
   250
420
  1907995
370
    25
100
AcDbLine
 10
149.7773054223319
 20
154.5027404455156
 30
0.0
 11
149.7773054223319
 21
150.3050659844952
 31
0.0
  0
LINE
  5
31C
330
70
100
AcDbEntity
  8
LINE_025
 62
   250
420
  1907995
370
    25
100
AcDbLine
 10
150.8873054223323
 20
154.5027404455156
 30
0.0
 11
150.8873054223323
 21
150.3050659844952
 31
0.0
  0
LINE
  5
31D
330
70
100
AcDbEntity
  8
LINE_025
 62
   250
420
  1907995
370
    25
100
AcDbLine
 10
151.9973054223321
 20
154.5027404455156
 30
0.0
 11
151.9973054223321
 21
150.3050659844952
 31
0.0
  0
LINE
  5
31E
330
70
100
AcDbEntity
  8
LINE_025
 62
   250
420
  1907995
370
    25
100
AcDbLine
 10
153.1073054223318
 20
154.5027404455156
 30
0.0
 11
153.1073054223325
 21
150.3050659844952
 31
0.0
  0
LINE
  5
31F
330
70
100
AcDbEntity
  8
LINE_025
 62
   250
420
  1907995
370
    25
100
AcDbLine
 10
154.2173054223322
 20
154.5027404455156
 30
0.0
 11
154.2173054223322
 21
150.3050659844952
 31
0.0
  0
LINE
  5
320
330
70
100
AcDbEntity
  8
LINE_025
 62
   250
420
  1907995
370
    25
100
AcDbLine
 10
155.3273054223319
 20
154.5027404455156
 30
0.0
 11
155.3273054223319
 21
150.3050659844952
 31
0.0
  0
LINE
  5
321
330
70
100
AcDbEntity
  8
LINE_025
 62
   250
420
  1907995
370
    25
100
AcDbLine
 10
156.4373054223323
 20
154.5027404455156
 30
0.0
 11
156.4373054223323
 21
150.3050659844952
 31
0.0
  0
LINE
  5
322
330
70
100
AcDbEntity
  8
LINE_025
 62
   250
420
  1907995
370
    25
100
AcDbLine
 10
157.5473054223321
 20
154.5027404455156
 30
0.0
 11
157.5473054223321
 21
150.3050659844952
 31
0.0
  0
LINE
  5
323
330
70
100
AcDbEntity
  8
LINE_025
 62
   250
420
  1907995
370
    25
100
AcDbLine
 10
158.6573054223318
 20
154.5027404455156
 30
0.0
 11
158.6573054223318
 21
150.3050659844952
 31
0.0
  0
LINE
  5
324
330
70
100
AcDbEntity
  8
LINE_025
 62
   250
420
  1907995
370
    25
100
AcDbLine
 10
159.7673054223322
 20
154.5027404455156
 30
0.0
 11
159.7673054223322
 21
150.3050659844952
 31
0.0
  0
LINE
  5
325
330
70
100
AcDbEntity
  8
LINE_025
 62
   250
420
  1907995
370
    25
100
AcDbLine
 10
160.877305422332
 20
154.5027404455156
 30
0.0
 11
160.877305422332
 21
150.3050659844952
 31
0.0
  0
LINE
  5
326
330
70
100
AcDbEntity
  8
LINE_025
 62
   250
420
  1907995
370
    25
100
AcDbLine
 10
161.9873054223324
 20
154.5027404455156
 30
0.0
 11
161.9873054223324
 21
150.3050659844952
 31
0.0
  0
LINE
  5
327
330
70
100
AcDbEntity
  8
LINE_025
 62
   250
420
  1907995
370
    25
100
AcDbLine
 10
163.0973054223321
 20
154.5027404455156
 30
0.0
 11
163.0973054223321
 21
150.3050659844952
 31
0.0
  0
LINE
  5
329
330
70
100
AcDbEntity
  8
TEXTO
 62
   250
420
  1907995
370
    25
100
AcDbLine
 10
53.56600958099427
 20
201.7654826562778
 30
0.0
 11
36.82469284844316
 21
201.7654826562778
 31
0.0
  0
LINE
  5
32A
330
70
100
AcDbEntity
  8
TEXTO
 62
   250
420
  1907995
370
    25
100
AcDbLine
 10
40.48583314108671
 20
202.7940903983437
 30
0.0
 11
48.36039541640633
 21
202.7940903983437
 31
0.0
  0
LINE
  5
32B
330
70
100
AcDbEntity
  8
TEXTO
 62
   250
420
  1907995
370
    25
100
AcDbLine
 10
39.61087858120908
 20
206.0722008613824
 30
0.0
 11
50.76651206669228
 21
206.0722008613824
 31
0.0
  0
LINE
  5
32C
330
70
100
AcDbEntity
  8
TEXTO
 62
   250
420
  1907995
370
    25
100
AcDbLine
 10
40.70457058257375
 20
203.8867929442556
 30
0.0
 11
49.67282485925771
 21
203.8867929442556
 31
0.0
  0
LINE
  5
32D
330
70
100
AcDbEntity
  8
TEXTO
 62
   250
420
  1907995
370
    25
100
AcDbLine
 10
40.48583314108671
 20
204.9794954901679
 30
0.0
 11
49.67282485925771
 21
204.9794954901679
 31
0.0
  0
LINE
  5
32E
330
70
100
AcDbEntity
  8
TEXTO
 62
   250
420
  1907995
370
    25
100
AcDbLine
 10
36.82469284844316
 20
207.9188070244361
 30
0.0
 11
53.56600958099427
 21
207.9188070244361
 31
0.0
  0
LINE
  5
32F
330
70
100
AcDbEntity
  8
TEXTO
 62
   250
420
  1907995
370
    25
100
AcDbLine
 10
53.56600958099427
 20
207.9188070244361
 30
0.0
 11
53.56600958099427
 21
201.7654826562778
 31
0.0
  0
LINE
  5
330
330
70
100
AcDbEntity
  8
TEXTO
 62
   250
420
  1907995
370
    25
100
AcDbLine
 10
36.82469284844316
 20
201.7654826562778
 30
0.0
 11
36.82469284844316
 21
207.9188070244361
 31
0.0
  0
LINE
  5
331
330
70
100
AcDbEntity
  8
TEXTO
 62
   250
420
  1907995
370
    25
100
AcDbLine
 10
138.2223054223323
 20
191.1571569499489
 30
0.0
 11
138.2223054223323
 21
195.64543059948
 31
0.0
  0
ENDSEC
  0
SECTION
  2
OBJECTS
  0
DICTIONARY
  5
C
330
0
100
AcDbDictionary
281
     1
  3
ACAD_COLOR
350
63
  3
ACAD_DETAILVIEWSTYLE
350
6A
  3
ACAD_GROUP
350
D
  3
ACAD_LAYOUT
350
62
  3
ACAD_MATERIAL
350
10
  3
ACAD_MLEADERSTYLE
350
66
  3
ACAD_MLINESTYLE
350
5F
  3
ACAD_PLOTSETTINGS
350
61
  3
ACAD_PLOTSTYLENAME
350
E
  3
ACAD_SCALELIST
350
42
  3
ACAD_SECTIONVIEWSTYLE
350
68
  3
ACAD_TABLESTYLE
350
64
  3
ACAD_VISUALSTYLE
350
29
  3
ACDB_RECOMPOSE_DATA
350
33C
  3
AcDbVariableDictionary
350
332
  0
DICTIONARY
  5
63
102
{ACAD_REACTORS
330
C
102
}
330
C
100
AcDbDictionary
281
     1
  0
DICTIONARY
  5
6A
102
{ACAD_REACTORS
330
C
102
}
330
C
100
AcDbDictionary
281
     1
  3
Imperial24
350
6B
  0
DICTIONARY
  5
D
102
{ACAD_REACTORS
330
C
102
}
330
C
100
AcDbDictionary
281
     1
  0
DICTIONARY
  5
62
102
{ACAD_REACTORS
330
C
102
}
330
C
100
AcDbDictionary
281
     1
  3
Layout1
350
6F
  3
Layout2
350
77
  3
Model
350
73
  0
DICTIONARY
  5
10
102
{ACAD_REACTORS
330
C
102
}
330
C
100
AcDbDictionary
281
     1
  3
ByBlock
350
19
  3
ByLayer
350
11
  3
Global
350
21
  0
DICTIONARY
  5
66
102
{ACAD_REACTORS
330
C
102
}
330
C
100
AcDbDictionary
281
     1
  3
Standard
350
67
  0
DICTIONARY
  5
5F
102
{ACAD_REACTORS
330
C
102
}
330
C
100
AcDbDictionary
281
     1
  3
Standard
350
60
  0
DICTIONARY
  5
61
102
{ACAD_REACTORS
330
C
102
}
330
C
100
AcDbDictionary
281
     1
  0
ACDBDICTIONARYWDFLT
  5
E
102
{ACAD_REACTORS
330
C
102
}
330
C
100
AcDbDictionary
281
     1
  3
Normal
350
F
100
AcDbDictionaryWithDefault
340
F
  0
DICTIONARY
  5
42
102
{ACAD_REACTORS
330
C
102
}
330
C
100
AcDbDictionary
281
     1
  3
A0
350
43
  3
A1
350
44
  3
A2
350
45
  3
A3
350
46
  3
A4
350
47
  3
A5
350
48
  3
A6
350
49
  3
A7
350
4A
  3
A8
350
4B
  3
A9
350
4C
  3
B0
350
4D
  3
B1
350
4E
  3
B2
350
4F
  3
B3
350
50
  3
B4
350
51
  3
B5
350
52
  3
B6
350
53
  0
DICTIONARY
  5
68
102
{ACAD_REACTORS
330
C
102
}
330
C
100
AcDbDictionary
281
     1
  3
Imperial24
350
69
  0
DICTIONARY
  5
64
102
{ACAD_REACTORS
330
C
102
}
330
C
100
AcDbDictionary
281
     1
  3
Standard
350
65
  0
DICTIONARY
  5
29
102
{ACAD_REACTORS
330
C
102
}
330
C
100
AcDbDictionary
281
     1
  3
2dWireframe
350
2F
  3
Basic
350
2E
  3
Brighten
350
35
  3
ColorChange
350
39
  3
Conceptual
350
32
  3
Dim
350
34
  3
EdgeColorOff
350
41
  3
Facepattern
350
38
  3
Flat
350
2A
  3
FlatWithEdges
350
2B
  3
Gouraud
350
2C
  3
GouraudWithEdges
350
2D
  3
Hidden
350
31
  3
JitterOff
350
3F
  3
Linepattern
350
37
  3
OverhangOff
350
40
  3
Realistic
350
33
  3
Shaded
350
3E
  3
Shaded with edges
350
3D
  3
Shades of Gray
350
3A
  3
Sketchy
350
3B
  3
Thicken
350
36
  3
Wireframe
350
30
  3
X-Ray
350
3C
  0
XRECORD
  5
33C
102
{ACAD_REACTORS
330
C
102
}
330
C
100
AcDbXrecord
280
     1
 90
        1
330
65
  0
DICTIONARY
  5
332
102
{ACAD_REACTORS
330
C
102
}
330
C
100
AcDbDictionary
281
     1
  3
CANNOSCALE
350
337
  3
CMLEADERSTYLE
350
334
  3
CTABLESTYLE
350
333
  3
CVIEWDETAILSTYLE
350
335
  3
CVIEWSECTIONSTYLE
350
336
  0
ACDBDETAILVIEWSTYLE
  5
6B
102
{ACAD_XDICTIONARY
360
33F
102
}
102
{ACAD_REACTORS
330
6A
102
}
330
6A
100
AcDbModelDocViewStyle
 70
     0
  3
Imperial24
290
     0
100
AcDbDetailViewStyle
 70
     0
 71
     0
 90
        3
 71
     1
340
55
 62
   256
 40
0.24
340
0
 62
   256
 40
0.24
300

 40
0.36
280
     3
 71
     2
340
5D
 90
       25
 62
   256
 71
     3
340
55
 62
   256
 40
0.24
 90
        1
 40
0.75
 90
        1
300
%<\AcVar ViewType \f "%tc1">% %<\AcVar ViewDetailId>%\PSCALE %<\AcVar ViewScale \f "%sn">%
 71
     4
340
5D
 90
       25
 62
   256
340
5D
 90
       25
 62
   256
280
     0
  0
LAYOUT
  5
6F
102
{ACAD_REACTORS
330
62
102
}
330
62
100
AcDbPlotSettings
  1

  2

  4

  6

 40
0.0
 41
0.0
 42
0.0
 43
0.0
 44
0.0
 45
0.0
 46
0.0
 47
0.0
 48
0.0
 49
0.0
140
0.0
141
0.0
142
1.0
143
1.0
 70
   688
 72
     0
 73
     0
 74
     5
  7

 75
    16
147
1.0
 76
     0
 77
     2
 78
   300
148
0.0
149
0.0
100
AcDbLayout
  1
Layout1
 70
     1
 71
     1
 10
0.0
 20
0.0
 11
12.0
 21
9.0
 12
0.0
 22
0.0
 32
0.0
 14
0.0
 24
0.0
 34
0.0
 15
0.0
 25
0.0
 35
0.0
146
0.0
 13
0.0
 23
0.0
 33
0.0
 16
1.0
 26
0.0
 36
0.0
 17
0.0
 27
1.0
 37
0.0
 76
     0
330
6C
  0
LAYOUT
  5
77
102
{ACAD_REACTORS
330
62
102
}
330
62
100
AcDbPlotSettings
  1

  2

  4

  6

 40
0.0
 41
0.0
 42
0.0
 43
0.0
 44
0.0
 45
0.0
 46
0.0
 47
0.0
 48
0.0
 49
0.0
140
0.0
141
0.0
142
1.0
143
1.0
 70
   688
 72
     0
 73
     0
 74
     5
  7

 75
    16
147
1.0
 76
     0
 77
     2
 78
   300
148
0.0
149
0.0
100
AcDbLayout
  1
Layout2
 70
     1
 71
     2
 10
0.0
 20
0.0
 11
12.0
 21
9.0
 12
0.0
 22
0.0
 32
0.0
 14
0.0
 24
0.0
 34
0.0
 15
0.0
 25
0.0
 35
0.0
146
0.0
 13
0.0
 23
0.0
 33
0.0
 16
1.0
 26
0.0
 36
0.0
 17
0.0
 27
1.0
 37
0.0
 76
     0
330
74
  0
LAYOUT
  5
73
102
{ACAD_REACTORS
330
62
102
}
330
62
100
AcDbPlotSettings
  1

  2

  4

  6

 40
0.0
 41
0.0
 42
0.0
 43
0.0
 44
0.0
 45
0.0
 46
0.0
 47
0.0
 48
0.0
 49
0.0
140
0.0
141
0.0
142
1.0
143
1.0
 70
  1712
 72
     0
 73
     0
 74
     0
  7

 75
     0
147
1.0
 76
     0
 77
     2
 78
   300
148
0.0
149
0.0
100
AcDbLayout
  1
Model
 70
     1
 71
     0
 10
0.0
 20
0.0
 11
12.0
 21
9.0
 12
0.0
 22
0.0
 32
0.0
 14
0.0
 24
0.0
 34
0.0
 15
0.0
 25
0.0
 35
0.0
146
0.0
 13
0.0
 23
0.0
 33
0.0
 16
1.0
 26
0.0
 36
0.0
 17
0.0
 27
1.0
 37
0.0
 76
     0
330
70
  0
MATERIAL
  5
19
102
{ACAD_XDICTIONARY
360
1A
102
}
102
{ACAD_REACTORS
330
10
102
}
330
10
100
AcDbMaterial
  1
ByBlock
 72
     0
 43
0.0208333333333333
 43
0.0
 43
0.0
 43
0.0
 43
0.0
 43
0.0208333333333333
 43
0.0
 43
0.0
 43
0.0
 43
0.0
 43
1.0
 43
0.0
 43
0.0
 43
0.0
 43
0.0
 43
1.0
 77
     0
 47
0.0208333333333333
 47
0.0
 47
0.0
 47
0.0
 47
0.0
 47
0.0208333333333333
 47
0.0
 47
0.0
 47
0.0
 47
0.0
 47
1.0
 47
0.0
 47
0.0
 47
0.0
 47
0.0
 47
1.0
171
     0
 49
0.0208333333333333
 49
0.0
 49
0.0
 49
0.0
 49
0.0
 49
0.0208333333333333
 49
0.0
 49
0.0
 49
0.0
 49
0.0
 49
1.0
 49
0.0
 49
0.0
 49
0.0
 49
0.0
 49
1.0
175
     0
142
0.0208333333333333
142
0.0
142
0.0
142
0.0
142
0.0
142
0.0208333333333333
142
0.0
142
0.0
142
0.0
142
0.0
142
1.0
142
0.0
142
0.0
142
0.0
142
0.0
142
1.0
179
     0
144
0.0208333333333333
144
0.0
144
0.0
144
0.0
144
0.0
144
0.0208333333333333
144
0.0
144
0.0
144
0.0
144
0.0
144
1.0
144
0.0
144
0.0
144
0.0
144
0.0
144
1.0
147
0.0208333333333333
147
0.0
147
0.0
147
0.0
147
0.0
147
0.0208333333333333
147
0.0
147
0.0
147
0.0
147
0.0
147
1.0
147
0.0
147
0.0
147
0.0
147
0.0
147
1.0
  0
MATERIAL
  5
11
102
{ACAD_XDICTIONARY
360
12
102
}
102
{ACAD_REACTORS
330
10
102
}
330
10
100
AcDbMaterial
  1
ByLayer
 72
     0
 43
0.0208333333333333
 43
0.0
 43
0.0
 43
0.0
 43
0.0
 43
0.0208333333333333
 43
0.0
 43
0.0
 43
0.0
 43
0.0
 43
1.0
 43
0.0
 43
0.0
 43
0.0
 43
0.0
 43
1.0
 77
     0
 47
0.0208333333333333
 47
0.0
 47
0.0
 47
0.0
 47
0.0
 47
0.0208333333333333
 47
0.0
 47
0.0
 47
0.0
 47
0.0
 47
1.0
 47
0.0
 47
0.0
 47
0.0
 47
0.0
 47
1.0
171
     0
 49
0.0208333333333333
 49
0.0
 49
0.0
 49
0.0
 49
0.0
 49
0.0208333333333333
 49
0.0
 49
0.0
 49
0.0
 49
0.0
 49
1.0
 49
0.0
 49
0.0
 49
0.0
 49
0.0
 49
1.0
175
     0
142
0.0208333333333333
142
0.0
142
0.0
142
0.0
142
0.0
142
0.0208333333333333
142
0.0
142
0.0
142
0.0
142
0.0
142
1.0
142
0.0
142
0.0
142
0.0
142
0.0
142
1.0
179
     0
144
0.0208333333333333
144
0.0
144
0.0
144
0.0
144
0.0
144
0.0208333333333333
144
0.0
144
0.0
144
0.0
144
0.0
144
1.0
144
0.0
144
0.0
144
0.0
144
0.0
144
1.0
147
0.0208333333333333
147
0.0
147
0.0
147
0.0
147
0.0
147
0.0208333333333333
147
0.0
147
0.0
147
0.0
147
0.0
147
1.0
147
0.0
147
0.0
147
0.0
147
0.0
147
1.0
  0
MATERIAL
  5
21
102
{ACAD_XDICTIONARY
360
22
102
}
102
{ACAD_REACTORS
330
10
102
}
330
10
100
AcDbMaterial
  1
Global
 72
     0
 43
0.0208333333333333
 43
0.0
 43
0.0
 43
0.0
 43
0.0
 43
0.0208333333333333
 43
0.0
 43
0.0
 43
0.0
 43
0.0
 43
1.0
 43
0.0
 43
0.0
 43
0.0
 43
0.0
 43
1.0
 77
     0
 47
0.0208333333333333
 47
0.0
 47
0.0
 47
0.0
 47
0.0
 47
0.0208333333333333
 47
0.0
 47
0.0
 47
0.0
 47
0.0
 47
1.0
 47
0.0
 47
0.0
 47
0.0
 47
0.0
 47
1.0
171
     0
 49
0.0208333333333333
 49
0.0
 49
0.0
 49
0.0
 49
0.0
 49
0.0208333333333333
 49
0.0
 49
0.0
 49
0.0
 49
0.0
 49
1.0
 49
0.0
 49
0.0
 49
0.0
 49
0.0
 49
1.0
175
     0
142
0.0208333333333333
142
0.0
142
0.0
142
0.0
142
0.0
142
0.0208333333333333
142
0.0
142
0.0
142
0.0
142
0.0
142
1.0
142
0.0
142
0.0
142
0.0
142
0.0
142
1.0
179
     0
144
0.0208333333333333
144
0.0
144
0.0
144
0.0
144
0.0
144
0.0208333333333333
144
0.0
144
0.0
144
0.0
144
0.0
144
1.0
144
0.0
144
0.0
144
0.0
144
0.0
144
1.0
147
0.0208333333333333
147
0.0
147
0.0
147
0.0
147
0.0
147
0.0208333333333333
147
0.0
147
0.0
147
0.0
147
0.0
147
1.0
147
0.0
147
0.0
147
0.0
147
0.0
147
1.0
  0
MLEADERSTYLE
  5
67
102
{ACAD_REACTORS
330
66
102
}
330
66
100
AcDbMLeaderStyle
179
     2
170
     2
171
     1
172
     0
 90
        2
 40
0.0
 41
0.0
173
     1
 91
-1056964608
340
5B
 92
       -2
290
     1
 42
0.09
291
     1
 43
0.36
  3
Standard
 44
0.18
300

342
55
174
     1
178
     6
175
     1
176
     0
 93
-1056964608
 45
0.18
292
     0
297
     0
 46
0.18
 94
-1056964608
 47
1.0
 49
1.0
140
1.0
293
     1
141
0.0
294
     1
177
     0
142
1.0
295
     0
296
     0
143
0.125
271
     0
272
     9
273
     9
298
     1
  0
MLINESTYLE
  5
60
102
{ACAD_REACTORS
330
5F
102
}
330
5F
100
AcDbMlineStyle
  2
STANDARD
 70
     0
  3

 62
   256
 51
90.0
 52
90.0
 71
     2
 49
0.5
 62
   256
  6
BYLAYER
 49
-0.5
 62
   256
  6
BYLAYER
  0
ACDBPLACEHOLDER
  5
F
102
{ACAD_REACTORS
330
E
102
}
330
E
  0
SCALE
  5
43
102
{ACAD_REACTORS
330
42
102
}
330
42
100
AcDbScale
 70
     0
300
1:1
140
1.0
141
1.0
290
     1
  0
SCALE
  5
44
102
{ACAD_REACTORS
330
42
102
}
330
42
100
AcDbScale
 70
     0
300
1/128" = 1'-0"
140
0.0078125
141
12.0
290
     0
  0
SCALE
  5
45
102
{ACAD_REACTORS
330
42
102
}
330
42
100
AcDbScale
 70
     0
300
1/64" = 1'-0"
140
0.015625
141
12.0
290
     0
  0
SCALE
  5
46
102
{ACAD_REACTORS
330
42
102
}
330
42
100
AcDbScale
 70
     0
300
1/32" = 1'-0"
140
0.03125
141
12.0
290
     0
  0
SCALE
  5
47
102
{ACAD_REACTORS
330
42
102
}
330
42
100
AcDbScale
 70
     0
300
1/16" = 1'-0"
140
0.0625
141
12.0
290
     0
  0
SCALE
  5
48
102
{ACAD_REACTORS
330
42
102
}
330
42
100
AcDbScale
 70
     0
300
3/32" = 1'-0"
140
0.09375
141
12.0
290
     0
  0
SCALE
  5
49
102
{ACAD_REACTORS
330
42
102
}
330
42
100
AcDbScale
 70
     0
300
1/8" = 1'-0"
140
0.125
141
12.0
290
     0
  0
SCALE
  5
4A
102
{ACAD_REACTORS
330
42
102
}
330
42
100
AcDbScale
 70
     0
300
3/16" = 1'-0"
140
0.1875
141
12.0
290
     0
  0
SCALE
  5
4B
102
{ACAD_REACTORS
330
42
102
}
330
42
100
AcDbScale
 70
     0
300
1/4" = 1'-0"
140
0.25
141
12.0
290
     0
  0
SCALE
  5
4C
102
{ACAD_REACTORS
330
42
102
}
330
42
100
AcDbScale
 70
     0
300
3/8" = 1'-0"
140
0.375
141
12.0
290
     0
  0
SCALE
  5
4D
102
{ACAD_REACTORS
330
42
102
}
330
42
100
AcDbScale
 70
     0
300
1/2" = 1'-0"
140
0.5
141
12.0
290
     0
  0
SCALE
  5
4E
102
{ACAD_REACTORS
330
42
102
}
330
42
100
AcDbScale
 70
     0
300
3/4" = 1'-0"
140
0.75
141
12.0
290
     0
  0
SCALE
  5
4F
102
{ACAD_REACTORS
330
42
102
}
330
42
100
AcDbScale
 70
     0
300
1" = 1'-0"
140
1.0
141
12.0
290
     0
  0
SCALE
  5
50
102
{ACAD_REACTORS
330
42
102
}
330
42
100
AcDbScale
 70
     0
300
1-1/2" = 1'-0"
140
1.5
141
12.0
290
     0
  0
SCALE
  5
51
102
{ACAD_REACTORS
330
42
102
}
330
42
100
AcDbScale
 70
     0
300
3" = 1'-0"
140
3.0
141
12.0
290
     0
  0
SCALE
  5
52
102
{ACAD_REACTORS
330
42
102
}
330
42
100
AcDbScale
 70
     0
300
6" = 1'-0"
140
6.0
141
12.0
290
     0
  0
SCALE
  5
53
102
{ACAD_REACTORS
330
42
102
}
330
42
100
AcDbScale
 70
     0
300
1'-0" = 1'-0"
140
12.0
141
12.0
290
     0
  0
ACDBSECTIONVIEWSTYLE
  5
69
102
{ACAD_XDICTIONARY
360
33D
102
}
102
{ACAD_REACTORS
330
68
102
}
330
68
100
AcDbModelDocViewStyle
 70
     0
  3
Imperial24
290
     0
100
AcDbSectionViewStyle
 70
     0
 71
     0
 90
       78
 71
     1
340
55
 62
   256
 40
0.24
340
0
340
0
 62
   256
 40
0.24
300
I, O, Q, S, X, Z
 40
0.48
 90
        3
 40
0.18
 90
        1
 71
     2
340
5D
 90
       25
 62
   256
340
5D
 90
       50
 62
   256
 40
0.24
 40
0.0
 40
0.24
 71
     3
340
55
 62
   256
 40
0.24
 90
        1
 40
0.75
 90
        1
300
%<\AcVar ViewType \f "%tc1">% %<\AcVar ViewSectionStartId>%-%<\AcVar ViewSectionEndId>%\PSCALE %<\AcVar ViewScale \f "%sn">%
 71
     4
 62
   256
 62
   257
300
ANSI31
 40
1.0
 90
        0
290
     0
290
     0
 90
        6
 40
0.0
 40
1.570796326794896
 40
0.2617993877991494
 40
1.308996938995747
 40
-0.2617993877991494
 40
1.832595714594046
  0
TABLESTYLE
  5
65
102
{ACAD_XDICTIONARY
360
338
102
}
102
{ACAD_REACTORS
330
64
102
}
330
64
100
AcDbTableStyle
280
     0
  3
Standard
 70
     0
 71
     0
 40
0.06
 41
0.06
280
     0
281
     0
  7
Standard
140
0.18
170
     2
 62
     0
 63
     7
283
     0
 90
      512
 91
        0
  1

274
    -2
284
     1
 64
     0
275
    -2
285
     1
 65
     0
276
    -2
286
     1
 66
     0
277
    -2
287
     1
 67
     0
278
    -2
288
     1
 68
     0
279
    -2
289
     1
 69
     0
  7
Standard
140
0.25
170
     5
 62
     0
 63
     7
283
     0
 90
      512
 91
        0
  1

274
    -2
284
     1
 64
     0
275
    -2
285
     1
 65
     0
276
    -2
286
     1
 66
     0
277
    -2
287
     1
 67
     0
278
    -2
288
     1
 68
     0
279
    -2
289
     1
 69
     0
  7
Standard
140
0.18
170
     5
 62
     0
 63
     7
283
     0
 90
      512
 91
        0
  1

274
    -2
284
     1
 64
     0
275
    -2
285
     1
 65
     0
276
    -2
286
     1
 66
     0
277
    -2
287
     1
 67
     0
278
    -2
288
     1
 68
     0
279
    -2
289
     1
 69
     0
  0
VISUALSTYLE
  5
2F
102
{ACAD_REACTORS
330
29
102
}
330
29
100
AcDbVisualStyle
  2
2dWireframe
 70
     4
177
     3
291
     0
 70
    58
 90
        0
176
     1
 90
        2
176
     1
 90
        0
176
     1
 90
        0
176
     1
 40
0.6
176
     1
 40
30.0
176
     1
 62
     7
420
 16777215
176
     1
 90
        1
176
     1
 90
        4
176
     1
 62
     7
176
     1
 62
   257
176
     1
 90
        1
176
     1
 90
        1
176
     1
 40
1.0
176
     1
 90
        0
176
     1
 62
   257
176
     1
 40
1.0
176
     1
 90
        1
176
     1
 90
        6
176
     1
 90
        2
176
     1
 62
     7
176
     1
 90
        5
176
     1
 90
        0
176
     1
 90
        0
176
     1
290
     0
176
     1
 90
        1
176
     1
 40
0.0
176
     1
 90
        0
176
     1
290
     1
176
     1
290
     1
176
     1
290
     0
176
     1
290
     0
176
     1
290
     0
176
     1
290
     0
176
     1
290
     0
176
     1
290
     0
176
     1
290
     0
176
     1
 90
       50
176
     1
 40
0.0
176
     1
 40
1.0
176
     1
 90
        0
176
     1
 62
    18
420
        0
176
     1
 90
       50
176
     1
 90
        3
176
     1
 62
     5
420
      255
176
     1
290
     0
176
     1
 90
       50
176
     1
 90
       50
176
     1
 90
       50
176
     1
290
     0
176
     1
 90
       50
176
     1
 62
   256
176
     0
 40
1.0
176
     0
 90
        2
176
     1
  1
strokes_ogs.tif
176
     1
290
     0
176
     1
 40
1.0
176
     1
 40
1.0
176
     1
1001
ACAD
1000
AcDbSavedByObjectVersion
1070
     0
  0
VISUALSTYLE
  5
2E
102
{ACAD_REACTORS
330
29
102
}
330
29
100
AcDbVisualStyle
  2
Basic
 70
     7
177
     3
291
     1
 70
    58
 90
        1
176
     1
 90
        0
176
     1
 90
        1
176
     1
 90
        0
176
     1
 40
0.6
176
     1
 40
30.0
176
     1
 62
     7
420
 16777215
176
     1
 90
        0
176
     1
 90
        4
176
     1
 62
     7
176
     1
 62
   257
176
     1
 90
        1
176
     1
 90
        1
176
     1
 40
1.0
176
     1
 90
        8
176
     1
 62
     7
176
     1
 40
1.0
176
     1
 90
        1
176
     1
 90
        6
176
     1
 90
        2
176
     1
 62
     7
176
     1
 90
        5
176
     1
 90
        0
176
     1
 90
        0
176
     1
290
     0
176
     1
 90
        1
176
     1
 40
0.0
176
     1
 90
        0
176
     1
290
     0
176
     1
290
     1
176
     1
290
     1
176
     1
290
     0
176
     1
290
     0
176
     1
290
     0
176
     1
290
     0
176
     1
290
     0
176
     1
290
     0
176
     1
 90
       50
176
     1
 40
0.0
176
     1
 40
1.0
176
     1
 90
        0
176
     1
 62
    18
420
        0
176
     1
 90
       50
176
     1
 90
        3
176
     1
 62
     5
420
      255
176
     1
290
     0
176
     1
 90
       50
176
     1
 90
       50
176
     1
 90
       50
176
     1
290
     0
176
     1
 90
       50
176
     1
 62
   256
176
     0
 40
1.0
176
     0
 90
        2
176
     1
  1
strokes_ogs.tif
176
     1
290
     0
176
     1
 40
1.0
176
     1
 40
1.0
176
     1
1001
ACAD
1000
AcDbSavedByObjectVersion
1070
     0
  0
VISUALSTYLE
  5
35
102
{ACAD_REACTORS
330
29
102
}
330
29
100
AcDbVisualStyle
  2
Brighten
 70
    12
177
     3
291
     1
 70
    58
 90
        2
176
     1
 90
        2
176
     1
 90
        0
176
     1
 90
        0
176
     1
 40
0.6
176
     1
 40
30.0
176
     1
 62
     7
420
 16777215
176
     1
 90
        1
176
     1
 90
        4
176
     1
 62
     7
176
     1
 62
   257
176
     1
 90
        1
176
     1
 90
        1
176
     1
 40
1.0
176
     1
 90
        8
176
     1
 62
     7
176
     1
 40
1.0
176
     1
 90
        1
176
     1
 90
        6
176
     1
 90
        2
176
     1
 62
     7
176
     1
 90
        5
176
     1
 90
        0
176
     1
 90
        0
176
     1
290
     0
176
     1
 90
        1
176
     1
 40
50.0
176
     1
 90
        0
176
     1
290
     0
176
     1
290
     1
176
     1
290
     1
176
     1
290
     0
176
     1
290
     0
176
     1
290
     0
176
     1
290
     0
176
     1
290
     0
176
     1
290
     0
176
     1
 90
       50
176
     1
 40
0.0
176
     1
 40
1.0
176
     1
 90
        0
176
     1
 62
    18
420
        0
176
     1
 90
       50
176
     1
 90
        3
176
     1
 62
     5
420
      255
176
     1
290
     0
176
     1
 90
       50
176
     1
 90
       50
176
     1
 90
       50
176
     1
290
     0
176
     1
 90
       50
176
     1
 62
   256
176
     0
 40
1.0
176
     0
 90
        2
176
     1
  1
strokes_ogs.tif
176
     1
290
     0
176
     1
 40
1.0
176
     1
 40
1.0
176
     1
1001
ACAD
1000
AcDbSavedByObjectVersion
1070
     0
  0
VISUALSTYLE
  5
39
102
{ACAD_REACTORS
330
29
102
}
330
29
100
AcDbVisualStyle
  2
ColorChange
 70
    16
177
     3
291
     1
 70
    58
 90
        2
176
     1
 90
        2
176
     1
 90
        3
176
     1
 90
        0
176
     1
 40
0.6
176
     1
 40
30.0
176
     1
 62
     8
420
  8421504
176
     1
 90
        1
176
     1
 90
        4
176
     1
 62
     7
176
     1
 62
   257
176
     1
 90
        1
176
     1
 90
        1
176
     1
 40
1.0
176
     1
 90
        8
176
     1
 62
     8
420
  8421504
176
     1
 40
1.0
176
     1
 90
        1
176
     1
 90
        6
176
     1
 90
        2
176
     1
 62
     7
176
     1
 90
        5
176
     1
 90
        0
176
     1
 90
        0
176
     1
290
     0
176
     1
 90
        1
176
     1
 40
0.0
176
     1
 90
        0
176
     1
290
     0
176
     1
290
     1
176
     1
290
     1
176
     1
290
     0
176
     1
290
     0
176
     1
290
     0
176
     1
290
     0
176
     1
290
     0
176
     1
290
     0
176
     1
 90
       50
176
     1
 40
0.0
176
     1
 40
1.0
176
     1
 90
        0
176
     1
 62
    18
420
        0
176
     1
 90
       50
176
     1
 90
        3
176
     1
 62
     5
420
      255
176
     1
290
     0
176
     1
 90
       50
176
     1
 90
       50
176
     1
 90
       50
176
     1
290
     0
176
     1
 90
       50
176
     1
 62
   256
176
     0
 40
1.0
176
     0
 90
        2
176
     1
  1
strokes_ogs.tif
176
     1
290
     0
176
     1
 40
1.0
176
     1
 40
1.0
176
     1
1001
ACAD
1000
AcDbSavedByObjectVersion
1070
     0
  0
VISUALSTYLE
  5
32
102
{ACAD_REACTORS
330
29
102
}
330
29
100
AcDbVisualStyle
  2
Conceptual
 70
     9
177
     3
291
     0
 70
    58
 90
        3
176
     1
 90
        2
176
     1
 90
        0
176
     1
 90
        0
176
     1
 40
0.6
176
     1
 40
30.0
176
     1
 62
     7
420
 16777215
176
     1
 90
        2
176
     1
 90
        2
176
     1
 62
     7
176
     1
 62
   257
176
     1
 90
        1
176
     1
 90
        1
176
     1
 40
179.0
176
     1
 90
        8
176
     1
 62
     7
176
     1
 40
1.0
176
     1
 90
        1
176
     1
 90
        6
176
     1
 90
        2
176
     1
 62
     7
176
     1
 90
        3
176
     1
 90
        0
176
     1
 90
        0
176
     1
290
     0
176
     1
 90
        1
176
     1
 40
0.0
176
     1
 90
        0
176
     1
290
     0
176
     1
290
     1
176
     1
290
     1
176
     1
290
     0
176
     1
290
     0
176
     1
290
     0
176
     1
290
     0
176
     1
290
     0
176
     1
290
     0
176
     1
 90
       50
176
     1
 40
0.0
176
     1
 40
1.0
176
     1
 90
        0
176
     1
 62
    18
420
        0
176
     1
 90
       50
176
     1
 90
        3
176
     1
 62
     5
420
      255
176
     1
290
     0
176
     1
 90
       50
176
     1
 90
       50
176
     1
 90
       50
176
     1
290
     0
176
     1
 90
       50
176
     1
 62
   256
176
     0
 40
1.0
176
     0
 90
        2
176
     1
  1
strokes_ogs.tif
176
     1
290
     0
176
     1
 40
1.0
176
     1
 40
1.0
176
     1
1001
ACAD
1000
AcDbSavedByObjectVersion
1070
     0
  0
VISUALSTYLE
  5
34
102
{ACAD_REACTORS
330
29
102
}
330
29
100
AcDbVisualStyle
  2
Dim
 70
    11
177
     3
291
     1
 70
    58
 90
        2
176
     1
 90
        2
176
     1
 90
        0
176
     1
 90
        0
176
     1
 40
0.6
176
     1
 40
30.0
176
     1
 62
     7
420
 16777215
176
     1
 90
        1
176
     1
 90
        4
176
     1
 62
     7
176
     1
 62
   257
176
     1
 90
        1
176
     1
 90
        1
176
     1
 40
1.0
176
     1
 90
        8
176
     1
 62
     7
176
     1
 40
1.0
176
     1
 90
        1
176
     1
 90
        6
176
     1
 90
        2
176
     1
 62
     7
176
     1
 90
        5
176
     1
 90
        0
176
     1
 90
        0
176
     1
290
     0
176
     1
 90
        1
176
     1
 40
-50.0
176
     1
 90
        0
176
     1
290
     0
176
     1
290
     1
176
     1
290
     1
176
     1
290
     0
176
     1
290
     0
176
     1
290
     0
176
     1
290
     0
176
     1
290
     0
176
     1
290
     0
176
     1
 90
       50
176
     1
 40
0.0
176
     1
 40
1.0
176
     1
 90
        0
176
     1
 62
    18
420
        0
176
     1
 90
       50
176
     1
 90
        3
176
     1
 62
     5
420
      255
176
     1
290
     0
176
     1
 90
       50
176
     1
 90
       50
176
     1
 90
       50
176
     1
290
     0
176
     1
 90
       50
176
     1
 62
   256
176
     0
 40
1.0
176
     0
 90
        2
176
     1
  1
strokes_ogs.tif
176
     1
290
     0
176
     1
 40
1.0
176
     1
 40
1.0
176
     1
1001
ACAD
1000
AcDbSavedByObjectVersion
1070
     0
  0
VISUALSTYLE
  5
41
102
{ACAD_REACTORS
330
29
102
}
330
29
100
AcDbVisualStyle
  2
EdgeColorOff
 70
    22
177
     3
291
     1
 70
    58
 90
        2
176
     0
 90
        2
176
     0
 90
        0
176
     0
 90
        0
176
     0
 40
0.6
176
     0
 40
30.0
176
     0
 62
     7
420
 16777215
176
     0
 90
        1
176
     0
 90
        4
176
     0
 62
     7
176
     0
 62
   257
176
     0
 90
        1
176
     0
 90
        1
176
     0
 40
1.0
176
     0
 90
        8
176
     2
 62
     7
176
     0
 40
1.0
176
     0
 90
        1
176
     0
 90
        6
176
     0
 90
        2
176
     0
 62
     7
176
     0
 90
        5
176
     0
 90
        0
176
     0
 90
        0
176
     0
290
     0
176
     0
 90
        1
176
     0
 40
0.0
176
     0
 90
        0
176
     0
290
     0
176
     0
290
     1
176
     0
290
     1
176
     0
290
     0
176
     0
290
     0
176
     0
290
     0
176
     0
290
     0
176
     0
290
     0
176
     0
290
     0
176
     0
 90
       50
176
     0
 40
0.0
176
     0
 40
1.0
176
     0
 90
        0
176
     0
 62
    18
420
        0
176
     0
 90
       50
176
     0
 90
        3
176
     0
 62
     5
420
      255
176
     0
290
     0
176
     0
 90
       50
176
     0
 90
       50
176
     0
 90
       50
176
     0
290
     0
176
     0
 90
       50
176
     0
 62
   256
176
     0
 40
1.0
176
     0
 90
        2
176
     0
  1
strokes_ogs.tif
176
     0
290
     0
176
     0
 40
1.0
176
     0
 40
1.0
176
     0
1001
ACAD
1000
AcDbSavedByObjectVersion
1070
     0
  0
VISUALSTYLE
  5
38
102
{ACAD_REACTORS
330
29
102
}
330
29
100
AcDbVisualStyle
  2
Facepattern
 70
    15
177
     3
291
     1
 70
    58
 90
        2
176
     1
 90
        2
176
     1
 90
        0
176
     1
 90
        0
176
     1
 40
0.6
176
     1
 40
30.0
176
     1
 62
     7
420
 16777215
176
     1
 90
        1
176
     1
 90
        4
176
     1
 62
     7
176
     1
 62
   257
176
     1
 90
        1
176
     1
 90
        1
176
     1
 40
1.0
176
     1
 90
        8
176
     1
 62
     7
176
     1
 40
1.0
176
     1
 90
        1
176
     1
 90
        6
176
     1
 90
        2
176
     1
 62
     7
176
     1
 90
        5
176
     1
 90
        0
176
     1
 90
        0
176
     1
290
     0
176
     1
 90
        1
176
     1
 40
0.0
176
     1
 90
        0
176
     1
290
     0
176
     1
290
     1
176
     1
290
     1
176
     1
290
     0
176
     1
290
     0
176
     1
290
     0
176
     1
290
     0
176
     1
290
     0
176
     1
290
     0
176
     1
 90
       50
176
     1
 40
0.0
176
     1
 40
1.0
176
     1
 90
        0
176
     1
 62
    18
420
        0
176
     1
 90
       50
176
     1
 90
        3
176
     1
 62
     5
420
      255
176
     1
290
     0
176
     1
 90
       50
176
     1
 90
       50
176
     1
 90
       50
176
     1
290
     0
176
     1
 90
       50
176
     1
 62
   256
176
     0
 40
1.0
176
     0
 90
        2
176
     1
  1
strokes_ogs.tif
176
     1
290
     0
176
     1
 40
1.0
176
     1
 40
1.0
176
     1
1001
ACAD
1000
AcDbSavedByObjectVersion
1070
     0
  0
VISUALSTYLE
  5
2A
102
{ACAD_REACTORS
330
29
102
}
330
29
100
AcDbVisualStyle
  2
Flat
 70
     0
177
     3
291
     1
 70
    58
 90
        2
176
     1
 90
        1
176
     1
 90
        1
176
     1
 90
        2
176
     1
 40
0.6
176
     1
 40
30.0
176
     1
 62
     7
420
 16777215
176
     1
 90
        0
176
     1
 90
        0
176
     1
 62
     7
176
     1
 62
   257
176
     1
 90
        1
176
     1
 90
        1
176
     1
 40
1.0
176
     1
 90
        8
176
     1
 62
     7
176
     1
 40
1.0
176
     1
 90
        1
176
     1
 90
        6
176
     1
 90
        2
176
     1
 62
     7
176
     1
 90
        5
176
     1
 90
        0
176
     1
 90
        0
176
     1
290
     0
176
     1
 90
       13
176
     1
 40
0.0
176
     1
 90
        0
176
     1
290
     0
176
     1
290
     1
176
     1
290
     1
176
     1
290
     0
176
     1
290
     0
176
     1
290
     0
176
     1
290
     0
176
     1
290
     0
176
     1
290
     0
176
     1
 90
       50
176
     1
 40
0.0
176
     1
 40
1.0
176
     1
 90
        0
176
     1
 62
    18
420
        0
176
     1
 90
       50
176
     1
 90
        3
176
     1
 62
     5
420
      255
176
     1
290
     0
176
     1
 90
       50
176
     1
 90
       50
176
     1
 90
       50
176
     1
290
     0
176
     1
 90
       50
176
     1
 62
   256
176
     0
 40
1.0
176
     0
 90
        2
176
     1
  1
strokes_ogs.tif
176
     1
290
     0
176
     1
 40
1.0
176
     1
 40
1.0
176
     1
1001
ACAD
1000
AcDbSavedByObjectVersion
1070
     0
  0
VISUALSTYLE
  5
2B
102
{ACAD_REACTORS
330
29
102
}
330
29
100
AcDbVisualStyle
  2
FlatWithEdges
 70
     1
177
     3
291
     1
 70
    58
 90
        2
176
     1
 90
        1
176
     1
 90
        1
176
     1
 90
        2
176
     1
 40
0.6
176
     1
 40
30.0
176
     1
 62
     7
420
 16777215
176
     1
 90
        1
176
     1
 90
        0
176
     1
 62
     7
176
     1
 62
   257
176
     1
 90
        1
176
     1
 90
        1
176
     1
 40
1.0
176
     1
 90
        0
176
     1
 62
   257
176
     1
 40
1.0
176
     1
 90
        1
176
     1
 90
        6
176
     1
 90
        2
176
     1
 62
     7
176
     1
 90
        5
176
     1
 90
        0
176
     1
 90
        0
176
     1
290
     0
176
     1
 90
       13
176
     1
 40
0.0
176
     1
 90
        0
176
     1
290
     0
176
     1
290
     1
176
     1
290
     1
176
     1
290
     0
176
     1
290
     0
176
     1
290
     0
176
     1
290
     0
176
     1
290
     0
176
     1
290
     0
176
     1
 90
       50
176
     1
 40
0.0
176
     1
 40
1.0
176
     1
 90
        0
176
     1
 62
    18
420
        0
176
     1
 90
       50
176
     1
 90
        3
176
     1
 62
     5
420
      255
176
     1
290
     0
176
     1
 90
       50
176
     1
 90
       50
176
     1
 90
       50
176
     1
290
     0
176
     1
 90
       50
176
     1
 62
   256
176
     0
 40
1.0
176
     0
 90
        2
176
     1
  1
strokes_ogs.tif
176
     1
290
     0
176
     1
 40
1.0
176
     1
 40
1.0
176
     1
1001
ACAD
1000
AcDbSavedByObjectVersion
1070
     0
  0
VISUALSTYLE
  5
2C
102
{ACAD_REACTORS
330
29
102
}
330
29
100
AcDbVisualStyle
  2
Gouraud
 70
     2
177
     3
291
     1
 70
    58
 90
        2
176
     1
 90
        2
176
     1
 90
        1
176
     1
 90
        2
176
     1
 40
0.6
176
     1
 40
30.0
176
     1
 62
     7
420
 16777215
176
     1
 90
        0
176
     1
 90
        0
176
     1
 62
     7
176
     1
 62
   257
176
     1
 90
        1
176
     1
 90
        1
176
     1
 40
1.0
176
     1
 90
        0
176
     1
 62
     7
176
     1
 40
1.0
176
     1
 90
        1
176
     1
 90
        6
176
     1
 90
        2
176
     1
 62
     7
176
     1
 90
        5
176
     1
 90
        0
176
     1
 90
        0
176
     1
290
     0
176
     1
 90
       13
176
     1
 40
0.0
176
     1
 90
        0
176
     1
290
     0
176
     1
290
     1
176
     1
290
     1
176
     1
290
     0
176
     1
290
     0
176
     1
290
     0
176
     1
290
     0
176
     1
290
     0
176
     1
290
     0
176
     1
 90
       50
176
     1
 40
0.0
176
     1
 40
1.0
176
     1
 90
        0
176
     1
 62
    18
420
        0
176
     1
 90
       50
176
     1
 90
        3
176
     1
 62
     5
420
      255
176
     1
290
     0
176
     1
 90
       50
176
     1
 90
       50
176
     1
 90
       50
176
     1
290
     0
176
     1
 90
       50
176
     1
 62
   256
176
     0
 40
1.0
176
     0
 90
        2
176
     1
  1
strokes_ogs.tif
176
     1
290
     0
176
     1
 40
1.0
176
     1
 40
1.0
176
     1
1001
ACAD
1000
AcDbSavedByObjectVersion
1070
     0
  0
VISUALSTYLE
  5
2D
102
{ACAD_REACTORS
330
29
102
}
330
29
100
AcDbVisualStyle
  2
GouraudWithEdges
 70
     3
177
     3
291
     1
 70
    58
 90
        2
176
     1
 90
        2
176
     1
 90
        1
176
     1
 90
        2
176
     1
 40
0.6
176
     1
 40
30.0
176
     1
 62
     7
420
 16777215
176
     1
 90
        1
176
     1
 90
        0
176
     1
 62
     7
176
     1
 62
   257
176
     1
 90
        1
176
     1
 90
        1
176
     1
 40
1.0
176
     1
 90
        0
176
     1
 62
   257
176
     1
 40
1.0
176
     1
 90
        1
176
     1
 90
        6
176
     1
 90
        2
176
     1
 62
     7
176
     1
 90
        5
176
     1
 90
        0
176
     1
 90
        0
176
     1
290
     0
176
     1
 90
       13
176
     1
 40
0.0
176
     1
 90
        0
176
     1
290
     0
176
     1
290
     1
176
     1
290
     1
176
     1
290
     0
176
     1
290
     0
176
     1
290
     0
176
     1
290
     0
176
     1
290
     0
176
     1
290
     0
176
     1
 90
       50
176
     1
 40
0.0
176
     1
 40
1.0
176
     1
 90
        0
176
     1
 62
    18
420
        0
176
     1
 90
       50
176
     1
 90
        3
176
     1
 62
     5
420
      255
176
     1
290
     0
176
     1
 90
       50
176
     1
 90
       50
176
     1
 90
       50
176
     1
290
     0
176
     1
 90
       50
176
     1
 62
   256
176
     0
 40
1.0
176
     0
 90
        2
176
     1
  1
strokes_ogs.tif
176
     1
290
     0
176
     1
 40
1.0
176
     1
 40
1.0
176
     1
1001
ACAD
1000
AcDbSavedByObjectVersion
1070
     0
  0
VISUALSTYLE
  5
31
102
{ACAD_REACTORS
330
29
102
}
330
29
100
AcDbVisualStyle
  2
Hidden
 70
     6
177
     3
291
     0
 70
    58
 90
        1
176
     1
 90
        2
176
     1
 90
        2
176
     1
 90
        0
176
     1
 40
0.6
176
     1
 40
30.0
176
     1
 62
     7
420
 16777215
176
     1
 90
        2
176
     1
 90
        2
176
     1
 62
     7
176
     1
 62
   257
176
     1
 90
        2
176
     1
 90
        1
176
     1
 40
40.0
176
     1
 90
        0
176
     1
 62
   257
176
     1
 40
1.0
176
     1
 90
        1
176
     1
 90
        6
176
     1
 90
        2
176
     1
 62
     7
176
     1
 90
        3
176
     1
 90
        0
176
     1
 90
        0
176
     1
290
     0
176
     1
 90
        1
176
     1
 40
0.0
176
     1
 90
        0
176
     1
290
     0
176
     1
290
     1
176
     1
290
     1
176
     1
290
     0
176
     1
290
     0
176
     1
290
     0
176
     1
290
     0
176
     1
290
     0
176
     1
290
     0
176
     1
 90
       50
176
     1
 40
0.0
176
     1
 40
1.0
176
     1
 90
        0
176
     1
 62
    18
420
        0
176
     1
 90
       50
176
     1
 90
        3
176
     1
 62
     5
420
      255
176
     1
290
     0
176
     1
 90
       50
176
     1
 90
       50
176
     1
 90
       50
176
     1
290
     0
176
     1
 90
       50
176
     1
 62
   256
176
     0
 40
1.0
176
     0
 90
        2
176
     1
  1
strokes_ogs.tif
176
     1
290
     0
176
     1
 40
1.0
176
     1
 40
1.0
176
     1
1001
ACAD
1000
AcDbSavedByObjectVersion
1070
     0
  0
VISUALSTYLE
  5
3F
102
{ACAD_REACTORS
330
29
102
}
330
29
100
AcDbVisualStyle
  2
JitterOff
 70
    20
177
     3
291
     1
 70
    58
 90
        2
176
     0
 90
        2
176
     0
 90
        0
176
     0
 90
        0
176
     0
 40
0.6
176
     0
 40
30.0
176
     0
 62
     7
420
 16777215
176
     0
 90
        1
176
     0
 90
        4
176
     0
 62
     7
176
     0
 62
   257
176
     0
 90
        1
176
     0
 90
        1
176
     0
 40
1.0
176
     0
 90
       10
176
     2
 62
     7
176
     0
 40
1.0
176
     0
 90
        1
176
     0
 90
        6
176
     0
 90
        2
176
     0
 62
     7
176
     0
 90
        5
176
     0
 90
        0
176
     0
 90
        0
176
     0
290
     0
176
     0
 90
        1
176
     0
 40
0.0
176
     0
 90
        0
176
     0
290
     0
176
     0
290
     1
176
     0
290
     1
176
     0
290
     0
176
     0
290
     0
176
     0
290
     0
176
     0
290
     0
176
     0
290
     0
176
     0
290
     0
176
     0
 90
       50
176
     0
 40
0.0
176
     0
 40
1.0
176
     0
 90
        0
176
     0
 62
    18
420
        0
176
     0
 90
       50
176
     0
 90
        3
176
     0
 62
     5
420
      255
176
     0
290
     0
176
     0
 90
       50
176
     0
 90
       50
176
     0
 90
       50
176
     0
290
     0
176
     0
 90
       50
176
     0
 62
   256
176
     0
 40
1.0
176
     0
 90
        2
176
     0
  1
strokes_ogs.tif
176
     0
290
     0
176
     0
 40
1.0
176
     0
 40
1.0
176
     0
1001
ACAD
1000
AcDbSavedByObjectVersion
1070
     0
  0
VISUALSTYLE
  5
37
102
{ACAD_REACTORS
330
29
102
}
330
29
100
AcDbVisualStyle
  2
Linepattern
 70
    14
177
     3
291
     1
 70
    58
 90
        2
176
     1
 90
        2
176
     1
 90
        0
176
     1
 90
        0
176
     1
 40
0.6
176
     1
 40
30.0
176
     1
 62
     7
420
 16777215
176
     1
 90
        1
176
     1
 90
        4
176
     1
 62
     7
176
     1
 62
   257
176
     1
 90
        7
176
     1
 90
        7
176
     1
 40
1.0
176
     1
 90
        8
176
     1
 62
     7
176
     1
 40
1.0
176
     1
 90
        1
176
     1
 90
        6
176
     1
 90
        2
176
     1
 62
     7
176
     1
 90
        5
176
     1
 90
        0
176
     1
 90
        0
176
     1
290
     0
176
     1
 90
        1
176
     1
 40
0.0
176
     1
 90
        0
176
     1
290
     0
176
     1
290
     1
176
     1
290
     1
176
     1
290
     0
176
     1
290
     0
176
     1
290
     0
176
     1
290
     0
176
     1
290
     0
176
     1
290
     0
176
     1
 90
       50
176
     1
 40
0.0
176
     1
 40
1.0
176
     1
 90
        0
176
     1
 62
    18
420
        0
176
     1
 90
       50
176
     1
 90
        3
176
     1
 62
     5
420
      255
176
     1
290
     0
176
     1
 90
       50
176
     1
 90
       50
176
     1
 90
       50
176
     1
290
     0
176
     1
 90
       50
176
     1
 62
   256
176
     0
 40
1.0
176
     0
 90
        2
176
     1
  1
strokes_ogs.tif
176
     1
290
     0
176
     1
 40
1.0
176
     1
 40
1.0
176
     1
1001
ACAD
1000
AcDbSavedByObjectVersion
1070
     0
  0
VISUALSTYLE
  5
40
102
{ACAD_REACTORS
330
29
102
}
330
29
100
AcDbVisualStyle
  2
OverhangOff
 70
    21
177
     3
291
     1
 70
    58
 90
        2
176
     0
 90
        2
176
     0
 90
        0
176
     0
 90
        0
176
     0
 40
0.6
176
     0
 40
30.0
176
     0
 62
     7
420
 16777215
176
     0
 90
        1
176
     0
 90
        4
176
     0
 62
     7
176
     0
 62
   257
176
     0
 90
        1
176
     0
 90
        1
176
     0
 40
1.0
176
     0
 90
        9
176
     2
 62
     7
176
     0
 40
1.0
176
     0
 90
        1
176
     0
 90
        6
176
     0
 90
        2
176
     0
 62
     7
176
     0
 90
        5
176
     0
 90
        0
176
     0
 90
        0
176
     0
290
     0
176
     0
 90
        1
176
     0
 40
0.0
176
     0
 90
        0
176
     0
290
     0
176
     0
290
     1
176
     0
290
     1
176
     0
290
     0
176
     0
290
     0
176
     0
290
     0
176
     0
290
     0
176
     0
290
     0
176
     0
290
     0
176
     0
 90
       50
176
     0
 40
0.0
176
     0
 40
1.0
176
     0
 90
        0
176
     0
 62
    18
420
        0
176
     0
 90
       50
176
     0
 90
        3
176
     0
 62
     5
420
      255
176
     0
290
     0
176
     0
 90
       50
176
     0
 90
       50
176
     0
 90
       50
176
     0
290
     0
176
     0
 90
       50
176
     0
 62
   256
176
     0
 40
1.0
176
     0
 90
        2
176
     0
  1
strokes_ogs.tif
176
     0
290
     0
176
     0
 40
1.0
176
     0
 40
1.0
176
     0
1001
ACAD
1000
AcDbSavedByObjectVersion
1070
     0
  0
VISUALSTYLE
  5
33
102
{ACAD_REACTORS
330
29
102
}
330
29
100
AcDbVisualStyle
  2
Realistic
 70
     8
177
     3
291
     0
 70
    58
 90
        2
176
     1
 90
        3
176
     1
 90
        0
176
     1
 90
        2
176
     1
 40
0.6
176
     1
 40
30.0
176
     1
 62
     7
420
 16777215
176
     1
 90
        0
176
     1
 90
        0
176
     1
 62
     7
176
     1
 62
   257
176
     1
 90
        1
176
     1
 90
        1
176
     1
 40
1.0
176
     1
 90
        8
176
     1
 62
   257
176
     1
 40
1.0
176
     1
 90
        1
176
     1
 90
        6
176
     1
 90
        2
176
     1
 62
     7
176
     1
 90
        3
176
     1
 90
        0
176
     1
 90
        0
176
     1
290
     0
176
     1
 90
       13
176
     1
 40
0.0
176
     1
 90
        0
176
     1
290
     0
176
     1
290
     1
176
     1
290
     1
176
     1
290
     0
176
     1
290
     0
176
     1
290
     0
176
     1
290
     0
176
     1
290
     0
176
     1
290
     0
176
     1
 90
       50
176
     1
 40
0.0
176
     1
 40
1.0
176
     1
 90
        0
176
     1
 62
    18
420
        0
176
     1
 90
       50
176
     1
 90
        3
176
     1
 62
     5
420
      255
176
     1
290
     0
176
     1
 90
       50
176
     1
 90
       50
176
     1
 90
       50
176
     1
290
     0
176
     1
 90
       50
176
     1
 62
   256
176
     0
 40
1.0
176
     0
 90
        2
176
     1
  1
strokes_ogs.tif
176
     1
290
     0
176
     1
 40
1.0
176
     1
 40
1.0
176
     1
1001
ACAD
1000
AcDbSavedByObjectVersion
1070
     0
  0
VISUALSTYLE
  5
3E
102
{ACAD_REACTORS
330
29
102
}
330
29
100
AcDbVisualStyle
  2
Shaded
 70
    27
177
     3
291
     0
 70
    58
 90
        2
176
     1
 90
        2
176
     1
 90
        1
176
     1
 90
        2
176
     1
 40
0.6
176
     1
 40
30.0
176
     1
 62
     7
420
 16777215
176
     1
 90
        0
176
     1
 90
        4
176
     1
 62
     7
176
     1
 62
   257
176
     1
 90
        1
176
     1
 90
        1
176
     1
 40
1.0
176
     1
 90
        8
176
     1
 62
   257
176
     1
 40
1.0
176
     1
 90
        1
176
     1
 90
        6
176
     1
 90
        2
176
     1
 62
     8
420
  7895160
176
     1
 90
        3
176
     1
 90
        0
176
     1
 90
        0
176
     1
290
     0
176
     1
 90
        5
176
     1
 40
0.0
176
     1
 90
        0
176
     1
290
     0
176
     1
290
     1
176
     1
290
     1
176
     1
290
     0
176
     1
290
     0
176
     1
290
     0
176
     1
290
     0
176
     1
290
     0
176
     1
290
     0
176
     1
 90
       50
176
     1
 40
0.0
176
     1
 40
1.0
176
     1
 90
        0
176
     1
 62
    18
420
        0
176
     1
 90
       50
176
     1
 90
        3
176
     1
 62
     5
420
      255
176
     1
290
     0
176
     1
 90
       50
176
     1
 90
       50
176
     1
 90
       50
176
     1
290
     0
176
     1
 90
       50
176
     1
 62
   256
176
     0
 40
1.0
176
     0
 90
        2
176
     1
  1
strokes_ogs.tif
176
     1
290
     0
176
     1
 40
1.0
176
     1
 40
1.0
176
     1
1001
ACAD
1000
AcDbSavedByObjectVersion
1070
     0
  0
VISUALSTYLE
  5
3D
102
{ACAD_REACTORS
330
29
102
}
330
29
100
AcDbVisualStyle
  2
Shaded with edges
 70
    26
177
     3
291
     0
 70
    58
 90
        2
176
     1
 90
        2
176
     1
 90
        1
176
     1
 90
        2
176
     1
 40
0.6
176
     1
 40
30.0
176
     1
 62
     7
420
 16777215
176
     1
 90
        1
176
     1
 90
        2
176
     1
 62
     7
176
     1
 62
   257
176
     1
 90
        2
176
     1
 90
        1
176
     1
 40
1.0
176
     1
 90
        8
176
     1
 62
   257
176
     1
 40
1.0
176
     1
 90
        1
176
     1
 90
        6
176
     1
 90
        2
176
     1
 62
     7
176
     1
 90
        3
176
     1
 90
        0
176
     1
 90
        0
176
     1
290
     0
176
     1
 90
        5
176
     1
 40
0.0
176
     1
 90
        0
176
     1
290
     0
176
     1
290
     1
176
     1
290
     1
176
     1
290
     0
176
     1
290
     0
176
     1
290
     0
176
     1
290
     0
176
     1
290
     0
176
     1
290
     0
176
     1
 90
       50
176
     1
 40
0.0
176
     1
 40
1.0
176
     1
 90
        0
176
     1
 62
    18
420
        0
176
     1
 90
       50
176
     1
 90
        3
176
     1
 62
     5
420
      255
176
     1
290
     0
176
     1
 90
       50
176
     1
 90
       50
176
     1
 90
       50
176
     1
290
     0
176
     1
 90
       50
176
     1
 62
   256
176
     0
 40
1.0
176
     0
 90
        2
176
     1
  1
strokes_ogs.tif
176
     1
290
     0
176
     1
 40
1.0
176
     1
 40
1.0
176
     1
1001
ACAD
1000
AcDbSavedByObjectVersion
1070
     0
  0
VISUALSTYLE
  5
3A
102
{ACAD_REACTORS
330
29
102
}
330
29
100
AcDbVisualStyle
  2
Shades of Gray
 70
    23
177
     3
291
     0
 70
    58
 90
        2
176
     1
 90
        2
176
     1
 90
        3
176
     1
 90
        0
176
     1
 40
0.6
176
     1
 40
30.0
176
     1
 62
     7
420
 16777215
176
     1
 90
        2
176
     1
 90
        2
176
     1
 62
     7
176
     1
 62
     7
176
     1
 90
        1
176
     1
 90
        1
176
     1
 40
40.0
176
     1
 90
        8
176
     1
 62
     7
176
     1
 40
1.0
176
     1
 90
        1
176
     1
 90
        6
176
     1
 90
        2
176
     1
 62
     7
176
     1
 90
        3
176
     1
 90
        0
176
     1
 90
        0
176
     1
290
     0
176
     1
 90
        1
176
     1
 40
0.0
176
     1
 90
        0
176
     1
290
     0
176
     1
290
     1
176
     1
290
     1
176
     1
290
     0
176
     1
290
     0
176
     1
290
     0
176
     1
290
     0
176
     1
290
     0
176
     1
290
     0
176
     1
 90
       50
176
     1
 40
0.0
176
     1
 40
1.0
176
     1
 90
        0
176
     1
 62
    18
420
        0
176
     1
 90
       50
176
     1
 90
        3
176
     1
 62
     5
420
      255
176
     1
290
     0
176
     1
 90
       50
176
     1
 90
       50
176
     1
 90
       50
176
     1
290
     0
176
     1
 90
       50
176
     1
 62
   256
176
     0
 40
1.0
176
     0
 90
        2
176
     1
  1
strokes_ogs.tif
176
     1
290
     0
176
     1
 40
1.0
176
     1
 40
1.0
176
     1
1001
ACAD
1000
AcDbSavedByObjectVersion
1070
     0
  0
VISUALSTYLE
  5
3B
102
{ACAD_REACTORS
330
29
102
}
330
29
100
AcDbVisualStyle
  2
Sketchy
 70
    24
177
     3
291
     0
 70
    58
 90
        1
176
     1
 90
        2
176
     1
 90
        2
176
     1
 90
        0
176
     1
 40
0.6
176
     1
 40
30.0
176
     1
 62
     7
420
 16777215
176
     1
 90
        2
176
     1
 90
        2
176
     1
 62
     7
176
     1
 62
     7
176
     1
 90
        1
176
     1
 90
        1
176
     1
 40
40.0
176
     1
 90
       11
176
     1
 62
     7
176
     1
 40
1.0
176
     1
 90
        1
176
     1
 90
        6
176
     1
 90
        2
176
     1
 62
     7
176
     1
 90
        6
176
     1
 90
        0
176
     1
 90
        0
176
     1
290
     0
176
     1
 90
        1
176
     1
 40
0.0
176
     1
 90
        0
176
     1
290
     0
176
     1
290
     1
176
     1
290
     1
176
     1
290
     0
176
     1
290
     0
176
     1
290
     0
176
     1
290
     0
176
     1
290
     0
176
     1
290
     0
176
     1
 90
       50
176
     1
 40
0.0
176
     1
 40
1.0
176
     1
 90
        0
176
     1
 62
    18
420
        0
176
     1
 90
       50
176
     1
 90
        3
176
     1
 62
     5
420
      255
176
     1
290
     0
176
     1
 90
       50
176
     1
 90
       50
176
     1
 90
       50
176
     1
290
     0
176
     1
 90
       50
176
     1
 62
   256
176
     0
 40
1.0
176
     0
 90
        2
176
     1
  1
strokes_ogs.tif
176
     1
290
     0
176
     1
 40
1.0
176
     1
 40
1.0
176
     1
1001
ACAD
1000
AcDbSavedByObjectVersion
1070
     0
  0
VISUALSTYLE
  5
36
102
{ACAD_REACTORS
330
29
102
}
330
29
100
AcDbVisualStyle
  2
Thicken
 70
    13
177
     3
291
     1
 70
    58
 90
        2
176
     1
 90
        2
176
     1
 90
        0
176
     1
 90
        0
176
     1
 40
0.6
176
     1
 40
30.0
176
     1
 62
     7
420
 16777215
176
     1
 90
        1
176
     1
 90
        4
176
     1
 62
     7
176
     1
 62
   257
176
     1
 90
        1
176
     1
 90
        1
176
     1
 40
1.0
176
     1
 90
       12
176
     1
 62
     7
176
     1
 40
1.0
176
     1
 90
        1
176
     1
 90
        6
176
     1
 90
        2
176
     1
 62
     7
176
     1
 90
        5
176
     1
 90
        0
176
     1
 90
        0
176
     1
290
     0
176
     1
 90
        1
176
     1
 40
0.0
176
     1
 90
        0
176
     1
290
     0
176
     1
290
     1
176
     1
290
     1
176
     1
290
     0
176
     1
290
     0
176
     1
290
     0
176
     1
290
     0
176
     1
290
     0
176
     1
290
     0
176
     1
 90
       50
176
     1
 40
0.0
176
     1
 40
1.0
176
     1
 90
        0
176
     1
 62
    18
420
        0
176
     1
 90
       50
176
     1
 90
        3
176
     1
 62
     5
420
      255
176
     1
290
     0
176
     1
 90
       50
176
     1
 90
       50
176
     1
 90
       50
176
     1
290
     0
176
     1
 90
       50
176
     1
 62
   256
176
     0
 40
1.0
176
     0
 90
        2
176
     1
  1
strokes_ogs.tif
176
     1
290
     0
176
     1
 40
1.0
176
     1
 40
1.0
176
     1
1001
ACAD
1000
AcDbSavedByObjectVersion
1070
     0
  0
VISUALSTYLE
  5
30
102
{ACAD_REACTORS
330
29
102
}
330
29
100
AcDbVisualStyle
  2
Wireframe
 70
     5
177
     3
291
     0
 70
    58
 90
        0
176
     1
 90
        2
176
     1
 90
        0
176
     1
 90
        0
176
     1
 40
0.6
176
     1
 40
30.0
176
     1
 62
     7
420
 16777215
176
     1
 90
        1
176
     1
 90
        4
176
     1
 62
     7
176
     1
 62
   257
176
     1
 90
        1
176
     1
 90
        1
176
     1
 40
1.0
176
     1
 90
        0
176
     1
 62
   257
176
     1
 40
1.0
176
     1
 90
        1
176
     1
 90
        6
176
     1
 90
        2
176
     1
 62
     7
176
     1
 90
        3
176
     1
 90
        0
176
     1
 90
        0
176
     1
290
     0
176
     1
 90
        1
176
     1
 40
0.0
176
     1
 90
        0
176
     1
290
     0
176
     1
290
     1
176
     1
290
     1
176
     1
290
     0
176
     1
290
     0
176
     1
290
     0
176
     1
290
     0
176
     1
290
     0
176
     1
290
     0
176
     1
 90
       50
176
     1
 40
0.0
176
     1
 40
1.0
176
     1
 90
        0
176
     1
 62
    18
420
        0
176
     1
 90
       50
176
     1
 90
        3
176
     1
 62
     5
420
      255
176
     1
290
     0
176
     1
 90
       50
176
     1
 90
       50
176
     1
 90
       50
176
     1
290
     0
176
     1
 90
       50
176
     1
 62
   256
176
     0
 40
1.0
176
     0
 90
        2
176
     1
  1
strokes_ogs.tif
176
     1
290
     0
176
     1
 40
1.0
176
     1
 40
1.0
176
     1
1001
ACAD
1000
AcDbSavedByObjectVersion
1070
     0
  0
VISUALSTYLE
  5
3C
102
{ACAD_REACTORS
330
29
102
}
330
29
100
AcDbVisualStyle
  2
X-Ray
 70
    25
177
     3
291
     0
 70
    58
 90
        2
176
     1
 90
        2
176
     1
 90
        1
176
     1
 90
        1
176
     1
 40
0.5
176
     1
 40
30.0
176
     1
 62
     7
420
 16777215
176
     1
 90
        1
176
     1
 90
        0
176
     1
 62
     7
176
     1
 62
   257
176
     1
 90
        1
176
     1
 90
        1
176
     1
 40
1.0
176
     1
 90
        8
176
     1
 62
     7
176
     1
 40
1.0
176
     1
 90
        1
176
     1
 90
        6
176
     1
 90
        2
176
     1
 62
     7
176
     1
 90
        3
176
     1
 90
        0
176
     1
 90
        0
176
     1
290
     0
176
     1
 90
       13
176
     1
 40
0.0
176
     1
 90
        0
176
     1
290
     0
176
     1
290
     1
176
     1
290
     1
176
     1
290
     0
176
     1
290
     0
176
     1
290
     0
176
     1
290
     0
176
     1
290
     0
176
     1
290
     0
176
     1
 90
       50
176
     1
 40
0.0
176
     1
 40
1.0
176
     1
 90
        0
176
     1
 62
    18
420
        0
176
     1
 90
       50
176
     1
 90
        3
176
     1
 62
     5
420
      255
176
     1
290
     0
176
     1
 90
       50
176
     1
 90
       50
176
     1
 90
       50
176
     1
290
     0
176
     1
 90
       50
176
     1
 62
   256
176
     0
 40
1.0
176
     0
 90
        2
176
     1
  1
strokes_ogs.tif
176
     1
290
     0
176
     1
 40
1.0
176
     1
 40
1.0
176
     1
1001
ACAD
1000
AcDbSavedByObjectVersion
1070
     0
  0
DICTIONARYVAR
  5
337
102
{ACAD_REACTORS
330
332
102
}
330
332
100
DictionaryVariables
280
     0
  1
1:1
  0
DICTIONARYVAR
  5
334
102
{ACAD_REACTORS
330
332
102
}
330
332
100
DictionaryVariables
280
     0
  1
STANDARD
  0
DICTIONARYVAR
  5
333
102
{ACAD_REACTORS
330
332
102
}
330
332
100
DictionaryVariables
280
     0
  1
STANDARD
  0
DICTIONARYVAR
  5
335
102
{ACAD_REACTORS
330
332
102
}
330
332
100
DictionaryVariables
280
     0
  1
Imperial24
  0
DICTIONARYVAR
  5
336
102
{ACAD_REACTORS
330
332
102
}
330
332
100
DictionaryVariables
280
     0
  1
Imperial24
  0
DICTIONARY
  5
33F
330
6B
100
AcDbDictionary
280
     1
281
     1
  3
ACAD_XREC_ROUNDTRIP
360
340
  0
DICTIONARY
  5
1A
330
19
100
AcDbDictionary
280
     1
281
     1
  3
BUMPTILE
360
1C
  3
DIFFUSETILE
360
1B
  3
OPACITYTILE
360
1F
  3
REFLECTIONTILE
360
1E
  3
REFRACTIONTILE
360
20
  3
SPECULARTILE
360
1D
  0
DICTIONARY
  5
12
330
11
100
AcDbDictionary
280
     1
281
     1
  3
BUMPTILE
360
14
  3
DIFFUSETILE
360
13
  3
OPACITYTILE
360
17
  3
REFLECTIONTILE
360
16
  3
REFRACTIONTILE
360
18
  3
SPECULARTILE
360
15
  0
DICTIONARY
  5
22
330
21
100
AcDbDictionary
280
     1
281
     1
  3
BUMPTILE
360
24
  3
DIFFUSETILE
360
23
  3
OPACITYTILE
360
27
  3
REFLECTIONTILE
360
26
  3
REFRACTIONTILE
360
28
  3
SPECULARTILE
360
25
  0
DICTIONARY
  5
33D
330
69
100
AcDbDictionary
280
     1
281
     1
  3
ACAD_XREC_ROUNDTRIP
360
33E
  0
DICTIONARY
  5
338
330
65
100
AcDbDictionary
280
     1
281
     1
  3
ACAD_ROUNDTRIP_2008_TABLESTYLE_CELLSTYLEMAP
360
339
  0
XRECORD
  5
340
102
{ACAD_REACTORS
330
33F
102
}
330
33F
100
AcDbXrecord
280
     1
102
DISPLAYNAME
  1
Imperial24
102
FLAGS
 90
        0
  0
XRECORD
  5
1C
102
{ACAD_REACTORS
330
1A
102
}
330
1A
100
AcDbXrecord
280
     1
270
     1
271
     1
  0
XRECORD
  5
1B
102
{ACAD_REACTORS
330
1A
102
}
330
1A
100
AcDbXrecord
280
     1
270
     1
271
     1
  0
XRECORD
  5
1F
102
{ACAD_REACTORS
330
1A
102
}
330
1A
100
AcDbXrecord
280
     1
270
     1
271
     1
  0
XRECORD
  5
1E
102
{ACAD_REACTORS
330
1A
102
}
330
1A
100
AcDbXrecord
280
     1
270
     1
271
     1
  0
XRECORD
  5
20
102
{ACAD_REACTORS
330
1A
102
}
330
1A
100
AcDbXrecord
280
     1
270
     1
271
     1
  0
XRECORD
  5
1D
102
{ACAD_REACTORS
330
1A
102
}
330
1A
100
AcDbXrecord
280
     1
270
     1
271
     1
  0
XRECORD
  5
14
102
{ACAD_REACTORS
330
12
102
}
330
12
100
AcDbXrecord
280
     1
270
     1
271
     1
  0
XRECORD
  5
13
102
{ACAD_REACTORS
330
12
102
}
330
12
100
AcDbXrecord
280
     1
270
     1
271
     1
  0
XRECORD
  5
17
102
{ACAD_REACTORS
330
12
102
}
330
12
100
AcDbXrecord
280
     1
270
     1
271
     1
  0
XRECORD
  5
16
102
{ACAD_REACTORS
330
12
102
}
330
12
100
AcDbXrecord
280
     1
270
     1
271
     1
  0
XRECORD
  5
18
102
{ACAD_REACTORS
330
12
102
}
330
12
100
AcDbXrecord
280
     1
270
     1
271
     1
  0
XRECORD
  5
15
102
{ACAD_REACTORS
330
12
102
}
330
12
100
AcDbXrecord
280
     1
270
     1
271
     1
  0
XRECORD
  5
24
102
{ACAD_REACTORS
330
22
102
}
330
22
100
AcDbXrecord
280
     1
270
     1
271
     1
  0
XRECORD
  5
23
102
{ACAD_REACTORS
330
22
102
}
330
22
100
AcDbXrecord
280
     1
270
     1
271
     1
  0
XRECORD
  5
27
102
{ACAD_REACTORS
330
22
102
}
330
22
100
AcDbXrecord
280
     1
270
     1
271
     1
  0
XRECORD
  5
26
102
{ACAD_REACTORS
330
22
102
}
330
22
100
AcDbXrecord
280
     1
270
     1
271
     1
  0
XRECORD
  5
28
102
{ACAD_REACTORS
330
22
102
}
330
22
100
AcDbXrecord
280
     1
270
     1
271
     1
  0
XRECORD
  5
25
102
{ACAD_REACTORS
330
22
102
}
330
22
100
AcDbXrecord
280
     1
270
     1
271
     1
  0
XRECORD
  5
33E
102
{ACAD_REACTORS
330
33D
102
}
330
33D
100
AcDbXrecord
280
     1
102
DISPLAYNAME
  1
Imperial24
102
FLAGS
 90
        0
  0
CELLSTYLEMAP
  5
339
102
{ACAD_REACTORS
330
338
102
}
330
338
100
AcDbCellStyleMap
 90
        3
300
CELLSTYLE
  1
TABLEFORMAT_BEGIN
 90
        5
170
     1
 91
        0
 92
    32768
 62
   257
 93
        1
300
CONTENTFORMAT
  1
CONTENTFORMAT_BEGIN
 90
        0
 91
        0
 92
      512
 93
        0
300

 40
0.0
140
1.0
 94
        5
 62
     0
340
55
144
0.25
309
CONTENTFORMAT_END
171
     0
 94
        0
309
TABLEFORMAT_END
  1
CELLSTYLE_BEGIN
 90
        1
 91
        1
300
_TITLE
309
CELLSTYLE_END
300
CELLSTYLE
  1
TABLEFORMAT_BEGIN
 90
        5
170
     1
 91
        0
 92
        0
 62
   257
 93
        1
300
CONTENTFORMAT
  1
CONTENTFORMAT_BEGIN
 90
        0
 91
        0
 92
      512
 93
        0
300

 40
0.0
140
1.0
 94
        5
 62
     0
340
55
144
0.18
309
CONTENTFORMAT_END
171
     0
 94
        0
309
TABLEFORMAT_END
  1
CELLSTYLE_BEGIN
 90
        2
 91
        1
300
_HEADER
309
CELLSTYLE_END
300
CELLSTYLE
  1
TABLEFORMAT_BEGIN
 90
        5
170
     1
 91
        0
 92
        0
 62
   257
 93
        1
300
CONTENTFORMAT
  1
CONTENTFORMAT_BEGIN
 90
        0
 91
        0
 92
      512
 93
        0
300

 40
0.0
140
1.0
 94
        2
 62
     0
340
55
144
0.18
309
CONTENTFORMAT_END
171
     0
 94
        0
309
TABLEFORMAT_END
  1
CELLSTYLE_BEGIN
 90
        3
 91
        2
300
_DATA
309
CELLSTYLE_END
  0
ENDSEC
  0
EOF
