  0
SECTION
  2
HEADER
  9
$ACADVER
  1
AC1018
  9
$ACADMAINTVER
 70
     0
  9
$DWGCODEPAGE
  3
ANSI_1252
  9
$INSBASE
 10
0.0
 20
0.0
 30
0.0
  9
$EXTMIN
 10
1.000000000000000E+20
 20
1.000000000000000E+20
 30
1.000000000000000E+20
  9
$EXTMAX
 10
-1.000000000000000E+20
 20
-1.000000000000000E+20
 30
-1.000000000000000E+20
  9
$LIMMIN
 10
0.0
 20
0.0
  9
$LIMMAX
 10
12.0
 20
9.0
  9
$ORTHOMODE
 70
     0
  9
$REGENMODE
 70
     1
  9
$FILLMODE
 70
     1
  9
$QTEXTMODE
 70
     0
  9
$MIRRTEXT
 70
     1
  9
$LTSCALE
 40
1.0
  9
$ATTMODE
 70
     1
  9
$TEXTSIZE
 40
0.2
  9
$TRACEWID
 40
0.05
  9
$TEXTSTYLE
  7
Standard
  9
$CLAYER
  8
0
  9
$CELTYPE
  6
ByLayer
  9
$CECOLOR
 62
   256
  9
$CELTSCALE
 40
1.0
  9
$DISPSILH
 70
     0
  9
$DIMSCALE
 40
1.0
  9
$DIMASZ
 40
0.18
  9
$DIMEXO
 40
0.0625
  9
$DIMDLI
 40
0.38
  9
$DIMRND
 40
0.0
  9
$DIMDLE
 40
0.0
  9
$DIMEXE
 40
0.18
  9
$DIMTP
 40
0.0
  9
$DIMTM
 40
0.0
  9
$DIMTXT
 40
0.18
  9
$DIMCEN
 40
0.09
  9
$DIMTSZ
 40
0.0
  9
$DIMTOL
 70
     0
  9
$DIMLIM
 70
     0
  9
$DIMTIH
 70
     1
  9
$DIMTOH
 70
     1
  9
$DIMSE1
 70
     0
  9
$DIMSE2
 70
     0
  9
$DIMTAD
 70
     0
  9
$DIMZIN
 70
     0
  9
$DIMBLK
  1

  9
$DIMASO
 70
     1
  9
$DIMSHO
 70
     1
  9
$DIMPOST
  1

  9
$DIMAPOST
  1

  9
$DIMALT
 70
     0
  9
$DIMALTD
 70
     2
  9
$DIMALTF
 40
25.4
  9
$DIMLFAC
 40
1.0
  9
$DIMTOFL
 70
     0
  9
$DIMTVP
 40
0.0
  9
$DIMTIX
 70
     0
  9
$DIMSOXD
 70
     0
  9
$DIMSAH
 70
     0
  9
$DIMBLK1
  1

  9
$DIMBLK2
  1

  9
$DIMSTYLE
  2
Standard
  9
$DIMCLRD
 70
     0
  9
$DIMCLRE
 70
     0
  9
$DIMCLRT
 70
     0
  9
$DIMTFAC
 40
1.0
  9
$DIMGAP
 40
0.09
  9
$DIMJUST
 70
     0
  9
$DIMSD1
 70
     0
  9
$DIMSD2
 70
     0
  9
$DIMTOLJ
 70
     1
  9
$DIMTZIN
 70
     0
  9
$DIMALTZ
 70
     0
  9
$DIMALTTZ
 70
     0
  9
$DIMUPT
 70
     0
  9
$DIMDEC
 70
     4
  9
$DIMTDEC
 70
     4
  9
$DIMALTU
 70
     2
  9
$DIMALTTD
 70
     2
  9
$DIMTXSTY
  7
Standard
  9
$DIMAUNIT
 70
     0
  9
$DIMADEC
 70
     0
  9
$DIMALTRND
 40
0.0
  9
$DIMAZIN
 70
     0
  9
$DIMDSEP
 70
    46
  9
$DIMATFIT
 70
     3
  9
$DIMFRAC
 70
     0
  9
$DIMLDRBLK
  1

  9
$DIMLUNIT
 70
     2
  9
$DIMLWD
 70
    -2
  9
$DIMLWE
 70
    -2
  9
$DIMTMOVE
 70
     0
  9
$LUNITS
 70
     2
  9
$LUPREC
 70
     4
  9
$SKETCHINC
 40
0.1
  9
$FILLETRAD
 40
0.5
  9
$AUNITS
 70
     0
  9
$AUPREC
 70
     0
  9
$MENU
  1
.
  9
$ELEVATION
 40
0.0
  9
$PELEVATION
 40
0.0
  9
$THICKNESS
 40
0.0
  9
$LIMCHECK
 70
     0
  9
$CHAMFERA
 40
0.5
  9
$CHAMFERB
 40
0.5
  9
$CHAMFERC
 40
1.0
  9
$CHAMFERD
 40
0.0
  9
$SKPOLY
 70
     0
  9
$TDCREATE
 40
2459017.675880301
  9
$TDUCREATE
 40
2459017.592546968
  9
$TDUPDATE
 40
2459017.675880312
  9
$TDUUPDATE
 40
2459017.592546979
  9
$TDINDWG
 40
0.0000000116
  9
$TDUSRTIMER
 40
0.0000000116
  9
$USRTIMER
 70
     1
  9
$ANGBASE
 50
0.0
  9
$ANGDIR
 70
     0
  9
$PDMODE
 70
     0
  9
$PDSIZE
 40
0.0
  9
$PLINEWID
 40
0.0
  9
$SPLFRAME
 70
     0
  9
$SPLINETYPE
 70
     6
  9
$SPLINESEGS
 70
     8
  9
$HANDSEED
  5
3E8
  9
$SURFTAB1
 70
     6
  9
$SURFTAB2
 70
     6
  9
$SURFTYPE
 70
     6
  9
$SURFU
 70
     6
  9
$SURFV
 70
     6
  9
$UCSBASE
  2

  9
$UCSNAME
  2

  9
$UCSORG
 10
0.0
 20
0.0
 30
0.0
  9
$UCSXDIR
 10
1.0
 20
0.0
 30
0.0
  9
$UCSYDIR
 10
0.0
 20
1.0
 30
0.0
  9
$UCSORTHOREF
  2

  9
$UCSORTHOVIEW
 70
     0
  9
$UCSORGTOP
 10
0.0
 20
0.0
 30
0.0
  9
$UCSORGBOTTOM
 10
0.0
 20
0.0
 30
0.0
  9
$UCSORGLEFT
 10
0.0
 20
0.0
 30
0.0
  9
$UCSORGRIGHT
 10
0.0
 20
0.0
 30
0.0
  9
$UCSORGFRONT
 10
0.0
 20
0.0
 30
0.0
  9
$UCSORGBACK
 10
0.0
 20
0.0
 30
0.0
  9
$PUCSBASE
  2

  9
$PUCSNAME
  2

  9
$PUCSORG
 10
0.0
 20
0.0
 30
0.0
  9
$PUCSXDIR
 10
1.0
 20
0.0
 30
0.0
  9
$PUCSYDIR
 10
0.0
 20
1.0
 30
0.0
  9
$PUCSORTHOREF
  2

  9
$PUCSORTHOVIEW
 70
     0
  9
$PUCSORGTOP
 10
0.0
 20
0.0
 30
0.0
  9
$PUCSORGBOTTOM
 10
0.0
 20
0.0
 30
0.0
  9
$PUCSORGLEFT
 10
0.0
 20
0.0
 30
0.0
  9
$PUCSORGRIGHT
 10
0.0
 20
0.0
 30
0.0
  9
$PUCSORGFRONT
 10
0.0
 20
0.0
 30
0.0
  9
$PUCSORGBACK
 10
0.0
 20
0.0
 30
0.0
  9
$USERI1
 70
     0
  9
$USERI2
 70
     0
  9
$USERI3
 70
     0
  9
$USERI4
 70
     0
  9
$USERI5
 70
     0
  9
$USERR1
 40
0.0
  9
$USERR2
 40
0.0
  9
$USERR3
 40
0.0
  9
$USERR4
 40
0.0
  9
$USERR5
 40
0.0
  9
$WORLDVIEW
 70
     1
  9
$SHADEDGE
 70
     3
  9
$SHADEDIF
 70
    70
  9
$TILEMODE
 70
     1
  9
$MAXACTVP
 70
    64
  9
$PINSBASE
 10
0.0
 20
0.0
 30
0.0
  9
$PLIMCHECK
 70
     0
  9
$PEXTMIN
 10
1.000000000000000E+20
 20
1.000000000000000E+20
 30
1.000000000000000E+20
  9
$PEXTMAX
 10
-1.000000000000000E+20
 20
-1.000000000000000E+20
 30
-1.000000000000000E+20
  9
$PLIMMIN
 10
0.0
 20
0.0
  9
$PLIMMAX
 10
12.0
 20
9.0
  9
$UNITMODE
 70
     0
  9
$VISRETAIN
 70
     1
  9
$PLINEGEN
 70
     0
  9
$PSLTSCALE
 70
     1
  9
$TREEDEPTH
 70
  3020
  9
$CMLSTYLE
  2
Standard
  9
$CMLJUST
 70
     0
  9
$CMLSCALE
 40
1.0
  9
$PROXYGRAPHICS
 70
     1
  9
$MEASUREMENT
 70
     0
  9
$CELWEIGHT
370
    -1
  9
$ENDCAPS
280
     0
  9
$JOINSTYLE
280
     0
  9
$LWDISPLAY
290
     1
  9
$INSUNITS
 70
     1
  9
$HYPERLINKBASE
  1

  9
$STYLESHEET
  1

  9
$XEDIT
290
     1
  9
$CEPSNTYPE
380
     0
  9
$PSTYLEMODE
290
     1
  9
$FINGERPRINTGUID
  2
{86E4CB95-903D-4717-8105-245AE76C63AD}
  9
$VERSIONGUID
  2
{FAEB1C32-E019-11D5-929B-00C0DF256EC4}
  9
$EXTNAMES
290
     1
  9
$PSVPSCALE
 40
0.0
  9
$OLESTARTUP
290
     0
  9
$SORTENTS
280
   127
  9
$INDEXCTL
280
     0
  9
$HIDETEXT
280
     1
  9
$XCLIPFRAME
290
     0
  9
$HALOGAP
280
     0
  9
$OBSCOLOR
 70
   257
  9
$OBSLTYPE
280
     0
  9
$INTERSECTIONDISPLAY
280
     0
  9
$INTERSECTIONCOLOR
 70
   257
  9
$DIMASSOC
280
     2
  9
$PROJECTNAME
  1

  0
ENDSEC
  0
SECTION
  2
CLASSES
  0
CLASS
  1
ACDBDICTIONARYWDFLT
  2
AcDbDictionaryWithDefault
  3
ObjectDBX Classes
 90
        0
 91
        3
280
     0
281
     0
  0
CLASS
  1
VISUALSTYLE
  2
AcDbVisualStyle
  3
ObjectDBX Classes
 90
     4095
 91
        3
280
     0
281
     0
  0
CLASS
  1
IMAGEDEF
  2
AcDbRasterImageDef
  3
ISM
 90
        0
 91
        3
280
     0
281
     0
  0
CLASS
  1
RASTERVARIABLES
  2
AcDbRasterVariables
  3
ISM
 90
        0
 91
        3
280
     0
281
     0
  0
CLASS
  1
IMAGE
  2
AcDbRasterImage
  3
ISM
 90
      127
 91
        4
280
     0
281
     1
  0
CLASS
  1
IMAGEDEF_REACTOR
  2
AcDbRasterImageDefReactor
  3
ISM
 90
        1
 91
        3
280
     0
281
     0
  0
ENDSEC
  0
SECTION
  2
TABLES
  0
TABLE
  2
VPORT
  5
8
330
0
100
AcDbSymbolTable
 70
     1
  0
VPORT
  5
29
330
8
100
AcDbSymbolTableRecord
100
AcDbViewportTableRecord
  2
*Active
 70
     0
 10
0.0
 20
0.0
 11
1.0
 21
1.0
 12
0.0
 22
0.0
 13
0.0
 23
0.0
 14
0.5
 24
0.5
 15
0.5
 25
0.5
 16
0.0
 26
0.0
 36
1.0
 17
83.60833331243124
 27
210.5986008859354
 37
0.0
 40
124.197242536225
 41
1.249804093984957
 42
50.0
 43
0.0
 44
0.0
 50
0.0
 51
0.0
 71
     0
 72
   100
 73
     1
 74
     3
 75
     0
 76
     0
 77
     0
 78
     0
281
     0
 65
     1
110
0.0
120
0.0
130
0.0
111
1.0
121
0.0
131
0.0
112
0.0
122
1.0
132
0.0
 79
     0
146
0.0
  0
ENDTAB
  0
TABLE
  2
LTYPE
  5
5
330
0
100
AcDbSymbolTable
 70
     4
  0
LTYPE
  5
14
330
5
100
AcDbSymbolTableRecord
100
AcDbLinetypeTableRecord
  2
ByBlock
 70
     0
  3

 72
    65
 73
     0
 40
0.0
  0
LTYPE
  5
15
330
5
100
AcDbSymbolTableRecord
100
AcDbLinetypeTableRecord
  2
ByLayer
 70
     0
  3

 72
    65
 73
     0
 40
0.0
  0
LTYPE
  5
16
330
5
100
AcDbSymbolTableRecord
100
AcDbLinetypeTableRecord
  2
Continuous
 70
     0
  3
Solid line
 72
    65
 73
     0
 40
0.0
  0
LTYPE
  5
CC
330
5
100
AcDbSymbolTableRecord
100
AcDbLinetypeTableRecord
  2
AI-Linetype-1
 70
     0
  3
Adobe Illustrator Linetype No. 1
 72
    65
 73
     4
 40
19.05000041578138
 49
15.24000026533809
 74
     0
 49
-1.270000050147766
 74
     0
 49
1.270000050147766
 74
     0
 49
-1.270000050147766
 74
     0
  0
LTYPE
  5
D1
330
5
100
AcDbSymbolTableRecord
100
AcDbLinetypeTableRecord
  2
AI-Linetype-2
 70
     0
  3
Adobe Illustrator Linetype No. 2
 72
    65
 73
     4
 40
19.05000041578138
 49
15.24000026533809
 74
     0
 49
-1.270000050147766
 74
     0
 49
1.270000050147766
 74
     0
 49
-1.270000050147766
 74
     0
  0
LTYPE
  5
D6
330
5
100
AcDbSymbolTableRecord
100
AcDbLinetypeTableRecord
  2
AI-Linetype-3
 70
     0
  3
Adobe Illustrator Linetype No. 3
 72
    65
 73
     4
 40
19.05000041578138
 49
15.24000026533809
 74
     0
 49
-1.270000050147766
 74
     0
 49
1.270000050147766
 74
     0
 49
-1.270000050147766
 74
     0
  0
ENDTAB
  0
TABLE
  2
LAYER
  5
2
330
0
100
AcDbSymbolTable
 70
     2
  0
LAYER
  5
10
330
2
100
AcDbSymbolTableRecord
100
AcDbLayerTableRecord
  2
0
 70
     0
 62
     7
  6
Continuous
370
    -3
390
F
  0
LAYER
  5
3B
330
2
100
AcDbSymbolTableRecord
100
AcDbLayerTableRecord
  2
Capa 1
 70
     0
 62
     7
  6
Continuous
370
    -3
390
F
  0
ENDTAB
  0
TABLE
  2
STYLE
  5
3
330
0
100
AcDbSymbolTable
 70
     1
  0
STYLE
  5
11
330
3
100
AcDbSymbolTableRecord
100
AcDbTextStyleTableRecord
  2
Standard
 70
     0
 40
0.0
 41
1.0
 50
0.0
 71
     0
 42
0.2
  3
txt
  4

  0
ENDTAB
  0
TABLE
  2
VIEW
  5
6
330
0
100
AcDbSymbolTable
 70
     0
  0
ENDTAB
  0
TABLE
  2
UCS
  5
7
330
0
100
AcDbSymbolTable
 70
     0
  0
ENDTAB
  0
TABLE
  2
APPID
  5
9
330
0
100
AcDbSymbolTable
 70
     1
  0
APPID
  5
12
330
9
100
AcDbSymbolTableRecord
100
AcDbRegAppTableRecord
  2
ACAD
 70
     0
  0
ENDTAB
  0
TABLE
  2
DIMSTYLE
  5
A
330
0
100
AcDbSymbolTable
 70
     1
100
AcDbDimStyleTable
  0
DIMSTYLE
105
27
330
A
100
AcDbSymbolTableRecord
100
AcDbDimStyleTableRecord
  2
Standard
 70
     0
340
11
  0
ENDTAB
  0
TABLE
  2
BLOCK_RECORD
  5
1
330
0
100
AcDbSymbolTable
 70
     3
  0
BLOCK_RECORD
  5
1F
330
1
100
AcDbSymbolTableRecord
100
AcDbBlockTableRecord
  2
*Model_Space
340
22
  0
BLOCK_RECORD
  5
1B
330
1
100
AcDbSymbolTableRecord
100
AcDbBlockTableRecord
  2
*Paper_Space
340
1E
  0
BLOCK_RECORD
  5
23
330
1
100
AcDbSymbolTableRecord
100
AcDbBlockTableRecord
  2
*Paper_Space0
340
26
  0
BLOCK_RECORD
  5
1AF
330
1
100
AcDbSymbolTableRecord
100
AcDbBlockTableRecord
  2
block 2
340
0
102
{BLKREFS
331
1B0
102
}
  0
BLOCK_RECORD
  5
1B3
330
1
100
AcDbSymbolTableRecord
100
AcDbBlockTableRecord
  2
block 3
340
0
102
{BLKREFS
331
1B4
102
}
  0
ENDTAB
  0
ENDSEC
  0
SECTION
  2
BLOCKS
  0
BLOCK
  5
20
330
1F
100
AcDbEntity
  8
0
100
AcDbBlockBegin
  2
*Model_Space
 70
     0
 71
     0
 10
0.0
 20
0.0
 30
0.0
  3
*Model_Space
  1

  0
ENDBLK
  5
21
330
1F
100
AcDbEntity
  8
0
100
AcDbBlockEnd
  0
BLOCK
  5
1C
330
1B
100
AcDbEntity
 67
     1
  8
0
100
AcDbBlockBegin
  2
*Paper_Space
 70
     0
 71
     0
 10
0.0
 20
0.0
 30
0.0
  3
*Paper_Space
  1

  0
ENDBLK
  5
1D
330
1B
100
AcDbEntity
 67
     1
  8
0
100
AcDbBlockEnd
  0
BLOCK
  5
24
330
23
100
AcDbEntity
  8
0
100
AcDbBlockBegin
  2
*Paper_Space0
 70
     0
 71
     0
 10
0.0
 20
0.0
 30
0.0
  3
*Paper_Space0
  1

  0
ENDBLK
  5
25
330
23
100
AcDbEntity
  8
0
100
AcDbBlockEnd
  0
BLOCK
  5
1B1
330
1AF
100
AcDbEntity
  8
0
100
AcDbBlockBegin
  2
block 2
 70
     0
 71
     0
 10
0.0
 20
0.0
 30
0.0
  3
block 2
  1

  0
INSERT
  5
1B4
330
1AF
100
AcDbEntity
  8
Capa 1
100
AcDbBlockReference
  2
block 3
 10
0.0
 20
0.0
 30
0.0
  0
POLYLINE
  5
2AC
330
1AF
100
AcDbEntity
  8
Capa 1
 62
     7
370
     9
100
AcDb2dPolyline
 66
     1
 10
0.0
 20
0.0
 30
0.0
  0
VERTEX
  5
2AD
330
2AC
100
AcDbEntity
  8
Capa 1
 62
     7
370
     9
100
AcDbVertex
100
AcDb2dVertex
 10
105.9604573302807
 20
186.9108994758417
 30
0.0
  0
VERTEX
  5
2AE
330
2AC
100
AcDbEntity
  8
Capa 1
 62
     7
370
     9
100
AcDbVertex
100
AcDb2dVertex
 10
105.9604573302807
 20
192.2129014276412
 30
0.0
  0
SEQEND
  5
2AF
330
2AC
100
AcDbEntity
  8
Capa 1
370
     9
  0
POLYLINE
  5
2B0
330
1AF
100
AcDbEntity
  8
Capa 1
 62
     7
370
     9
100
AcDb2dPolyline
 66
     1
 10
0.0
 20
0.0
 30
0.0
  0
VERTEX
  5
2B1
330
2B0
100
AcDbEntity
  8
Capa 1
 62
     7
370
     9
100
AcDbVertex
100
AcDb2dVertex
 10
119.36015622016
 20
186.9108994758417
 30
0.0
  0
VERTEX
  5
2B2
330
2B0
100
AcDbEntity
  8
Capa 1
 62
     7
370
     9
100
AcDbVertex
100
AcDb2dVertex
 10
119.36015622016
 20
192.2129014276412
 30
0.0
  0
SEQEND
  5
2B3
330
2B0
100
AcDbEntity
  8
Capa 1
370
     9
  0
POLYLINE
  5
2B4
330
1AF
100
AcDbEntity
  8
Capa 1
 62
     7
370
     9
100
AcDb2dPolyline
 66
     1
 10
0.0
 20
0.0
 30
0.0
  0
VERTEX
  5
2B5
330
2B4
100
AcDbEntity
  8
Capa 1
 62
     7
370
     9
100
AcDbVertex
100
AcDb2dVertex
 10
130.5601616427072
 20
186.9108994758417
 30
0.0
  0
VERTEX
  5
2B6
330
2B4
100
AcDbEntity
  8
Capa 1
 62
     7
370
     9
100
AcDbVertex
100
AcDb2dVertex
 10
130.5601616427072
 20
192.2129014276412
 30
0.0
  0
SEQEND
  5
2B7
330
2B4
100
AcDbEntity
  8
Capa 1
370
     9
  0
POLYLINE
  5
2B8
330
1AF
100
AcDbEntity
  8
Capa 1
 62
     7
370
     9
100
AcDb2dPolyline
 66
     1
 10
0.0
 20
0.0
 30
0.0
  0
VERTEX
  5
2B9
330
2B8
100
AcDbEntity
  8
Capa 1
 62
     7
370
     9
100
AcDbVertex
100
AcDb2dVertex
 10
144.2602728589002
 20
186.9108994758417
 30
0.0
  0
VERTEX
  5
2BA
330
2B8
100
AcDbEntity
  8
Capa 1
 62
     7
370
     9
100
AcDbVertex
100
AcDb2dVertex
 10
144.2602728589002
 20
192.2129014276412
 30
0.0
  0
SEQEND
  5
2BB
330
2B8
100
AcDbEntity
  8
Capa 1
370
     9
  0
POLYLINE
  5
2BC
330
1AF
100
AcDbEntity
  8
Capa 1
 62
     7
370
     9
100
AcDb2dPolyline
 66
     1
 10
0.0
 20
0.0
 30
0.0
  0
VERTEX
  5
2BD
330
2BC
100
AcDbEntity
  8
Capa 1
 62
     7
370
     9
100
AcDbVertex
100
AcDb2dVertex
 10
155.8161566450737
 20
186.9108994758417
 30
0.0
  0
VERTEX
  5
2BE
330
2BC
100
AcDbEntity
  8
Capa 1
 62
     7
370
     9
100
AcDbVertex
100
AcDb2dVertex
 10
155.8161566450737
 20
192.2129014276412
 30
0.0
  0
SEQEND
  5
2BF
330
2BC
100
AcDbEntity
  8
Capa 1
370
     9
  0
POLYLINE
  5
2C0
330
1AF
100
AcDbEntity
  8
Capa 1
 62
     7
370
     9
100
AcDb2dPolyline
 66
     1
 10
0.0
 20
0.0
 30
0.0
  0
VERTEX
  5
2C1
330
2C0
100
AcDbEntity
  8
Capa 1
 62
     7
370
     9
100
AcDbVertex
100
AcDb2dVertex
 10
85.06044105946405
 20
186.8668022536305
 30
0.0
  0
VERTEX
  5
2C2
330
2C0
100
AcDbEntity
  8
Capa 1
 62
     7
370
     9
100
AcDbVertex
100
AcDb2dVertex
 10
105.9601128207322
 20
186.8668022536305
 30
0.0
  0
SEQEND
  5
2C3
330
2C0
100
AcDbEntity
  8
Capa 1
370
     9
  0
POLYLINE
  5
2C4
330
1AF
100
AcDbEntity
  8
Capa 1
 62
     7
370
     9
100
AcDb2dPolyline
 66
     1
 10
0.0
 20
0.0
 30
0.0
  0
VERTEX
  5
2C5
330
2C4
100
AcDbEntity
  8
Capa 1
 62
     7
370
     9
100
AcDbVertex
100
AcDb2dVertex
 10
105.9604573302807
 20
186.8668022536305
 30
0.0
  0
VERTEX
  5
2C6
330
2C4
100
AcDbEntity
  8
Capa 1
 62
     7
370
     9
100
AcDbVertex
100
AcDb2dVertex
 10
119.36015622016
 20
186.8668022536305
 30
0.0
  0
SEQEND
  5
2C7
330
2C4
100
AcDbEntity
  8
Capa 1
370
     9
  0
POLYLINE
  5
2C8
330
1AF
100
AcDbEntity
  8
Capa 1
 62
     7
370
     9
100
AcDb2dPolyline
 66
     1
 10
0.0
 20
0.0
 30
0.0
  0
VERTEX
  5
2C9
330
2C8
100
AcDbEntity
  8
Capa 1
 62
     7
370
     9
100
AcDbVertex
100
AcDb2dVertex
 10
105.9604573302807
 20
181.5200140605228
 30
0.0
  0
VERTEX
  5
2CA
330
2C8
100
AcDbEntity
  8
Capa 1
 62
     7
370
     9
100
AcDbVertex
100
AcDb2dVertex
 10
105.9604573302807
 20
186.8223605218708
 30
0.0
  0
SEQEND
  5
2CB
330
2C8
100
AcDbEntity
  8
Capa 1
370
     9
  0
POLYLINE
  5
2CC
330
1AF
100
AcDbEntity
  8
Capa 1
 62
     7
370
     9
100
AcDb2dPolyline
 66
     1
 10
0.0
 20
0.0
 30
0.0
  0
VERTEX
  5
2CD
330
2CC
100
AcDbEntity
  8
Capa 1
 62
     7
370
     9
100
AcDbVertex
100
AcDb2dVertex
 10
119.36015622016
 20
186.8668022536305
 30
0.0
  0
VERTEX
  5
2CE
330
2CC
100
AcDbEntity
  8
Capa 1
 62
     7
370
     9
100
AcDbVertex
100
AcDb2dVertex
 10
130.5601616427072
 20
186.8668022536305
 30
0.0
  0
SEQEND
  5
2CF
330
2CC
100
AcDbEntity
  8
Capa 1
370
     9
  0
POLYLINE
  5
2D0
330
1AF
100
AcDbEntity
  8
Capa 1
 62
     7
370
     9
100
AcDb2dPolyline
 66
     1
 10
0.0
 20
0.0
 30
0.0
  0
VERTEX
  5
2D1
330
2D0
100
AcDbEntity
  8
Capa 1
 62
     7
370
     9
100
AcDbVertex
100
AcDb2dVertex
 10
119.36015622016
 20
181.5200140605228
 30
0.0
  0
VERTEX
  5
2D2
330
2D0
100
AcDbEntity
  8
Capa 1
 62
     7
370
     9
100
AcDbVertex
100
AcDb2dVertex
 10
119.36015622016
 20
186.8223605218708
 30
0.0
  0
SEQEND
  5
2D3
330
2D0
100
AcDbEntity
  8
Capa 1
370
     9
  0
POLYLINE
  5
2D4
330
1AF
100
AcDbEntity
  8
Capa 1
 62
     7
370
     9
100
AcDb2dPolyline
 66
     1
 10
0.0
 20
0.0
 30
0.0
  0
VERTEX
  5
2D5
330
2D4
100
AcDbEntity
  8
Capa 1
 62
     7
370
     9
100
AcDbVertex
100
AcDb2dVertex
 10
130.5601616427072
 20
186.8668022536305
 30
0.0
  0
VERTEX
  5
2D6
330
2D4
100
AcDbEntity
  8
Capa 1
 62
     7
370
     9
100
AcDbVertex
100
AcDb2dVertex
 10
144.2602728589002
 20
186.8668022536305
 30
0.0
  0
SEQEND
  5
2D7
330
2D4
100
AcDbEntity
  8
Capa 1
370
     9
  0
POLYLINE
  5
2D8
330
1AF
100
AcDbEntity
  8
Capa 1
 62
     7
370
     9
100
AcDb2dPolyline
 66
     1
 10
0.0
 20
0.0
 30
0.0
  0
VERTEX
  5
2D9
330
2D8
100
AcDbEntity
  8
Capa 1
 62
     7
370
     9
100
AcDbVertex
100
AcDb2dVertex
 10
130.5601616427072
 20
181.5200140605228
 30
0.0
  0
VERTEX
  5
2DA
330
2D8
100
AcDbEntity
  8
Capa 1
 62
     7
370
     9
100
AcDbVertex
100
AcDb2dVertex
 10
130.5601616427072
 20
186.8223605218708
 30
0.0
  0
SEQEND
  5
2DB
330
2D8
100
AcDbEntity
  8
Capa 1
370
     9
  0
POLYLINE
  5
2DC
330
1AF
100
AcDbEntity
  8
Capa 1
 62
     7
370
     9
100
AcDb2dPolyline
 66
     1
 10
0.0
 20
0.0
 30
0.0
  0
VERTEX
  5
2DD
330
2DC
100
AcDbEntity
  8
Capa 1
 62
     7
370
     9
100
AcDbVertex
100
AcDb2dVertex
 10
144.2602728589002
 20
186.8668022536305
 30
0.0
  0
VERTEX
  5
2DE
330
2DC
100
AcDbEntity
  8
Capa 1
 62
     7
370
     9
100
AcDbVertex
100
AcDb2dVertex
 10
155.8602538672849
 20
186.8668022536305
 30
0.0
  0
SEQEND
  5
2DF
330
2DC
100
AcDbEntity
  8
Capa 1
370
     9
  0
POLYLINE
  5
2E0
330
1AF
100
AcDbEntity
  8
Capa 1
 62
     7
370
     9
100
AcDb2dPolyline
 66
     1
 10
0.0
 20
0.0
 30
0.0
  0
VERTEX
  5
2E1
330
2E0
100
AcDbEntity
  8
Capa 1
 62
     7
370
     9
100
AcDbVertex
100
AcDb2dVertex
 10
144.2602728589002
 20
181.5200140605228
 30
0.0
  0
VERTEX
  5
2E2
330
2E0
100
AcDbEntity
  8
Capa 1
 62
     7
370
     9
100
AcDbVertex
100
AcDb2dVertex
 10
144.2602728589002
 20
186.8223605218708
 30
0.0
  0
SEQEND
  5
2E3
330
2E0
100
AcDbEntity
  8
Capa 1
370
     9
  0
POLYLINE
  5
2E4
330
1AF
100
AcDbEntity
  8
Capa 1
 62
     7
370
     9
100
AcDb2dPolyline
 66
     1
 10
0.0
 20
0.0
 30
0.0
  0
VERTEX
  5
2E5
330
2E4
100
AcDbEntity
  8
Capa 1
 62
     7
370
     9
100
AcDbVertex
100
AcDb2dVertex
 10
155.8161566450737
 20
181.5200140605228
 30
0.0
  0
VERTEX
  5
2E6
330
2E4
100
AcDbEntity
  8
Capa 1
 62
     7
370
     9
100
AcDbVertex
100
AcDb2dVertex
 10
155.8161566450737
 20
186.8223605218708
 30
0.0
  0
SEQEND
  5
2E7
330
2E4
100
AcDbEntity
  8
Capa 1
370
     9
  0
POLYLINE
  5
2E8
330
1AF
100
AcDbEntity
  8
Capa 1
 62
     7
370
     9
100
AcDb2dPolyline
 66
     1
 10
0.0
 20
0.0
 30
0.0
  0
VERTEX
  5
2E9
330
2E8
100
AcDbEntity
  8
Capa 1
 62
     7
370
     9
100
AcDbVertex
100
AcDb2dVertex
 10
85.06044105946405
 20
181.4759168383116
 30
0.0
  0
VERTEX
  5
2EA
330
2E8
100
AcDbEntity
  8
Capa 1
 62
     7
370
     9
100
AcDbVertex
100
AcDb2dVertex
 10
105.9601128207322
 20
181.4759168383116
 30
0.0
  0
SEQEND
  5
2EB
330
2E8
100
AcDbEntity
  8
Capa 1
370
     9
  0
POLYLINE
  5
2EC
330
1AF
100
AcDbEntity
  8
Capa 1
 62
     7
370
     9
100
AcDb2dPolyline
 66
     1
 10
0.0
 20
0.0
 30
0.0
  0
VERTEX
  5
2ED
330
2EC
100
AcDbEntity
  8
Capa 1
 62
     7
370
     9
100
AcDbVertex
100
AcDb2dVertex
 10
105.9604573302807
 20
181.4759168383116
 30
0.0
  0
VERTEX
  5
2EE
330
2EC
100
AcDbEntity
  8
Capa 1
 62
     7
370
     9
100
AcDbVertex
100
AcDb2dVertex
 10
119.36015622016
 20
181.4759168383116
 30
0.0
  0
SEQEND
  5
2EF
330
2EC
100
AcDbEntity
  8
Capa 1
370
     9
  0
POLYLINE
  5
2F0
330
1AF
100
AcDbEntity
  8
Capa 1
 62
     7
370
     9
100
AcDb2dPolyline
 66
     1
 10
0.0
 20
0.0
 30
0.0
  0
VERTEX
  5
2F1
330
2F0
100
AcDbEntity
  8
Capa 1
 62
     7
370
     9
100
AcDbVertex
100
AcDb2dVertex
 10
105.9604573302807
 20
176.1298176643009
 30
0.0
  0
VERTEX
  5
2F2
330
2F0
100
AcDbEntity
  8
Capa 1
 62
     7
370
     9
100
AcDbVertex
100
AcDb2dVertex
 10
105.9604573302807
 20
181.4318196161004
 30
0.0
  0
SEQEND
  5
2F3
330
2F0
100
AcDbEntity
  8
Capa 1
370
     9
  0
POLYLINE
  5
2F4
330
1AF
100
AcDbEntity
  8
Capa 1
 62
     7
370
     9
100
AcDb2dPolyline
 66
     1
 10
0.0
 20
0.0
 30
0.0
  0
VERTEX
  5
2F5
330
2F4
100
AcDbEntity
  8
Capa 1
 62
     7
370
     9
100
AcDbVertex
100
AcDb2dVertex
 10
119.36015622016
 20
181.4759168383116
 30
0.0
  0
VERTEX
  5
2F6
330
2F4
100
AcDbEntity
  8
Capa 1
 62
     7
370
     9
100
AcDbVertex
100
AcDb2dVertex
 10
130.5601616427072
 20
181.4759168383116
 30
0.0
  0
SEQEND
  5
2F7
330
2F4
100
AcDbEntity
  8
Capa 1
370
     9
  0
POLYLINE
  5
2F8
330
1AF
100
AcDbEntity
  8
Capa 1
 62
     7
370
     9
100
AcDb2dPolyline
 66
     1
 10
0.0
 20
0.0
 30
0.0
  0
VERTEX
  5
2F9
330
2F8
100
AcDbEntity
  8
Capa 1
 62
     7
370
     9
100
AcDbVertex
100
AcDb2dVertex
 10
119.36015622016
 20
176.1298176643009
 30
0.0
  0
VERTEX
  5
2FA
330
2F8
100
AcDbEntity
  8
Capa 1
 62
     7
370
     9
100
AcDbVertex
100
AcDb2dVertex
 10
119.36015622016
 20
181.4318196161004
 30
0.0
  0
SEQEND
  5
2FB
330
2F8
100
AcDbEntity
  8
Capa 1
370
     9
  0
POLYLINE
  5
2FC
330
1AF
100
AcDbEntity
  8
Capa 1
 62
     7
370
     9
100
AcDb2dPolyline
 66
     1
 10
0.0
 20
0.0
 30
0.0
  0
VERTEX
  5
2FD
330
2FC
100
AcDbEntity
  8
Capa 1
 62
     7
370
     9
100
AcDbVertex
100
AcDb2dVertex
 10
130.5601616427072
 20
181.4759168383116
 30
0.0
  0
VERTEX
  5
2FE
330
2FC
100
AcDbEntity
  8
Capa 1
 62
     7
370
     9
100
AcDbVertex
100
AcDb2dVertex
 10
144.2602728589002
 20
181.4759168383116
 30
0.0
  0
SEQEND
  5
2FF
330
2FC
100
AcDbEntity
  8
Capa 1
370
     9
  0
POLYLINE
  5
300
330
1AF
100
AcDbEntity
  8
Capa 1
 62
     7
370
     9
100
AcDb2dPolyline
 66
     1
 10
0.0
 20
0.0
 30
0.0
  0
VERTEX
  5
301
330
300
100
AcDbEntity
  8
Capa 1
 62
     7
370
     9
100
AcDbVertex
100
AcDb2dVertex
 10
130.5601616427072
 20
176.1298176643009
 30
0.0
  0
VERTEX
  5
302
330
300
100
AcDbEntity
  8
Capa 1
 62
     7
370
     9
100
AcDbVertex
100
AcDb2dVertex
 10
130.5601616427072
 20
181.4318196161004
 30
0.0
  0
SEQEND
  5
303
330
300
100
AcDbEntity
  8
Capa 1
370
     9
  0
POLYLINE
  5
304
330
1AF
100
AcDbEntity
  8
Capa 1
 62
     7
370
     9
100
AcDb2dPolyline
 66
     1
 10
0.0
 20
0.0
 30
0.0
  0
VERTEX
  5
305
330
304
100
AcDbEntity
  8
Capa 1
 62
     7
370
     9
100
AcDbVertex
100
AcDb2dVertex
 10
144.2602728589002
 20
181.4759168383116
 30
0.0
  0
VERTEX
  5
306
330
304
100
AcDbEntity
  8
Capa 1
 62
     7
370
     9
100
AcDbVertex
100
AcDb2dVertex
 10
155.8602538672849
 20
181.4759168383116
 30
0.0
  0
SEQEND
  5
307
330
304
100
AcDbEntity
  8
Capa 1
370
     9
  0
POLYLINE
  5
308
330
1AF
100
AcDbEntity
  8
Capa 1
 62
     7
370
     9
100
AcDb2dPolyline
 66
     1
 10
0.0
 20
0.0
 30
0.0
  0
VERTEX
  5
309
330
308
100
AcDbEntity
  8
Capa 1
 62
     7
370
     9
100
AcDbVertex
100
AcDb2dVertex
 10
144.2602728589002
 20
176.1298176643009
 30
0.0
  0
VERTEX
  5
30A
330
308
100
AcDbEntity
  8
Capa 1
 62
     7
370
     9
100
AcDbVertex
100
AcDb2dVertex
 10
144.2602728589002
 20
181.4318196161004
 30
0.0
  0
SEQEND
  5
30B
330
308
100
AcDbEntity
  8
Capa 1
370
     9
  0
POLYLINE
  5
30C
330
1AF
100
AcDbEntity
  8
Capa 1
 62
     7
370
     9
100
AcDb2dPolyline
 66
     1
 10
0.0
 20
0.0
 30
0.0
  0
VERTEX
  5
30D
330
30C
100
AcDbEntity
  8
Capa 1
 62
     7
370
     9
100
AcDbVertex
100
AcDb2dVertex
 10
155.8161566450737
 20
176.1298176643009
 30
0.0
  0
VERTEX
  5
30E
330
30C
100
AcDbEntity
  8
Capa 1
 62
     7
370
     9
100
AcDbVertex
100
AcDb2dVertex
 10
155.8161566450737
 20
181.4318196161004
 30
0.0
  0
SEQEND
  5
30F
330
30C
100
AcDbEntity
  8
Capa 1
370
     9
  0
POLYLINE
  5
310
330
1AF
100
AcDbEntity
  8
Capa 1
 62
     7
370
     9
100
AcDb2dPolyline
 66
     1
 10
0.0
 20
0.0
 30
0.0
  0
VERTEX
  5
311
330
310
100
AcDbEntity
  8
Capa 1
 62
     7
370
     9
100
AcDbVertex
100
AcDb2dVertex
 10
85.06044105946405
 20
176.0857204420897
 30
0.0
  0
VERTEX
  5
312
330
310
100
AcDbEntity
  8
Capa 1
 62
     7
370
     9
100
AcDbVertex
100
AcDb2dVertex
 10
105.9601128207322
 20
176.0857204420897
 30
0.0
  0
SEQEND
  5
313
330
310
100
AcDbEntity
  8
Capa 1
370
     9
  0
POLYLINE
  5
314
330
1AF
100
AcDbEntity
  8
Capa 1
 62
     7
370
     9
100
AcDb2dPolyline
 66
     1
 10
0.0
 20
0.0
 30
0.0
  0
VERTEX
  5
315
330
314
100
AcDbEntity
  8
Capa 1
 62
     7
370
     9
100
AcDbVertex
100
AcDb2dVertex
 10
105.9604573302807
 20
176.0857204420897
 30
0.0
  0
VERTEX
  5
316
330
314
100
AcDbEntity
  8
Capa 1
 62
     7
370
     9
100
AcDbVertex
100
AcDb2dVertex
 10
119.36015622016
 20
176.0857204420897
 30
0.0
  0
SEQEND
  5
317
330
314
100
AcDbEntity
  8
Capa 1
370
     9
  0
POLYLINE
  5
318
330
1AF
100
AcDbEntity
  8
Capa 1
 62
     7
370
     9
100
AcDb2dPolyline
 66
     1
 10
0.0
 20
0.0
 30
0.0
  0
VERTEX
  5
319
330
318
100
AcDbEntity
  8
Capa 1
 62
     7
370
     9
100
AcDbVertex
100
AcDb2dVertex
 10
105.9604573302807
 20
170.7392767585305
 30
0.0
  0
VERTEX
  5
31A
330
318
100
AcDbEntity
  8
Capa 1
 62
     7
370
     9
100
AcDbVertex
100
AcDb2dVertex
 10
105.9604573302807
 20
176.04127871033
 30
0.0
  0
SEQEND
  5
31B
330
318
100
AcDbEntity
  8
Capa 1
370
     9
  0
POLYLINE
  5
31C
330
1AF
100
AcDbEntity
  8
Capa 1
 62
     7
370
     9
100
AcDb2dPolyline
 66
     1
 10
0.0
 20
0.0
 30
0.0
  0
VERTEX
  5
31D
330
31C
100
AcDbEntity
  8
Capa 1
 62
     7
370
     9
100
AcDbVertex
100
AcDb2dVertex
 10
119.36015622016
 20
176.0857204420897
 30
0.0
  0
VERTEX
  5
31E
330
31C
100
AcDbEntity
  8
Capa 1
 62
     7
370
     9
100
AcDbVertex
100
AcDb2dVertex
 10
130.5601616427072
 20
176.0857204420897
 30
0.0
  0
SEQEND
  5
31F
330
31C
100
AcDbEntity
  8
Capa 1
370
     9
  0
POLYLINE
  5
320
330
1AF
100
AcDbEntity
  8
Capa 1
 62
     7
370
     9
100
AcDb2dPolyline
 66
     1
 10
0.0
 20
0.0
 30
0.0
  0
VERTEX
  5
321
330
320
100
AcDbEntity
  8
Capa 1
 62
     7
370
     9
100
AcDbVertex
100
AcDb2dVertex
 10
119.36015622016
 20
170.7392767585305
 30
0.0
  0
VERTEX
  5
322
330
320
100
AcDbEntity
  8
Capa 1
 62
     7
370
     9
100
AcDbVertex
100
AcDb2dVertex
 10
119.36015622016
 20
176.04127871033
 30
0.0
  0
SEQEND
  5
323
330
320
100
AcDbEntity
  8
Capa 1
370
     9
  0
POLYLINE
  5
324
330
1AF
100
AcDbEntity
  8
Capa 1
 62
     7
370
     9
100
AcDb2dPolyline
 66
     1
 10
0.0
 20
0.0
 30
0.0
  0
VERTEX
  5
325
330
324
100
AcDbEntity
  8
Capa 1
 62
     7
370
     9
100
AcDbVertex
100
AcDb2dVertex
 10
130.5601616427072
 20
176.0857204420897
 30
0.0
  0
VERTEX
  5
326
330
324
100
AcDbEntity
  8
Capa 1
 62
     7
370
     9
100
AcDbVertex
100
AcDb2dVertex
 10
144.2602728589002
 20
176.0857204420897
 30
0.0
  0
SEQEND
  5
327
330
324
100
AcDbEntity
  8
Capa 1
370
     9
  0
POLYLINE
  5
328
330
1AF
100
AcDbEntity
  8
Capa 1
 62
     7
370
     9
100
AcDb2dPolyline
 66
     1
 10
0.0
 20
0.0
 30
0.0
  0
VERTEX
  5
329
330
328
100
AcDbEntity
  8
Capa 1
 62
     7
370
     9
100
AcDbVertex
100
AcDb2dVertex
 10
130.5601616427072
 20
170.7392767585305
 30
0.0
  0
VERTEX
  5
32A
330
328
100
AcDbEntity
  8
Capa 1
 62
     7
370
     9
100
AcDbVertex
100
AcDb2dVertex
 10
130.5601616427072
 20
176.04127871033
 30
0.0
  0
SEQEND
  5
32B
330
328
100
AcDbEntity
  8
Capa 1
370
     9
  0
POLYLINE
  5
32C
330
1AF
100
AcDbEntity
  8
Capa 1
 62
     7
370
     9
100
AcDb2dPolyline
 66
     1
 10
0.0
 20
0.0
 30
0.0
  0
VERTEX
  5
32D
330
32C
100
AcDbEntity
  8
Capa 1
 62
     7
370
     9
100
AcDbVertex
100
AcDb2dVertex
 10
144.2602728589002
 20
176.0857204420897
 30
0.0
  0
VERTEX
  5
32E
330
32C
100
AcDbEntity
  8
Capa 1
 62
     7
370
     9
100
AcDbVertex
100
AcDb2dVertex
 10
155.8602538672849
 20
176.0857204420897
 30
0.0
  0
SEQEND
  5
32F
330
32C
100
AcDbEntity
  8
Capa 1
370
     9
  0
POLYLINE
  5
330
330
1AF
100
AcDbEntity
  8
Capa 1
 62
     7
370
     9
100
AcDb2dPolyline
 66
     1
 10
0.0
 20
0.0
 30
0.0
  0
VERTEX
  5
331
330
330
100
AcDbEntity
  8
Capa 1
 62
     7
370
     9
100
AcDbVertex
100
AcDb2dVertex
 10
144.2602728589002
 20
170.7392767585305
 30
0.0
  0
VERTEX
  5
332
330
330
100
AcDbEntity
  8
Capa 1
 62
     7
370
     9
100
AcDbVertex
100
AcDb2dVertex
 10
144.2602728589002
 20
176.04127871033
 30
0.0
  0
SEQEND
  5
333
330
330
100
AcDbEntity
  8
Capa 1
370
     9
  0
POLYLINE
  5
334
330
1AF
100
AcDbEntity
  8
Capa 1
 62
     7
370
     9
100
AcDb2dPolyline
 66
     1
 10
0.0
 20
0.0
 30
0.0
  0
VERTEX
  5
335
330
334
100
AcDbEntity
  8
Capa 1
 62
     7
370
     9
100
AcDbVertex
100
AcDb2dVertex
 10
155.8161566450737
 20
170.7392767585305
 30
0.0
  0
VERTEX
  5
336
330
334
100
AcDbEntity
  8
Capa 1
 62
     7
370
     9
100
AcDbVertex
100
AcDb2dVertex
 10
155.8161566450737
 20
176.04127871033
 30
0.0
  0
SEQEND
  5
337
330
334
100
AcDbEntity
  8
Capa 1
370
     9
  0
POLYLINE
  5
338
330
1AF
100
AcDbEntity
  8
Capa 1
 62
     7
370
     9
100
AcDb2dPolyline
 66
     1
 10
0.0
 20
0.0
 30
0.0
  0
VERTEX
  5
339
330
338
100
AcDbEntity
  8
Capa 1
 62
     7
370
     9
100
AcDbVertex
100
AcDb2dVertex
 10
85.06044105946405
 20
170.6951795363193
 30
0.0
  0
VERTEX
  5
33A
330
338
100
AcDbEntity
  8
Capa 1
 62
     7
370
     9
100
AcDbVertex
100
AcDb2dVertex
 10
105.9601128207322
 20
170.6951795363193
 30
0.0
  0
SEQEND
  5
33B
330
338
100
AcDbEntity
  8
Capa 1
370
     9
  0
POLYLINE
  5
33C
330
1AF
100
AcDbEntity
  8
Capa 1
 62
     7
370
     9
100
AcDb2dPolyline
 66
     1
 10
0.0
 20
0.0
 30
0.0
  0
VERTEX
  5
33D
330
33C
100
AcDbEntity
  8
Capa 1
 62
     7
370
     9
100
AcDbVertex
100
AcDb2dVertex
 10
105.9604573302807
 20
170.6951795363193
 30
0.0
  0
VERTEX
  5
33E
330
33C
100
AcDbEntity
  8
Capa 1
 62
     7
370
     9
100
AcDbVertex
100
AcDb2dVertex
 10
119.36015622016
 20
170.6951795363193
 30
0.0
  0
SEQEND
  5
33F
330
33C
100
AcDbEntity
  8
Capa 1
370
     9
  0
POLYLINE
  5
340
330
1AF
100
AcDbEntity
  8
Capa 1
 62
     7
370
     9
100
AcDb2dPolyline
 66
     1
 10
0.0
 20
0.0
 30
0.0
  0
VERTEX
  5
341
330
340
100
AcDbEntity
  8
Capa 1
 62
     7
370
     9
100
AcDbVertex
100
AcDb2dVertex
 10
105.9604573302807
 20
165.3487358527601
 30
0.0
  0
VERTEX
  5
342
330
340
100
AcDbEntity
  8
Capa 1
 62
     7
370
     9
100
AcDbVertex
100
AcDb2dVertex
 10
105.9604573302807
 20
170.6507378045596
 30
0.0
  0
SEQEND
  5
343
330
340
100
AcDbEntity
  8
Capa 1
370
     9
  0
POLYLINE
  5
344
330
1AF
100
AcDbEntity
  8
Capa 1
 62
     7
370
     9
100
AcDb2dPolyline
 66
     1
 10
0.0
 20
0.0
 30
0.0
  0
VERTEX
  5
345
330
344
100
AcDbEntity
  8
Capa 1
 62
     7
370
     9
100
AcDbVertex
100
AcDb2dVertex
 10
119.36015622016
 20
170.6951795363193
 30
0.0
  0
VERTEX
  5
346
330
344
100
AcDbEntity
  8
Capa 1
 62
     7
370
     9
100
AcDbVertex
100
AcDb2dVertex
 10
130.5601616427072
 20
170.6951795363193
 30
0.0
  0
SEQEND
  5
347
330
344
100
AcDbEntity
  8
Capa 1
370
     9
  0
POLYLINE
  5
348
330
1AF
100
AcDbEntity
  8
Capa 1
 62
     7
370
     9
100
AcDb2dPolyline
 66
     1
 10
0.0
 20
0.0
 30
0.0
  0
VERTEX
  5
349
330
348
100
AcDbEntity
  8
Capa 1
 62
     7
370
     9
100
AcDbVertex
100
AcDb2dVertex
 10
119.36015622016
 20
165.3487358527601
 30
0.0
  0
VERTEX
  5
34A
330
348
100
AcDbEntity
  8
Capa 1
 62
     7
370
     9
100
AcDbVertex
100
AcDb2dVertex
 10
119.36015622016
 20
170.6507378045596
 30
0.0
  0
SEQEND
  5
34B
330
348
100
AcDbEntity
  8
Capa 1
370
     9
  0
POLYLINE
  5
34C
330
1AF
100
AcDbEntity
  8
Capa 1
 62
     7
370
     9
100
AcDb2dPolyline
 66
     1
 10
0.0
 20
0.0
 30
0.0
  0
VERTEX
  5
34D
330
34C
100
AcDbEntity
  8
Capa 1
 62
     7
370
     9
100
AcDbVertex
100
AcDb2dVertex
 10
130.5601616427072
 20
170.6951795363193
 30
0.0
  0
VERTEX
  5
34E
330
34C
100
AcDbEntity
  8
Capa 1
 62
     7
370
     9
100
AcDbVertex
100
AcDb2dVertex
 10
144.2602728589002
 20
170.6951795363193
 30
0.0
  0
SEQEND
  5
34F
330
34C
100
AcDbEntity
  8
Capa 1
370
     9
  0
POLYLINE
  5
350
330
1AF
100
AcDbEntity
  8
Capa 1
 62
     7
370
     9
100
AcDb2dPolyline
 66
     1
 10
0.0
 20
0.0
 30
0.0
  0
VERTEX
  5
351
330
350
100
AcDbEntity
  8
Capa 1
 62
     7
370
     9
100
AcDbVertex
100
AcDb2dVertex
 10
130.5601616427072
 20
165.3487358527601
 30
0.0
  0
VERTEX
  5
352
330
350
100
AcDbEntity
  8
Capa 1
 62
     7
370
     9
100
AcDbVertex
100
AcDb2dVertex
 10
130.5601616427072
 20
170.6507378045596
 30
0.0
  0
SEQEND
  5
353
330
350
100
AcDbEntity
  8
Capa 1
370
     9
  0
POLYLINE
  5
354
330
1AF
100
AcDbEntity
  8
Capa 1
 62
     7
370
     9
100
AcDb2dPolyline
 66
     1
 10
0.0
 20
0.0
 30
0.0
  0
VERTEX
  5
355
330
354
100
AcDbEntity
  8
Capa 1
 62
     7
370
     9
100
AcDbVertex
100
AcDb2dVertex
 10
144.2602728589002
 20
170.6951795363193
 30
0.0
  0
VERTEX
  5
356
330
354
100
AcDbEntity
  8
Capa 1
 62
     7
370
     9
100
AcDbVertex
100
AcDb2dVertex
 10
155.8602538672849
 20
170.6951795363193
 30
0.0
  0
SEQEND
  5
357
330
354
100
AcDbEntity
  8
Capa 1
370
     9
  0
POLYLINE
  5
358
330
1AF
100
AcDbEntity
  8
Capa 1
 62
     7
370
     9
100
AcDb2dPolyline
 66
     1
 10
0.0
 20
0.0
 30
0.0
  0
VERTEX
  5
359
330
358
100
AcDbEntity
  8
Capa 1
 62
     7
370
     9
100
AcDbVertex
100
AcDb2dVertex
 10
144.2602728589002
 20
165.3487358527601
 30
0.0
  0
VERTEX
  5
35A
330
358
100
AcDbEntity
  8
Capa 1
 62
     7
370
     9
100
AcDbVertex
100
AcDb2dVertex
 10
144.2602728589002
 20
170.6507378045596
 30
0.0
  0
SEQEND
  5
35B
330
358
100
AcDbEntity
  8
Capa 1
370
     9
  0
POLYLINE
  5
35C
330
1AF
100
AcDbEntity
  8
Capa 1
 62
     7
370
     9
100
AcDb2dPolyline
 66
     1
 10
0.0
 20
0.0
 30
0.0
  0
VERTEX
  5
35D
330
35C
100
AcDbEntity
  8
Capa 1
 62
     7
370
     9
100
AcDbVertex
100
AcDb2dVertex
 10
155.8161566450737
 20
165.3487358527601
 30
0.0
  0
VERTEX
  5
35E
330
35C
100
AcDbEntity
  8
Capa 1
 62
     7
370
     9
100
AcDbVertex
100
AcDb2dVertex
 10
155.8161566450737
 20
170.6507378045596
 30
0.0
  0
SEQEND
  5
35F
330
35C
100
AcDbEntity
  8
Capa 1
370
     9
  0
POLYLINE
  5
360
330
1AF
100
AcDbEntity
  8
Capa 1
 62
     7
370
     9
100
AcDb2dPolyline
 66
     1
 10
0.0
 20
0.0
 30
0.0
  0
VERTEX
  5
361
330
360
100
AcDbEntity
  8
Capa 1
 62
     7
370
     9
100
AcDbVertex
100
AcDb2dVertex
 10
85.06044105946405
 20
165.3046386305489
 30
0.0
  0
VERTEX
  5
362
330
360
100
AcDbEntity
  8
Capa 1
 62
     7
370
     9
100
AcDbVertex
100
AcDb2dVertex
 10
105.9601128207322
 20
165.3046386305489
 30
0.0
  0
SEQEND
  5
363
330
360
100
AcDbEntity
  8
Capa 1
370
     9
  0
POLYLINE
  5
364
330
1AF
100
AcDbEntity
  8
Capa 1
 62
     7
370
     9
100
AcDb2dPolyline
 66
     1
 10
0.0
 20
0.0
 30
0.0
  0
VERTEX
  5
365
330
364
100
AcDbEntity
  8
Capa 1
 62
     7
370
     9
100
AcDbVertex
100
AcDb2dVertex
 10
105.9604573302807
 20
165.3046386305489
 30
0.0
  0
VERTEX
  5
366
330
364
100
AcDbEntity
  8
Capa 1
 62
     7
370
     9
100
AcDbVertex
100
AcDb2dVertex
 10
119.36015622016
 20
165.3046386305489
 30
0.0
  0
SEQEND
  5
367
330
364
100
AcDbEntity
  8
Capa 1
370
     9
  0
POLYLINE
  5
368
330
1AF
100
AcDbEntity
  8
Capa 1
 62
     7
370
     9
100
AcDb2dPolyline
 66
     1
 10
0.0
 20
0.0
 30
0.0
  0
VERTEX
  5
369
330
368
100
AcDbEntity
  8
Capa 1
 62
     7
370
     9
100
AcDbVertex
100
AcDb2dVertex
 10
105.9604573302807
 20
159.9578504374411
 30
0.0
  0
VERTEX
  5
36A
330
368
100
AcDbEntity
  8
Capa 1
 62
     7
370
     9
100
AcDbVertex
100
AcDb2dVertex
 10
105.9604573302807
 20
165.2601968987891
 30
0.0
  0
SEQEND
  5
36B
330
368
100
AcDbEntity
  8
Capa 1
370
     9
  0
POLYLINE
  5
36C
330
1AF
100
AcDbEntity
  8
Capa 1
 62
     7
370
     9
100
AcDb2dPolyline
 66
     1
 10
0.0
 20
0.0
 30
0.0
  0
VERTEX
  5
36D
330
36C
100
AcDbEntity
  8
Capa 1
 62
     7
370
     9
100
AcDbVertex
100
AcDb2dVertex
 10
119.36015622016
 20
165.3046386305489
 30
0.0
  0
VERTEX
  5
36E
330
36C
100
AcDbEntity
  8
Capa 1
 62
     7
370
     9
100
AcDbVertex
100
AcDb2dVertex
 10
130.5601616427072
 20
165.3046386305489
 30
0.0
  0
SEQEND
  5
36F
330
36C
100
AcDbEntity
  8
Capa 1
370
     9
  0
POLYLINE
  5
370
330
1AF
100
AcDbEntity
  8
Capa 1
 62
     7
370
     9
100
AcDb2dPolyline
 66
     1
 10
0.0
 20
0.0
 30
0.0
  0
VERTEX
  5
371
330
370
100
AcDbEntity
  8
Capa 1
 62
     7
370
     9
100
AcDbVertex
100
AcDb2dVertex
 10
119.36015622016
 20
159.9578504374411
 30
0.0
  0
VERTEX
  5
372
330
370
100
AcDbEntity
  8
Capa 1
 62
     7
370
     9
100
AcDbVertex
100
AcDb2dVertex
 10
119.36015622016
 20
165.2601968987891
 30
0.0
  0
SEQEND
  5
373
330
370
100
AcDbEntity
  8
Capa 1
370
     9
  0
POLYLINE
  5
374
330
1AF
100
AcDbEntity
  8
Capa 1
 62
     7
370
     9
100
AcDb2dPolyline
 66
     1
 10
0.0
 20
0.0
 30
0.0
  0
VERTEX
  5
375
330
374
100
AcDbEntity
  8
Capa 1
 62
     7
370
     9
100
AcDbVertex
100
AcDb2dVertex
 10
130.5601616427072
 20
165.3046386305489
 30
0.0
  0
VERTEX
  5
376
330
374
100
AcDbEntity
  8
Capa 1
 62
     7
370
     9
100
AcDbVertex
100
AcDb2dVertex
 10
144.2602728589002
 20
165.3046386305489
 30
0.0
  0
SEQEND
  5
377
330
374
100
AcDbEntity
  8
Capa 1
370
     9
  0
POLYLINE
  5
378
330
1AF
100
AcDbEntity
  8
Capa 1
 62
     7
370
     9
100
AcDb2dPolyline
 66
     1
 10
0.0
 20
0.0
 30
0.0
  0
VERTEX
  5
379
330
378
100
AcDbEntity
  8
Capa 1
 62
     7
370
     9
100
AcDbVertex
100
AcDb2dVertex
 10
130.5601616427072
 20
159.9578504374411
 30
0.0
  0
VERTEX
  5
37A
330
378
100
AcDbEntity
  8
Capa 1
 62
     7
370
     9
100
AcDbVertex
100
AcDb2dVertex
 10
130.5601616427072
 20
165.2601968987891
 30
0.0
  0
SEQEND
  5
37B
330
378
100
AcDbEntity
  8
Capa 1
370
     9
  0
POLYLINE
  5
37C
330
1AF
100
AcDbEntity
  8
Capa 1
 62
     7
370
     9
100
AcDb2dPolyline
 66
     1
 10
0.0
 20
0.0
 30
0.0
  0
VERTEX
  5
37D
330
37C
100
AcDbEntity
  8
Capa 1
 62
     7
370
     9
100
AcDbVertex
100
AcDb2dVertex
 10
144.2602728589002
 20
165.3046386305489
 30
0.0
  0
VERTEX
  5
37E
330
37C
100
AcDbEntity
  8
Capa 1
 62
     7
370
     9
100
AcDbVertex
100
AcDb2dVertex
 10
155.8602538672849
 20
165.3046386305489
 30
0.0
  0
SEQEND
  5
37F
330
37C
100
AcDbEntity
  8
Capa 1
370
     9
  0
POLYLINE
  5
380
330
1AF
100
AcDbEntity
  8
Capa 1
 62
     7
370
     9
100
AcDb2dPolyline
 66
     1
 10
0.0
 20
0.0
 30
0.0
  0
VERTEX
  5
381
330
380
100
AcDbEntity
  8
Capa 1
 62
     7
370
     9
100
AcDbVertex
100
AcDb2dVertex
 10
144.2602728589002
 20
159.9578504374411
 30
0.0
  0
VERTEX
  5
382
330
380
100
AcDbEntity
  8
Capa 1
 62
     7
370
     9
100
AcDbVertex
100
AcDb2dVertex
 10
144.2602728589002
 20
165.2601968987891
 30
0.0
  0
SEQEND
  5
383
330
380
100
AcDbEntity
  8
Capa 1
370
     9
  0
POLYLINE
  5
384
330
1AF
100
AcDbEntity
  8
Capa 1
 62
     7
370
     9
100
AcDb2dPolyline
 66
     1
 10
0.0
 20
0.0
 30
0.0
  0
VERTEX
  5
385
330
384
100
AcDbEntity
  8
Capa 1
 62
     7
370
     9
100
AcDbVertex
100
AcDb2dVertex
 10
155.8161566450737
 20
159.9578504374411
 30
0.0
  0
VERTEX
  5
386
330
384
100
AcDbEntity
  8
Capa 1
 62
     7
370
     9
100
AcDbVertex
100
AcDb2dVertex
 10
155.8161566450737
 20
165.2601968987891
 30
0.0
  0
SEQEND
  5
387
330
384
100
AcDbEntity
  8
Capa 1
370
     9
  0
POLYLINE
  5
388
330
1AF
100
AcDbEntity
  8
Capa 1
 62
     7
370
     9
100
AcDb2dPolyline
 66
     1
 10
0.0
 20
0.0
 30
0.0
  0
VERTEX
  5
389
330
388
100
AcDbEntity
  8
Capa 1
 62
     7
370
     9
100
AcDbVertex
100
AcDb2dVertex
 10
85.06044105946405
 20
159.9137532152299
 30
0.0
  0
VERTEX
  5
38A
330
388
100
AcDbEntity
  8
Capa 1
 62
     7
370
     9
100
AcDbVertex
100
AcDb2dVertex
 10
105.9601128207322
 20
159.9137532152299
 30
0.0
  0
SEQEND
  5
38B
330
388
100
AcDbEntity
  8
Capa 1
370
     9
  0
POLYLINE
  5
38C
330
1AF
100
AcDbEntity
  8
Capa 1
 62
     7
370
     9
100
AcDb2dPolyline
 66
     1
 10
0.0
 20
0.0
 30
0.0
  0
VERTEX
  5
38D
330
38C
100
AcDbEntity
  8
Capa 1
 62
     7
370
     9
100
AcDbVertex
100
AcDb2dVertex
 10
105.9604573302807
 20
159.9137532152299
 30
0.0
  0
VERTEX
  5
38E
330
38C
100
AcDbEntity
  8
Capa 1
 62
     7
370
     9
100
AcDbVertex
100
AcDb2dVertex
 10
119.36015622016
 20
159.9137532152299
 30
0.0
  0
SEQEND
  5
38F
330
38C
100
AcDbEntity
  8
Capa 1
370
     9
  0
POLYLINE
  5
390
330
1AF
100
AcDbEntity
  8
Capa 1
 62
     7
370
     9
100
AcDb2dPolyline
 66
     1
 10
0.0
 20
0.0
 30
0.0
  0
VERTEX
  5
391
330
390
100
AcDbEntity
  8
Capa 1
 62
     7
370
     9
100
AcDbVertex
100
AcDb2dVertex
 10
105.9604573302807
 20
154.5676540412192
 30
0.0
  0
VERTEX
  5
392
330
390
100
AcDbEntity
  8
Capa 1
 62
     7
370
     9
100
AcDbVertex
100
AcDb2dVertex
 10
105.9604573302807
 20
159.8696559930187
 30
0.0
  0
SEQEND
  5
393
330
390
100
AcDbEntity
  8
Capa 1
370
     9
  0
POLYLINE
  5
394
330
1AF
100
AcDbEntity
  8
Capa 1
 62
     7
370
     9
100
AcDb2dPolyline
 66
     1
 10
0.0
 20
0.0
 30
0.0
  0
VERTEX
  5
395
330
394
100
AcDbEntity
  8
Capa 1
 62
     7
370
     9
100
AcDbVertex
100
AcDb2dVertex
 10
119.36015622016
 20
159.9137532152299
 30
0.0
  0
VERTEX
  5
396
330
394
100
AcDbEntity
  8
Capa 1
 62
     7
370
     9
100
AcDbVertex
100
AcDb2dVertex
 10
130.5601616427072
 20
159.9137532152299
 30
0.0
  0
SEQEND
  5
397
330
394
100
AcDbEntity
  8
Capa 1
370
     9
  0
POLYLINE
  5
398
330
1AF
100
AcDbEntity
  8
Capa 1
 62
     7
370
     9
100
AcDb2dPolyline
 66
     1
 10
0.0
 20
0.0
 30
0.0
  0
VERTEX
  5
399
330
398
100
AcDbEntity
  8
Capa 1
 62
     7
370
     9
100
AcDbVertex
100
AcDb2dVertex
 10
119.36015622016
 20
154.5676540412192
 30
0.0
  0
VERTEX
  5
39A
330
398
100
AcDbEntity
  8
Capa 1
 62
     7
370
     9
100
AcDbVertex
100
AcDb2dVertex
 10
119.36015622016
 20
159.8696559930187
 30
0.0
  0
SEQEND
  5
39B
330
398
100
AcDbEntity
  8
Capa 1
370
     9
  0
POLYLINE
  5
39C
330
1AF
100
AcDbEntity
  8
Capa 1
 62
     7
370
     9
100
AcDb2dPolyline
 66
     1
 10
0.0
 20
0.0
 30
0.0
  0
VERTEX
  5
39D
330
39C
100
AcDbEntity
  8
Capa 1
 62
     7
370
     9
100
AcDbVertex
100
AcDb2dVertex
 10
130.5601616427072
 20
159.9137532152299
 30
0.0
  0
VERTEX
  5
39E
330
39C
100
AcDbEntity
  8
Capa 1
 62
     7
370
     9
100
AcDbVertex
100
AcDb2dVertex
 10
144.2602728589002
 20
159.9137532152299
 30
0.0
  0
SEQEND
  5
39F
330
39C
100
AcDbEntity
  8
Capa 1
370
     9
  0
POLYLINE
  5
3A0
330
1AF
100
AcDbEntity
  8
Capa 1
 62
     7
370
     9
100
AcDb2dPolyline
 66
     1
 10
0.0
 20
0.0
 30
0.0
  0
VERTEX
  5
3A1
330
3A0
100
AcDbEntity
  8
Capa 1
 62
     7
370
     9
100
AcDbVertex
100
AcDb2dVertex
 10
130.5601616427072
 20
154.5676540412192
 30
0.0
  0
VERTEX
  5
3A2
330
3A0
100
AcDbEntity
  8
Capa 1
 62
     7
370
     9
100
AcDbVertex
100
AcDb2dVertex
 10
130.5601616427072
 20
159.8696559930187
 30
0.0
  0
SEQEND
  5
3A3
330
3A0
100
AcDbEntity
  8
Capa 1
370
     9
  0
POLYLINE
  5
3A4
330
1AF
100
AcDbEntity
  8
Capa 1
 62
     7
370
     9
100
AcDb2dPolyline
 66
     1
 10
0.0
 20
0.0
 30
0.0
  0
VERTEX
  5
3A5
330
3A4
100
AcDbEntity
  8
Capa 1
 62
     7
370
     9
100
AcDbVertex
100
AcDb2dVertex
 10
144.2602728589002
 20
159.9137532152299
 30
0.0
  0
VERTEX
  5
3A6
330
3A4
100
AcDbEntity
  8
Capa 1
 62
     7
370
     9
100
AcDbVertex
100
AcDb2dVertex
 10
155.8602538672849
 20
159.9137532152299
 30
0.0
  0
SEQEND
  5
3A7
330
3A4
100
AcDbEntity
  8
Capa 1
370
     9
  0
POLYLINE
  5
3A8
330
1AF
100
AcDbEntity
  8
Capa 1
 62
     7
370
     9
100
AcDb2dPolyline
 66
     1
 10
0.0
 20
0.0
 30
0.0
  0
VERTEX
  5
3A9
330
3A8
100
AcDbEntity
  8
Capa 1
 62
     7
370
     9
100
AcDbVertex
100
AcDb2dVertex
 10
144.2602728589002
 20
154.5676540412192
 30
0.0
  0
VERTEX
  5
3AA
330
3A8
100
AcDbEntity
  8
Capa 1
 62
     7
370
     9
100
AcDbVertex
100
AcDb2dVertex
 10
144.2602728589002
 20
159.8696559930187
 30
0.0
  0
SEQEND
  5
3AB
330
3A8
100
AcDbEntity
  8
Capa 1
370
     9
  0
POLYLINE
  5
3AC
330
1AF
100
AcDbEntity
  8
Capa 1
 62
     7
370
     9
100
AcDb2dPolyline
 66
     1
 10
0.0
 20
0.0
 30
0.0
  0
VERTEX
  5
3AD
330
3AC
100
AcDbEntity
  8
Capa 1
 62
     7
370
     9
100
AcDbVertex
100
AcDb2dVertex
 10
155.8161566450737
 20
154.5676540412192
 30
0.0
  0
VERTEX
  5
3AE
330
3AC
100
AcDbEntity
  8
Capa 1
 62
     7
370
     9
100
AcDbVertex
100
AcDb2dVertex
 10
155.8161566450737
 20
159.8696559930187
 30
0.0
  0
SEQEND
  5
3AF
330
3AC
100
AcDbEntity
  8
Capa 1
370
     9
  0
POLYLINE
  5
3B0
330
1AF
100
AcDbEntity
  8
Capa 1
 62
     7
370
     9
100
AcDb2dPolyline
 66
     1
 10
0.0
 20
0.0
 30
0.0
  0
VERTEX
  5
3B1
330
3B0
100
AcDbEntity
  8
Capa 1
 62
     7
370
     9
100
AcDbVertex
100
AcDb2dVertex
 10
85.06044105946405
 20
154.523556819008
 30
0.0
  0
VERTEX
  5
3B2
330
3B0
100
AcDbEntity
  8
Capa 1
 62
     7
370
     9
100
AcDbVertex
100
AcDb2dVertex
 10
105.9601128207322
 20
154.523556819008
 30
0.0
  0
SEQEND
  5
3B3
330
3B0
100
AcDbEntity
  8
Capa 1
370
     9
  0
POLYLINE
  5
3B4
330
1AF
100
AcDbEntity
  8
Capa 1
 62
     7
370
     9
100
AcDb2dPolyline
 66
     1
 10
0.0
 20
0.0
 30
0.0
  0
VERTEX
  5
3B5
330
3B4
100
AcDbEntity
  8
Capa 1
 62
     7
370
     9
100
AcDbVertex
100
AcDb2dVertex
 10
105.9604573302807
 20
154.523556819008
 30
0.0
  0
VERTEX
  5
3B6
330
3B4
100
AcDbEntity
  8
Capa 1
 62
     7
370
     9
100
AcDbVertex
100
AcDb2dVertex
 10
119.36015622016
 20
154.523556819008
 30
0.0
  0
SEQEND
  5
3B7
330
3B4
100
AcDbEntity
  8
Capa 1
370
     9
  0
POLYLINE
  5
3B8
330
1AF
100
AcDbEntity
  8
Capa 1
 62
     7
370
     9
100
AcDb2dPolyline
 66
     1
 10
0.0
 20
0.0
 30
0.0
  0
VERTEX
  5
3B9
330
3B8
100
AcDbEntity
  8
Capa 1
 62
     7
370
     9
100
AcDbVertex
100
AcDb2dVertex
 10
119.36015622016
 20
154.523556819008
 30
0.0
  0
VERTEX
  5
3BA
330
3B8
100
AcDbEntity
  8
Capa 1
 62
     7
370
     9
100
AcDbVertex
100
AcDb2dVertex
 10
130.5601616427072
 20
154.523556819008
 30
0.0
  0
SEQEND
  5
3BB
330
3B8
100
AcDbEntity
  8
Capa 1
370
     9
  0
POLYLINE
  5
3BC
330
1AF
100
AcDbEntity
  8
Capa 1
 62
     7
370
     9
100
AcDb2dPolyline
 66
     1
 10
0.0
 20
0.0
 30
0.0
  0
VERTEX
  5
3BD
330
3BC
100
AcDbEntity
  8
Capa 1
 62
     7
370
     9
100
AcDbVertex
100
AcDb2dVertex
 10
130.5601616427072
 20
154.523556819008
 30
0.0
  0
VERTEX
  5
3BE
330
3BC
100
AcDbEntity
  8
Capa 1
 62
     7
370
     9
100
AcDbVertex
100
AcDb2dVertex
 10
144.2602728589002
 20
154.523556819008
 30
0.0
  0
SEQEND
  5
3BF
330
3BC
100
AcDbEntity
  8
Capa 1
370
     9
  0
POLYLINE
  5
3C0
330
1AF
100
AcDbEntity
  8
Capa 1
 62
     7
370
     9
100
AcDb2dPolyline
 66
     1
 10
0.0
 20
0.0
 30
0.0
  0
VERTEX
  5
3C1
330
3C0
100
AcDbEntity
  8
Capa 1
 62
     7
370
     9
100
AcDbVertex
100
AcDb2dVertex
 10
144.2602728589002
 20
154.523556819008
 30
0.0
  0
VERTEX
  5
3C2
330
3C0
100
AcDbEntity
  8
Capa 1
 62
     7
370
     9
100
AcDbVertex
100
AcDb2dVertex
 10
155.8602538672849
 20
154.523556819008
 30
0.0
  0
SEQEND
  5
3C3
330
3C0
100
AcDbEntity
  8
Capa 1
370
     9
  0
MTEXT
  5
3C4
330
1AF
100
AcDbEntity
  8
Capa 1
 62
   250
100
AcDbMText
 10
88.51535506684687
 20
188.2779133643889
 30
0.0
 40
2.398888888289167
 41
0.0
 71
     7
 72
     1
  1
\fArial|b1|i0|c0|p34;\W1;Tipo
 73
     1
 44
1.0
  0
MTEXT
  5
3C5
330
1AF
100
AcDbEntity
  8
Capa 1
 62
   250
100
AcDbMText
 10
115.5312770978533
 20
188.2779133643889
 30
0.0
 40
2.398888888289167
 41
0.0
 71
     7
 72
     1
  1
\fArial|b1|i0|c0|p34;\W1;A
 73
     1
 44
1.0
  0
MTEXT
  5
3C6
330
1AF
100
AcDbEntity
  8
Capa 1
 62
   250
100
AcDbMText
 10
126.6014024206066
 20
188.2779133643889
 30
0.0
 40
2.398888888289167
 41
0.0
 71
     7
 72
     1
  1
\fArial|b1|i0|c0|p34;\W1;B
 73
     1
 44
1.0
  0
MTEXT
  5
3C7
330
1AF
100
AcDbEntity
  8
Capa 1
 62
   250
100
AcDbMText
 10
140.2994465795085
 20
188.2779133643889
 30
0.0
 40
2.398888888289167
 41
0.0
 71
     7
 72
     1
  1
\fArial|b1|i0|c0|p34;\W1;C
 73
     1
 44
1.0
  0
MTEXT
  5
3C8
330
1AF
100
AcDbEntity
  8
Capa 1
 62
   250
100
AcDbMText
 10
151.8567084038761
 20
188.2779133643889
 30
0.0
 40
2.398888888289167
 41
0.0
 71
     7
 72
     1
  1
\fArial|b1|i0|c0|p34;\W1;D
 73
     1
 44
1.0
  0
MTEXT
  5
3C9
330
1AF
100
AcDbEntity
  8
Capa 1
 62
   250
100
AcDbMText
 10
88.51535506684687
 20
182.8873724586184
 30
0.0
 40
2.398888888289167
 41
0.0
 71
     7
 72
     1
  1
\fArial|b1|i0|c0|p34;\W1;WGC-25
 73
     1
 44
1.0
  0
MTEXT
  5
3CA
330
1AF
100
AcDbEntity
  8
Capa 1
 62
   250
100
AcDbMText
 10
111.0826252977502
 20
182.8873724586184
 30
0.0
 40
2.398888888289167
 41
0.0
 71
     7
 72
     1
  1
\fArial|b0|i0|c0|p34;\W1;60.5
 73
     1
 44
1.0
  0
MTEXT
  5
3CB
330
1AF
100
AcDbEntity
  8
Capa 1
 62
   250
100
AcDbMText
 10
125.2254312837978
 20
182.8873724586184
 30
0.0
 40
2.398888888289167
 41
0.0
 71
     7
 72
     1
  1
\fArial|b0|i0|c0|p34;\W1;25
 73
     1
 44
1.0
  0
MTEXT
  5
3CC
330
1AF
100
AcDbEntity
  8
Capa 1
 62
   250
100
AcDbMText
 10
138.9238199522482
 20
182.8873724586184
 30
0.0
 40
2.398888888289167
 41
0.0
 71
     7
 72
     1
  1
\fArial|b0|i0|c0|p34;\W1;64
 73
     1
 44
1.0
  0
MTEXT
  5
3CD
330
1AF
100
AcDbEntity
  8
Capa 1
 62
   250
100
AcDbMText
 10
153.2288899356511
 20
182.8873724586184
 30
0.0
 40
2.398888888289167
 41
0.0
 71
     7
 72
     1
  1
\fArial|b0|i0|c0|p34;\W1;-
 73
     1
 44
1.0
  0
MTEXT
  5
3CE
330
1AF
100
AcDbEntity
  8
Capa 1
 62
   250
100
AcDbMText
 10
88.51535506684687
 20
177.496831552848
 30
0.0
 40
2.398888888289167
 41
0.0
 71
     7
 72
     1
  1
\fArial|b1|i0|c0|p34;\W1;WGC-35
 73
     1
 44
1.0
  0
MTEXT
  5
3CF
330
1AF
100
AcDbEntity
  8
Capa 1
 62
   250
100
AcDbMText
 10
111.0826252977502
 20
177.496831552848
 30
0.0
 40
2.398888888289167
 41
0.0
 71
     7
 72
     1
  1
\fArial|b0|i0|c0|p34;\W1;70.5
 73
     1
 44
1.0
  0
MTEXT
  5
3D0
330
1AF
100
AcDbEntity
  8
Capa 1
 62
   250
100
AcDbMText
 10
125.2254312837978
 20
177.496831552848
 30
0.0
 40
2.398888888289167
 41
0.0
 71
     7
 72
     1
  1
\fArial|b0|i0|c0|p34;\W1;35
 73
     1
 44
1.0
  0
MTEXT
  5
3D1
330
1AF
100
AcDbEntity
  8
Capa 1
 62
   250
100
AcDbMText
 10
135.9817084078448
 20
177.496831552848
 30
0.0
 40
2.398888888289167
 41
0.0
 71
     7
 72
     1
  1
\fArial|b0|i0|c0|p34;\W1;75.5
 73
     1
 44
1.0
  0
MTEXT
  5
3D2
330
1AF
100
AcDbEntity
  8
Capa 1
 62
   250
100
AcDbMText
 10
153.2288899356511
 20
177.496831552848
 30
0.0
 40
2.398888888289167
 41
0.0
 71
     7
 72
     1
  1
\fArial|b0|i0|c0|p34;\W1;-
 73
     1
 44
1.0
  0
MTEXT
  5
3D3
330
1AF
100
AcDbEntity
  8
Capa 1
 62
   250
100
AcDbMText
 10
88.51535506684687
 20
172.1062906470776
 30
0.0
 40
2.398888888289167
 41
0.0
 71
     7
 72
     1
  1
\fArial|b1|i0|c0|p34;\W1;WGC-55
 73
     1
 44
1.0
  0
MTEXT
  5
3D4
330
1AF
100
AcDbEntity
  8
Capa 1
 62
   250
100
AcDbMText
 10
114.0247368421535
 20
172.1062906470776
 30
0.0
 40
2.398888888289167
 41
0.0
 71
     7
 72
     1
  1
\fArial|b0|i0|c0|p34;\W1;92
 73
     1
 44
1.0
  0
MTEXT
  5
3D5
330
1AF
100
AcDbEntity
  8
Capa 1
 62
   250
100
AcDbMText
 10
125.2254312837978
 20
172.1062906470776
 30
0.0
 40
2.398888888289167
 41
0.0
 71
     7
 72
     1
  1
\fArial|b0|i0|c0|p34;\W1;55
 73
     1
 44
1.0
  0
MTEXT
  5
3D6
330
1AF
100
AcDbEntity
  8
Capa 1
 62
   250
100
AcDbMText
 10
138.9238199522482
 20
172.1062906470776
 30
0.0
 40
2.398888888289167
 41
0.0
 71
     7
 72
     1
  1
\fArial|b0|i0|c0|p34;\W1;98
 73
     1
 44
1.0
  0
MTEXT
  5
3D7
330
1AF
100
AcDbEntity
  8
Capa 1
 62
   250
100
AcDbMText
 10
150.4810817766158
 20
172.1062906470776
 30
0.0
 40
2.398888888289167
 41
0.0
 71
     7
 72
     1
  1
\fArial|b0|i0|c0|p34;\W1;38
 73
     1
 44
1.0
  0
MTEXT
  5
3D8
330
1AF
100
AcDbEntity
  8
Capa 1
 62
   250
100
AcDbMText
 10
88.51535506684687
 20
166.7160942508557
 30
0.0
 40
2.398888888289167
 41
0.0
 71
     7
 72
     1
  1
\fArial|b1|i0|c0|p34;\W1;WGC-80
 73
     1
 44
1.0
  0
MTEXT
  5
3D9
330
1AF
100
AcDbEntity
  8
Capa 1
 62
   250
100
AcDbMText
 10
109.1213324379975
 20
166.7160942508557
 30
0.0
 40
2.398888888289167
 41
0.0
 71
     7
 72
     1
  1
\fArial|b0|i0|c0|p34;\W1;124.5
 73
     1
 44
1.0
  0
MTEXT
  5
3DA
330
1AF
100
AcDbEntity
  8
Capa 1
 62
   250
100
AcDbMText
 10
125.2254312837978
 20
166.7160942508557
 30
0.0
 40
2.398888888289167
 41
0.0
 71
     7
 72
     1
  1
\fArial|b0|i0|c0|p34;\W1;80
 73
     1
 44
1.0
  0
MTEXT
  5
3DB
330
1AF
100
AcDbEntity
  8
Capa 1
 62
   250
100
AcDbMText
 10
136.9625270924955
 20
166.7160942508557
 30
0.0
 40
2.398888888289167
 41
0.0
 71
     7
 72
     1
  1
\fArial|b0|i0|c0|p34;\W1;130
 73
     1
 44
1.0
  0
MTEXT
  5
3DC
330
1AF
100
AcDbEntity
  8
Capa 1
 62
   250
100
AcDbMText
 10
150.4810817766158
 20
166.7160942508557
 30
0.0
 40
2.398888888289167
 41
0.0
 71
     7
 72
     1
  1
\fArial|b0|i0|c0|p34;\W1;60
 73
     1
 44
1.0
  0
MTEXT
  5
3DD
330
1AF
100
AcDbEntity
  8
Capa 1
 62
   250
100
AcDbMText
 10
88.51535506684687
 20
161.3255533450853
 30
0.0
 40
2.398888888289167
 41
0.0
 71
     7
 72
     1
  1
\fArial|b1|i0|c0|p34;\W1;WGC-110
 73
     1
 44
1.0
  0
MTEXT
  5
3DE
330
1AF
100
AcDbEntity
  8
Capa 1
 62
   250
100
AcDbMText
 10
112.0634439824008
 20
161.3255533450853
 30
0.0
 40
2.398888888289167
 41
0.0
 71
     7
 72
     1
  1
\fArial|b0|i0|c0|p34;\W1;163
 73
     1
 44
1.0
  0
MTEXT
  5
3DF
330
1AF
100
AcDbEntity
  8
Capa 1
 62
   250
100
AcDbMText
 10
123.525276661827
 20
161.3255533450853
 30
0.0
 40
2.398888888289167
 41
0.0
 71
     7
 72
     1
  1
\fArial|b0|i0|c0|p34;\W1;110
 73
     1
 44
1.0
  0
MTEXT
  5
3E0
330
1AF
100
AcDbEntity
  8
Capa 1
 62
   250
100
AcDbMText
 10
136.9625270924955
 20
161.3255533450853
 30
0.0
 40
2.398888888289167
 41
0.0
 71
     7
 72
     1
  1
\fArial|b0|i0|c0|p34;\W1;168
 73
     1
 44
1.0
  0
MTEXT
  5
3E1
330
1AF
100
AcDbEntity
  8
Capa 1
 62
   250
100
AcDbMText
 10
147.538625722664
 20
161.3255533450853
 30
0.0
 40
2.398888888289167
 41
0.0
 71
     7
 72
     1
  1
\fArial|b0|i0|c0|p34;\W1;84.5
 73
     1
 44
1.0
  0
MTEXT
  5
3E2
330
1AF
100
AcDbEntity
  8
Capa 1
 62
   250
100
AcDbMText
 10
88.51535506684687
 20
155.9350124393149
 30
0.0
 40
2.398888888289167
 41
0.0
 71
     7
 72
     1
  1
\fArial|b1|i0|c0|p34;\W1;WGC-140
 73
     1
 44
1.0
  0
MTEXT
  5
3E3
330
1AF
100
AcDbEntity
  8
Capa 1
 62
   250
100
AcDbMText
 10
112.0634439824008
 20
155.9350124393149
 30
0.0
 40
2.398888888289167
 41
0.0
 71
     7
 72
     1
  1
\fArial|b0|i0|c0|p34;\W1;201
 73
     1
 44
1.0
  0
MTEXT
  5
3E4
330
1AF
100
AcDbEntity
  8
Capa 1
 62
   250
100
AcDbMText
 10
123.2641384240451
 20
155.9350124393149
 30
0.0
 40
2.398888888289167
 41
0.0
 71
     7
 72
     1
  1
\fArial|b0|i0|c0|p34;\W1;140
 73
     1
 44
1.0
  0
MTEXT
  5
3E5
330
1AF
100
AcDbEntity
  8
Capa 1
 62
   250
100
AcDbMText
 10
134.0204155480921
 20
155.9350124393149
 30
0.0
 40
2.398888888289167
 41
0.0
 71
     7
 72
     1
  1
\fArial|b0|i0|c0|p34;\W1;206.5
 73
     1
 44
1.0
  0
MTEXT
  5
3E6
330
1AF
100
AcDbEntity
  8
Capa 1
 62
   250
100
AcDbMText
 10
148.7805826450965
 20
155.9350124393149
 30
0.0
 40
2.398888888289167
 41
0.0
 71
     7
 72
     1
  1
\fArial|b0|i0|c0|p34;\W1;110
 73
     1
 44
1.0
  0
ENDBLK
  5
1B2
330
1AF
100
AcDbEntity
  8
0
100
AcDbBlockEnd
  0
BLOCK
  5
1B5
330
1B3
100
AcDbEntity
  8
0
100
AcDbBlockBegin
  2
block 3
 70
     0
 71
     0
 10
0.0
 20
0.0
 30
0.0
  3
block 3
  1

  0
POLYLINE
  5
1B7
330
1B3
100
AcDbEntity
  8
Capa 1
370
     0
100
AcDb2dPolyline
 66
     1
 10
0.0
 20
0.0
 30
0.0
  0
VERTEX
  5
1B8
330
1B7
100
AcDbEntity
  8
Capa 1
370
     0
100
AcDbVertex
100
AcDb2dVertex
 10
144.2602728589002
 20
192.257343159401
 30
0.0
  0
VERTEX
  5
1B9
330
1B7
100
AcDbEntity
  8
Capa 1
370
     0
100
AcDbVertex
100
AcDb2dVertex
 10
155.8158121355252
 20
192.257343159401
 30
0.0
  0
VERTEX
  5
1BA
330
1B7
100
AcDbEntity
  8
Capa 1
370
     0
100
AcDbVertex
100
AcDb2dVertex
 10
155.8158121355252
 20
186.8668022536305
 30
0.0
  0
VERTEX
  5
1BB
330
1B7
100
AcDbEntity
  8
Capa 1
370
     0
100
AcDbVertex
100
AcDb2dVertex
 10
144.2602728589002
 20
186.8668022536305
 30
0.0
  0
VERTEX
  5
1BC
330
1B7
100
AcDbEntity
  8
Capa 1
370
     0
100
AcDbVertex
100
AcDb2dVertex
 10
144.2602728589002
 20
192.257343159401
 30
0.0
  0
SEQEND
  5
1BD
330
1B7
100
AcDbEntity
  8
Capa 1
370
     0
  0
POLYLINE
  5
1BE
330
1B3
100
AcDbEntity
  8
Capa 1
370
     0
100
AcDb2dPolyline
 66
     1
 10
0.0
 20
0.0
 30
0.0
  0
VERTEX
  5
1BF
330
1BE
100
AcDbEntity
  8
Capa 1
370
     0
100
AcDbVertex
100
AcDb2dVertex
 10
130.5605061522557
 20
192.257343159401
 30
0.0
  0
VERTEX
  5
1C0
330
1BE
100
AcDbEntity
  8
Capa 1
370
     0
100
AcDbVertex
100
AcDb2dVertex
 10
144.2602728589002
 20
192.257343159401
 30
0.0
  0
VERTEX
  5
1C1
330
1BE
100
AcDbEntity
  8
Capa 1
370
     0
100
AcDbVertex
100
AcDb2dVertex
 10
144.2602728589002
 20
186.8668022536305
 30
0.0
  0
VERTEX
  5
1C2
330
1BE
100
AcDbEntity
  8
Capa 1
370
     0
100
AcDbVertex
100
AcDb2dVertex
 10
130.5605061522557
 20
186.8668022536305
 30
0.0
  0
VERTEX
  5
1C3
330
1BE
100
AcDbEntity
  8
Capa 1
370
     0
100
AcDbVertex
100
AcDb2dVertex
 10
130.5605061522557
 20
192.257343159401
 30
0.0
  0
SEQEND
  5
1C4
330
1BE
100
AcDbEntity
  8
Capa 1
370
     0
  0
POLYLINE
  5
1C5
330
1B3
100
AcDbEntity
  8
Capa 1
370
     0
100
AcDb2dPolyline
 66
     1
 10
0.0
 20
0.0
 30
0.0
  0
VERTEX
  5
1C6
330
1C5
100
AcDbEntity
  8
Capa 1
370
     0
100
AcDbVertex
100
AcDb2dVertex
 10
119.3605007297085
 20
192.257343159401
 30
0.0
  0
VERTEX
  5
1C7
330
1C5
100
AcDbEntity
  8
Capa 1
370
     0
100
AcDbVertex
100
AcDb2dVertex
 10
130.5605061522557
 20
192.257343159401
 30
0.0
  0
VERTEX
  5
1C8
330
1C5
100
AcDbEntity
  8
Capa 1
370
     0
100
AcDbVertex
100
AcDb2dVertex
 10
130.5605061522557
 20
186.8668022536305
 30
0.0
  0
VERTEX
  5
1C9
330
1C5
100
AcDbEntity
  8
Capa 1
370
     0
100
AcDbVertex
100
AcDb2dVertex
 10
119.3605007297085
 20
186.8668022536305
 30
0.0
  0
VERTEX
  5
1CA
330
1C5
100
AcDbEntity
  8
Capa 1
370
     0
100
AcDbVertex
100
AcDb2dVertex
 10
119.3605007297085
 20
192.257343159401
 30
0.0
  0
SEQEND
  5
1CB
330
1C5
100
AcDbEntity
  8
Capa 1
370
     0
  0
POLYLINE
  5
1CC
330
1B3
100
AcDbEntity
  8
Capa 1
370
     0
100
AcDb2dPolyline
 66
     1
 10
0.0
 20
0.0
 30
0.0
  0
VERTEX
  5
1CD
330
1CC
100
AcDbEntity
  8
Capa 1
370
     0
100
AcDbVertex
100
AcDb2dVertex
 10
105.9601128207322
 20
192.257343159401
 30
0.0
  0
VERTEX
  5
1CE
330
1CC
100
AcDbEntity
  8
Capa 1
370
     0
100
AcDbVertex
100
AcDb2dVertex
 10
119.3598117106114
 20
192.257343159401
 30
0.0
  0
VERTEX
  5
1CF
330
1CC
100
AcDbEntity
  8
Capa 1
370
     0
100
AcDbVertex
100
AcDb2dVertex
 10
119.3598117106114
 20
186.8668022536305
 30
0.0
  0
VERTEX
  5
1D0
330
1CC
100
AcDbEntity
  8
Capa 1
370
     0
100
AcDbVertex
100
AcDb2dVertex
 10
105.9601128207322
 20
186.8668022536305
 30
0.0
  0
VERTEX
  5
1D1
330
1CC
100
AcDbEntity
  8
Capa 1
370
     0
100
AcDbVertex
100
AcDb2dVertex
 10
105.9601128207322
 20
192.257343159401
 30
0.0
  0
SEQEND
  5
1D2
330
1CC
100
AcDbEntity
  8
Capa 1
370
     0
  0
POLYLINE
  5
1D3
330
1B3
100
AcDbEntity
  8
Capa 1
370
     0
100
AcDb2dPolyline
 66
     1
 10
0.0
 20
0.0
 30
0.0
  0
VERTEX
  5
1D4
330
1D3
100
AcDbEntity
  8
Capa 1
370
     0
100
AcDbVertex
100
AcDb2dVertex
 10
85.10419377212673
 20
192.257343159401
 30
0.0
  0
VERTEX
  5
1D5
330
1D3
100
AcDbEntity
  8
Capa 1
370
     0
100
AcDbVertex
100
AcDb2dVertex
 10
105.9601128207322
 20
192.257343159401
 30
0.0
  0
VERTEX
  5
1D6
330
1D3
100
AcDbEntity
  8
Capa 1
370
     0
100
AcDbVertex
100
AcDb2dVertex
 10
105.9601128207322
 20
186.8668022536305
 30
0.0
  0
VERTEX
  5
1D7
330
1D3
100
AcDbEntity
  8
Capa 1
370
     0
100
AcDbVertex
100
AcDb2dVertex
 10
85.10419377212673
 20
186.8668022536305
 30
0.0
  0
VERTEX
  5
1D8
330
1D3
100
AcDbEntity
  8
Capa 1
370
     0
100
AcDbVertex
100
AcDb2dVertex
 10
85.10419377212673
 20
192.257343159401
 30
0.0
  0
SEQEND
  5
1D9
330
1D3
100
AcDbEntity
  8
Capa 1
370
     0
  0
POLYLINE
  5
1DA
330
1B3
100
AcDbEntity
  8
Capa 1
370
     0
100
AcDb2dPolyline
 66
     1
 10
0.0
 20
0.0
 30
0.0
  0
VERTEX
  5
1DB
330
1DA
100
AcDbEntity
  8
Capa 1
370
     0
100
AcDbVertex
100
AcDb2dVertex
 10
144.2602728589002
 20
165.3046386305489
 30
0.0
  0
VERTEX
  5
1DC
330
1DA
100
AcDbEntity
  8
Capa 1
370
     0
100
AcDbVertex
100
AcDb2dVertex
 10
155.8158121355252
 20
165.3046386305489
 30
0.0
  0
VERTEX
  5
1DD
330
1DA
100
AcDbEntity
  8
Capa 1
370
     0
100
AcDbVertex
100
AcDb2dVertex
 10
155.8158121355252
 20
159.9140977247784
 30
0.0
  0
VERTEX
  5
1DE
330
1DA
100
AcDbEntity
  8
Capa 1
370
     0
100
AcDbVertex
100
AcDb2dVertex
 10
144.2602728589002
 20
159.9140977247784
 30
0.0
  0
VERTEX
  5
1DF
330
1DA
100
AcDbEntity
  8
Capa 1
370
     0
100
AcDbVertex
100
AcDb2dVertex
 10
144.2602728589002
 20
165.3046386305489
 30
0.0
  0
SEQEND
  5
1E0
330
1DA
100
AcDbEntity
  8
Capa 1
370
     0
  0
POLYLINE
  5
1E1
330
1B3
100
AcDbEntity
  8
Capa 1
370
     0
100
AcDb2dPolyline
 66
     1
 10
0.0
 20
0.0
 30
0.0
  0
VERTEX
  5
1E2
330
1E1
100
AcDbEntity
  8
Capa 1
370
     0
100
AcDbVertex
100
AcDb2dVertex
 10
130.5605061522557
 20
165.3046386305489
 30
0.0
  0
VERTEX
  5
1E3
330
1E1
100
AcDbEntity
  8
Capa 1
370
     0
100
AcDbVertex
100
AcDb2dVertex
 10
144.2602728589002
 20
165.3046386305489
 30
0.0
  0
VERTEX
  5
1E4
330
1E1
100
AcDbEntity
  8
Capa 1
370
     0
100
AcDbVertex
100
AcDb2dVertex
 10
144.2602728589002
 20
159.9140977247784
 30
0.0
  0
VERTEX
  5
1E5
330
1E1
100
AcDbEntity
  8
Capa 1
370
     0
100
AcDbVertex
100
AcDb2dVertex
 10
130.5605061522557
 20
159.9140977247784
 30
0.0
  0
VERTEX
  5
1E6
330
1E1
100
AcDbEntity
  8
Capa 1
370
     0
100
AcDbVertex
100
AcDb2dVertex
 10
130.5605061522557
 20
165.3046386305489
 30
0.0
  0
SEQEND
  5
1E7
330
1E1
100
AcDbEntity
  8
Capa 1
370
     0
  0
POLYLINE
  5
1E8
330
1B3
100
AcDbEntity
  8
Capa 1
370
     0
100
AcDb2dPolyline
 66
     1
 10
0.0
 20
0.0
 30
0.0
  0
VERTEX
  5
1E9
330
1E8
100
AcDbEntity
  8
Capa 1
370
     0
100
AcDbVertex
100
AcDb2dVertex
 10
119.3605007297085
 20
165.3046386305489
 30
0.0
  0
VERTEX
  5
1EA
330
1E8
100
AcDbEntity
  8
Capa 1
370
     0
100
AcDbVertex
100
AcDb2dVertex
 10
130.5605061522557
 20
165.3046386305489
 30
0.0
  0
VERTEX
  5
1EB
330
1E8
100
AcDbEntity
  8
Capa 1
370
     0
100
AcDbVertex
100
AcDb2dVertex
 10
130.5605061522557
 20
159.9140977247784
 30
0.0
  0
VERTEX
  5
1EC
330
1E8
100
AcDbEntity
  8
Capa 1
370
     0
100
AcDbVertex
100
AcDb2dVertex
 10
119.3605007297085
 20
159.9140977247784
 30
0.0
  0
VERTEX
  5
1ED
330
1E8
100
AcDbEntity
  8
Capa 1
370
     0
100
AcDbVertex
100
AcDb2dVertex
 10
119.3605007297085
 20
165.3046386305489
 30
0.0
  0
SEQEND
  5
1EE
330
1E8
100
AcDbEntity
  8
Capa 1
370
     0
  0
POLYLINE
  5
1EF
330
1B3
100
AcDbEntity
  8
Capa 1
370
     0
100
AcDb2dPolyline
 66
     1
 10
0.0
 20
0.0
 30
0.0
  0
VERTEX
  5
1F0
330
1EF
100
AcDbEntity
  8
Capa 1
370
     0
100
AcDbVertex
100
AcDb2dVertex
 10
105.9601128207322
 20
165.3046386305489
 30
0.0
  0
VERTEX
  5
1F1
330
1EF
100
AcDbEntity
  8
Capa 1
370
     0
100
AcDbVertex
100
AcDb2dVertex
 10
119.3598117106114
 20
165.3046386305489
 30
0.0
  0
VERTEX
  5
1F2
330
1EF
100
AcDbEntity
  8
Capa 1
370
     0
100
AcDbVertex
100
AcDb2dVertex
 10
119.3598117106114
 20
159.9140977247784
 30
0.0
  0
VERTEX
  5
1F3
330
1EF
100
AcDbEntity
  8
Capa 1
370
     0
100
AcDbVertex
100
AcDb2dVertex
 10
105.9601128207322
 20
159.9140977247784
 30
0.0
  0
VERTEX
  5
1F4
330
1EF
100
AcDbEntity
  8
Capa 1
370
     0
100
AcDbVertex
100
AcDb2dVertex
 10
105.9601128207322
 20
165.3046386305489
 30
0.0
  0
SEQEND
  5
1F5
330
1EF
100
AcDbEntity
  8
Capa 1
370
     0
  0
POLYLINE
  5
1F6
330
1B3
100
AcDbEntity
  8
Capa 1
370
     0
100
AcDb2dPolyline
 66
     1
 10
0.0
 20
0.0
 30
0.0
  0
VERTEX
  5
1F7
330
1F6
100
AcDbEntity
  8
Capa 1
370
     0
100
AcDbVertex
100
AcDb2dVertex
 10
85.10419377212673
 20
165.3046386305489
 30
0.0
  0
VERTEX
  5
1F8
330
1F6
100
AcDbEntity
  8
Capa 1
370
     0
100
AcDbVertex
100
AcDb2dVertex
 10
105.9601128207322
 20
165.3046386305489
 30
0.0
  0
VERTEX
  5
1F9
330
1F6
100
AcDbEntity
  8
Capa 1
370
     0
100
AcDbVertex
100
AcDb2dVertex
 10
105.9601128207322
 20
159.9140977247784
 30
0.0
  0
VERTEX
  5
1FA
330
1F6
100
AcDbEntity
  8
Capa 1
370
     0
100
AcDbVertex
100
AcDb2dVertex
 10
85.10419377212673
 20
159.9140977247784
 30
0.0
  0
VERTEX
  5
1FB
330
1F6
100
AcDbEntity
  8
Capa 1
370
     0
100
AcDbVertex
100
AcDb2dVertex
 10
85.10419377212673
 20
165.3046386305489
 30
0.0
  0
SEQEND
  5
1FC
330
1F6
100
AcDbEntity
  8
Capa 1
370
     0
  0
POLYLINE
  5
1FD
330
1B3
100
AcDbEntity
  8
Capa 1
370
     0
100
AcDb2dPolyline
 66
     1
 10
0.0
 20
0.0
 30
0.0
  0
VERTEX
  5
1FE
330
1FD
100
AcDbEntity
  8
Capa 1
370
     0
100
AcDbVertex
100
AcDb2dVertex
 10
144.2602728589002
 20
176.0853759325412
 30
0.0
  0
VERTEX
  5
1FF
330
1FD
100
AcDbEntity
  8
Capa 1
370
     0
100
AcDbVertex
100
AcDb2dVertex
 10
155.8158121355252
 20
176.0853759325412
 30
0.0
  0
VERTEX
  5
200
330
1FD
100
AcDbEntity
  8
Capa 1
370
     0
100
AcDbVertex
100
AcDb2dVertex
 10
155.8158121355252
 20
170.6951795363193
 30
0.0
  0
VERTEX
  5
201
330
1FD
100
AcDbEntity
  8
Capa 1
370
     0
100
AcDbVertex
100
AcDb2dVertex
 10
144.2602728589002
 20
170.6951795363193
 30
0.0
  0
VERTEX
  5
202
330
1FD
100
AcDbEntity
  8
Capa 1
370
     0
100
AcDbVertex
100
AcDb2dVertex
 10
144.2602728589002
 20
176.0853759325412
 30
0.0
  0
SEQEND
  5
203
330
1FD
100
AcDbEntity
  8
Capa 1
370
     0
  0
POLYLINE
  5
204
330
1B3
100
AcDbEntity
  8
Capa 1
370
     0
100
AcDb2dPolyline
 66
     1
 10
0.0
 20
0.0
 30
0.0
  0
VERTEX
  5
205
330
204
100
AcDbEntity
  8
Capa 1
370
     0
100
AcDbVertex
100
AcDb2dVertex
 10
130.5605061522557
 20
176.0853759325412
 30
0.0
  0
VERTEX
  5
206
330
204
100
AcDbEntity
  8
Capa 1
370
     0
100
AcDbVertex
100
AcDb2dVertex
 10
144.2602728589002
 20
176.0853759325412
 30
0.0
  0
VERTEX
  5
207
330
204
100
AcDbEntity
  8
Capa 1
370
     0
100
AcDbVertex
100
AcDb2dVertex
 10
144.2602728589002
 20
170.6951795363193
 30
0.0
  0
VERTEX
  5
208
330
204
100
AcDbEntity
  8
Capa 1
370
     0
100
AcDbVertex
100
AcDb2dVertex
 10
130.5605061522557
 20
170.6951795363193
 30
0.0
  0
VERTEX
  5
209
330
204
100
AcDbEntity
  8
Capa 1
370
     0
100
AcDbVertex
100
AcDb2dVertex
 10
130.5605061522557
 20
176.0853759325412
 30
0.0
  0
SEQEND
  5
20A
330
204
100
AcDbEntity
  8
Capa 1
370
     0
  0
POLYLINE
  5
20B
330
1B3
100
AcDbEntity
  8
Capa 1
370
     0
100
AcDb2dPolyline
 66
     1
 10
0.0
 20
0.0
 30
0.0
  0
VERTEX
  5
20C
330
20B
100
AcDbEntity
  8
Capa 1
370
     0
100
AcDbVertex
100
AcDb2dVertex
 10
119.3605007297085
 20
176.0853759325412
 30
0.0
  0
VERTEX
  5
20D
330
20B
100
AcDbEntity
  8
Capa 1
370
     0
100
AcDbVertex
100
AcDb2dVertex
 10
130.5605061522557
 20
176.0853759325412
 30
0.0
  0
VERTEX
  5
20E
330
20B
100
AcDbEntity
  8
Capa 1
370
     0
100
AcDbVertex
100
AcDb2dVertex
 10
130.5605061522557
 20
170.6951795363193
 30
0.0
  0
VERTEX
  5
20F
330
20B
100
AcDbEntity
  8
Capa 1
370
     0
100
AcDbVertex
100
AcDb2dVertex
 10
119.3605007297085
 20
170.6951795363193
 30
0.0
  0
VERTEX
  5
210
330
20B
100
AcDbEntity
  8
Capa 1
370
     0
100
AcDbVertex
100
AcDb2dVertex
 10
119.3605007297085
 20
176.0853759325412
 30
0.0
  0
SEQEND
  5
211
330
20B
100
AcDbEntity
  8
Capa 1
370
     0
  0
POLYLINE
  5
212
330
1B3
100
AcDbEntity
  8
Capa 1
370
     0
100
AcDb2dPolyline
 66
     1
 10
0.0
 20
0.0
 30
0.0
  0
VERTEX
  5
213
330
212
100
AcDbEntity
  8
Capa 1
370
     0
100
AcDbVertex
100
AcDb2dVertex
 10
105.9601128207322
 20
176.0853759325412
 30
0.0
  0
VERTEX
  5
214
330
212
100
AcDbEntity
  8
Capa 1
370
     0
100
AcDbVertex
100
AcDb2dVertex
 10
119.3598117106114
 20
176.0853759325412
 30
0.0
  0
VERTEX
  5
215
330
212
100
AcDbEntity
  8
Capa 1
370
     0
100
AcDbVertex
100
AcDb2dVertex
 10
119.3598117106114
 20
170.6951795363193
 30
0.0
  0
VERTEX
  5
216
330
212
100
AcDbEntity
  8
Capa 1
370
     0
100
AcDbVertex
100
AcDb2dVertex
 10
105.9601128207322
 20
170.6951795363193
 30
0.0
  0
VERTEX
  5
217
330
212
100
AcDbEntity
  8
Capa 1
370
     0
100
AcDbVertex
100
AcDb2dVertex
 10
105.9601128207322
 20
176.0853759325412
 30
0.0
  0
SEQEND
  5
218
330
212
100
AcDbEntity
  8
Capa 1
370
     0
  0
POLYLINE
  5
219
330
1B3
100
AcDbEntity
  8
Capa 1
370
     0
100
AcDb2dPolyline
 66
     1
 10
0.0
 20
0.0
 30
0.0
  0
VERTEX
  5
21A
330
219
100
AcDbEntity
  8
Capa 1
370
     0
100
AcDbVertex
100
AcDb2dVertex
 10
85.10419377212673
 20
176.0853759325412
 30
0.0
  0
VERTEX
  5
21B
330
219
100
AcDbEntity
  8
Capa 1
370
     0
100
AcDbVertex
100
AcDb2dVertex
 10
105.9601128207322
 20
176.0853759325412
 30
0.0
  0
VERTEX
  5
21C
330
219
100
AcDbEntity
  8
Capa 1
370
     0
100
AcDbVertex
100
AcDb2dVertex
 10
105.9601128207322
 20
170.6951795363193
 30
0.0
  0
VERTEX
  5
21D
330
219
100
AcDbEntity
  8
Capa 1
370
     0
100
AcDbVertex
100
AcDb2dVertex
 10
85.10419377212673
 20
170.6951795363193
 30
0.0
  0
VERTEX
  5
21E
330
219
100
AcDbEntity
  8
Capa 1
370
     0
100
AcDbVertex
100
AcDb2dVertex
 10
85.10419377212673
 20
176.0853759325412
 30
0.0
  0
SEQEND
  5
21F
330
219
100
AcDbEntity
  8
Capa 1
370
     0
  0
POLYLINE
  5
220
330
1B3
100
AcDbEntity
  8
Capa 1
370
     0
100
AcDb2dPolyline
 66
     1
 10
0.0
 20
0.0
 30
0.0
  0
VERTEX
  5
221
330
220
100
AcDbEntity
  8
Capa 1
370
     0
100
AcDbVertex
100
AcDb2dVertex
 10
144.2602728589002
 20
186.8668022536305
 30
0.0
  0
VERTEX
  5
222
330
220
100
AcDbEntity
  8
Capa 1
370
     0
100
AcDbVertex
100
AcDb2dVertex
 10
155.8158121355252
 20
186.8668022536305
 30
0.0
  0
VERTEX
  5
223
330
220
100
AcDbEntity
  8
Capa 1
370
     0
100
AcDbVertex
100
AcDb2dVertex
 10
155.8158121355252
 20
181.4762613478601
 30
0.0
  0
VERTEX
  5
224
330
220
100
AcDbEntity
  8
Capa 1
370
     0
100
AcDbVertex
100
AcDb2dVertex
 10
144.2602728589002
 20
181.4762613478601
 30
0.0
  0
VERTEX
  5
225
330
220
100
AcDbEntity
  8
Capa 1
370
     0
100
AcDbVertex
100
AcDb2dVertex
 10
144.2602728589002
 20
186.8668022536305
 30
0.0
  0
SEQEND
  5
226
330
220
100
AcDbEntity
  8
Capa 1
370
     0
  0
POLYLINE
  5
227
330
1B3
100
AcDbEntity
  8
Capa 1
370
     0
100
AcDb2dPolyline
 66
     1
 10
0.0
 20
0.0
 30
0.0
  0
VERTEX
  5
228
330
227
100
AcDbEntity
  8
Capa 1
370
     0
100
AcDbVertex
100
AcDb2dVertex
 10
130.5605061522557
 20
186.8668022536305
 30
0.0
  0
VERTEX
  5
229
330
227
100
AcDbEntity
  8
Capa 1
370
     0
100
AcDbVertex
100
AcDb2dVertex
 10
144.2602728589002
 20
186.8668022536305
 30
0.0
  0
VERTEX
  5
22A
330
227
100
AcDbEntity
  8
Capa 1
370
     0
100
AcDbVertex
100
AcDb2dVertex
 10
144.2602728589002
 20
181.4762613478601
 30
0.0
  0
VERTEX
  5
22B
330
227
100
AcDbEntity
  8
Capa 1
370
     0
100
AcDbVertex
100
AcDb2dVertex
 10
130.5605061522557
 20
181.4762613478601
 30
0.0
  0
VERTEX
  5
22C
330
227
100
AcDbEntity
  8
Capa 1
370
     0
100
AcDbVertex
100
AcDb2dVertex
 10
130.5605061522557
 20
186.8668022536305
 30
0.0
  0
SEQEND
  5
22D
330
227
100
AcDbEntity
  8
Capa 1
370
     0
  0
POLYLINE
  5
22E
330
1B3
100
AcDbEntity
  8
Capa 1
370
     0
100
AcDb2dPolyline
 66
     1
 10
0.0
 20
0.0
 30
0.0
  0
VERTEX
  5
22F
330
22E
100
AcDbEntity
  8
Capa 1
370
     0
100
AcDbVertex
100
AcDb2dVertex
 10
119.3605007297085
 20
186.8668022536305
 30
0.0
  0
VERTEX
  5
230
330
22E
100
AcDbEntity
  8
Capa 1
370
     0
100
AcDbVertex
100
AcDb2dVertex
 10
130.5605061522557
 20
186.8668022536305
 30
0.0
  0
VERTEX
  5
231
330
22E
100
AcDbEntity
  8
Capa 1
370
     0
100
AcDbVertex
100
AcDb2dVertex
 10
130.5605061522557
 20
181.4762613478601
 30
0.0
  0
VERTEX
  5
232
330
22E
100
AcDbEntity
  8
Capa 1
370
     0
100
AcDbVertex
100
AcDb2dVertex
 10
119.3605007297085
 20
181.4762613478601
 30
0.0
  0
VERTEX
  5
233
330
22E
100
AcDbEntity
  8
Capa 1
370
     0
100
AcDbVertex
100
AcDb2dVertex
 10
119.3605007297085
 20
186.8668022536305
 30
0.0
  0
SEQEND
  5
234
330
22E
100
AcDbEntity
  8
Capa 1
370
     0
  0
POLYLINE
  5
235
330
1B3
100
AcDbEntity
  8
Capa 1
370
     0
100
AcDb2dPolyline
 66
     1
 10
0.0
 20
0.0
 30
0.0
  0
VERTEX
  5
236
330
235
100
AcDbEntity
  8
Capa 1
370
     0
100
AcDbVertex
100
AcDb2dVertex
 10
105.9601128207322
 20
186.8668022536305
 30
0.0
  0
VERTEX
  5
237
330
235
100
AcDbEntity
  8
Capa 1
370
     0
100
AcDbVertex
100
AcDb2dVertex
 10
119.3598117106114
 20
186.8668022536305
 30
0.0
  0
VERTEX
  5
238
330
235
100
AcDbEntity
  8
Capa 1
370
     0
100
AcDbVertex
100
AcDb2dVertex
 10
119.3598117106114
 20
181.4762613478601
 30
0.0
  0
VERTEX
  5
239
330
235
100
AcDbEntity
  8
Capa 1
370
     0
100
AcDbVertex
100
AcDb2dVertex
 10
105.9601128207322
 20
181.4762613478601
 30
0.0
  0
VERTEX
  5
23A
330
235
100
AcDbEntity
  8
Capa 1
370
     0
100
AcDbVertex
100
AcDb2dVertex
 10
105.9601128207322
 20
186.8668022536305
 30
0.0
  0
SEQEND
  5
23B
330
235
100
AcDbEntity
  8
Capa 1
370
     0
  0
POLYLINE
  5
23C
330
1B3
100
AcDbEntity
  8
Capa 1
370
     0
100
AcDb2dPolyline
 66
     1
 10
0.0
 20
0.0
 30
0.0
  0
VERTEX
  5
23D
330
23C
100
AcDbEntity
  8
Capa 1
370
     0
100
AcDbVertex
100
AcDb2dVertex
 10
85.10419377212673
 20
186.8668022536305
 30
0.0
  0
VERTEX
  5
23E
330
23C
100
AcDbEntity
  8
Capa 1
370
     0
100
AcDbVertex
100
AcDb2dVertex
 10
105.9601128207322
 20
186.8668022536305
 30
0.0
  0
VERTEX
  5
23F
330
23C
100
AcDbEntity
  8
Capa 1
370
     0
100
AcDbVertex
100
AcDb2dVertex
 10
105.9601128207322
 20
181.4762613478601
 30
0.0
  0
VERTEX
  5
240
330
23C
100
AcDbEntity
  8
Capa 1
370
     0
100
AcDbVertex
100
AcDb2dVertex
 10
85.10419377212673
 20
181.4762613478601
 30
0.0
  0
VERTEX
  5
241
330
23C
100
AcDbEntity
  8
Capa 1
370
     0
100
AcDbVertex
100
AcDb2dVertex
 10
85.10419377212673
 20
186.8668022536305
 30
0.0
  0
SEQEND
  5
242
330
23C
100
AcDbEntity
  8
Capa 1
370
     0
  0
POLYLINE
  5
243
330
1B3
100
AcDbEntity
  8
Capa 1
370
     0
100
AcDb2dPolyline
 66
     1
 10
0.0
 20
0.0
 30
0.0
  0
VERTEX
  5
244
330
243
100
AcDbEntity
  8
Capa 1
370
     0
100
AcDbVertex
100
AcDb2dVertex
 10
144.2602728589002
 20
159.9137532152299
 30
0.0
  0
VERTEX
  5
245
330
243
100
AcDbEntity
  8
Capa 1
370
     0
100
AcDbVertex
100
AcDb2dVertex
 10
155.8158121355252
 20
159.9137532152299
 30
0.0
  0
VERTEX
  5
246
330
243
100
AcDbEntity
  8
Capa 1
370
     0
100
AcDbVertex
100
AcDb2dVertex
 10
155.8158121355252
 20
154.523556819008
 30
0.0
  0
VERTEX
  5
247
330
243
100
AcDbEntity
  8
Capa 1
370
     0
100
AcDbVertex
100
AcDb2dVertex
 10
144.2602728589002
 20
154.523556819008
 30
0.0
  0
VERTEX
  5
248
330
243
100
AcDbEntity
  8
Capa 1
370
     0
100
AcDbVertex
100
AcDb2dVertex
 10
144.2602728589002
 20
159.9137532152299
 30
0.0
  0
SEQEND
  5
249
330
243
100
AcDbEntity
  8
Capa 1
370
     0
  0
POLYLINE
  5
24A
330
1B3
100
AcDbEntity
  8
Capa 1
370
     0
100
AcDb2dPolyline
 66
     1
 10
0.0
 20
0.0
 30
0.0
  0
VERTEX
  5
24B
330
24A
100
AcDbEntity
  8
Capa 1
370
     0
100
AcDbVertex
100
AcDb2dVertex
 10
130.5605061522557
 20
159.9137532152299
 30
0.0
  0
VERTEX
  5
24C
330
24A
100
AcDbEntity
  8
Capa 1
370
     0
100
AcDbVertex
100
AcDb2dVertex
 10
144.2602728589002
 20
159.9137532152299
 30
0.0
  0
VERTEX
  5
24D
330
24A
100
AcDbEntity
  8
Capa 1
370
     0
100
AcDbVertex
100
AcDb2dVertex
 10
144.2602728589002
 20
154.523556819008
 30
0.0
  0
VERTEX
  5
24E
330
24A
100
AcDbEntity
  8
Capa 1
370
     0
100
AcDbVertex
100
AcDb2dVertex
 10
130.5605061522557
 20
154.523556819008
 30
0.0
  0
VERTEX
  5
24F
330
24A
100
AcDbEntity
  8
Capa 1
370
     0
100
AcDbVertex
100
AcDb2dVertex
 10
130.5605061522557
 20
159.9137532152299
 30
0.0
  0
SEQEND
  5
250
330
24A
100
AcDbEntity
  8
Capa 1
370
     0
  0
POLYLINE
  5
251
330
1B3
100
AcDbEntity
  8
Capa 1
370
     0
100
AcDb2dPolyline
 66
     1
 10
0.0
 20
0.0
 30
0.0
  0
VERTEX
  5
252
330
251
100
AcDbEntity
  8
Capa 1
370
     0
100
AcDbVertex
100
AcDb2dVertex
 10
119.3605007297085
 20
159.9137532152299
 30
0.0
  0
VERTEX
  5
253
330
251
100
AcDbEntity
  8
Capa 1
370
     0
100
AcDbVertex
100
AcDb2dVertex
 10
130.5605061522557
 20
159.9137532152299
 30
0.0
  0
VERTEX
  5
254
330
251
100
AcDbEntity
  8
Capa 1
370
     0
100
AcDbVertex
100
AcDb2dVertex
 10
130.5605061522557
 20
154.523556819008
 30
0.0
  0
VERTEX
  5
255
330
251
100
AcDbEntity
  8
Capa 1
370
     0
100
AcDbVertex
100
AcDb2dVertex
 10
119.3605007297085
 20
154.523556819008
 30
0.0
  0
VERTEX
  5
256
330
251
100
AcDbEntity
  8
Capa 1
370
     0
100
AcDbVertex
100
AcDb2dVertex
 10
119.3605007297085
 20
159.9137532152299
 30
0.0
  0
SEQEND
  5
257
330
251
100
AcDbEntity
  8
Capa 1
370
     0
  0
POLYLINE
  5
258
330
1B3
100
AcDbEntity
  8
Capa 1
370
     0
100
AcDb2dPolyline
 66
     1
 10
0.0
 20
0.0
 30
0.0
  0
VERTEX
  5
259
330
258
100
AcDbEntity
  8
Capa 1
370
     0
100
AcDbVertex
100
AcDb2dVertex
 10
105.9601128207322
 20
159.9137532152299
 30
0.0
  0
VERTEX
  5
25A
330
258
100
AcDbEntity
  8
Capa 1
370
     0
100
AcDbVertex
100
AcDb2dVertex
 10
119.3598117106114
 20
159.9137532152299
 30
0.0
  0
VERTEX
  5
25B
330
258
100
AcDbEntity
  8
Capa 1
370
     0
100
AcDbVertex
100
AcDb2dVertex
 10
119.3598117106114
 20
154.523556819008
 30
0.0
  0
VERTEX
  5
25C
330
258
100
AcDbEntity
  8
Capa 1
370
     0
100
AcDbVertex
100
AcDb2dVertex
 10
105.9601128207322
 20
154.523556819008
 30
0.0
  0
VERTEX
  5
25D
330
258
100
AcDbEntity
  8
Capa 1
370
     0
100
AcDbVertex
100
AcDb2dVertex
 10
105.9601128207322
 20
159.9137532152299
 30
0.0
  0
SEQEND
  5
25E
330
258
100
AcDbEntity
  8
Capa 1
370
     0
  0
POLYLINE
  5
25F
330
1B3
100
AcDbEntity
  8
Capa 1
370
     0
100
AcDb2dPolyline
 66
     1
 10
0.0
 20
0.0
 30
0.0
  0
VERTEX
  5
260
330
25F
100
AcDbEntity
  8
Capa 1
370
     0
100
AcDbVertex
100
AcDb2dVertex
 10
85.10419377212673
 20
159.9137532152299
 30
0.0
  0
VERTEX
  5
261
330
25F
100
AcDbEntity
  8
Capa 1
370
     0
100
AcDbVertex
100
AcDb2dVertex
 10
105.9601128207322
 20
159.9137532152299
 30
0.0
  0
VERTEX
  5
262
330
25F
100
AcDbEntity
  8
Capa 1
370
     0
100
AcDbVertex
100
AcDb2dVertex
 10
105.9601128207322
 20
154.523556819008
 30
0.0
  0
VERTEX
  5
263
330
25F
100
AcDbEntity
  8
Capa 1
370
     0
100
AcDbVertex
100
AcDb2dVertex
 10
85.10419377212673
 20
154.523556819008
 30
0.0
  0
VERTEX
  5
264
330
25F
100
AcDbEntity
  8
Capa 1
370
     0
100
AcDbVertex
100
AcDb2dVertex
 10
85.10419377212673
 20
159.9137532152299
 30
0.0
  0
SEQEND
  5
265
330
25F
100
AcDbEntity
  8
Capa 1
370
     0
  0
POLYLINE
  5
266
330
1B3
100
AcDbEntity
  8
Capa 1
370
     0
100
AcDb2dPolyline
 66
     1
 10
0.0
 20
0.0
 30
0.0
  0
VERTEX
  5
267
330
266
100
AcDbEntity
  8
Capa 1
370
     0
100
AcDbVertex
100
AcDb2dVertex
 10
144.2602728589002
 20
170.6951795363193
 30
0.0
  0
VERTEX
  5
268
330
266
100
AcDbEntity
  8
Capa 1
370
     0
100
AcDbVertex
100
AcDb2dVertex
 10
155.8158121355252
 20
170.6951795363193
 30
0.0
  0
VERTEX
  5
269
330
266
100
AcDbEntity
  8
Capa 1
370
     0
100
AcDbVertex
100
AcDb2dVertex
 10
155.8158121355252
 20
165.3046386305489
 30
0.0
  0
VERTEX
  5
26A
330
266
100
AcDbEntity
  8
Capa 1
370
     0
100
AcDbVertex
100
AcDb2dVertex
 10
144.2602728589002
 20
165.3046386305489
 30
0.0
  0
VERTEX
  5
26B
330
266
100
AcDbEntity
  8
Capa 1
370
     0
100
AcDbVertex
100
AcDb2dVertex
 10
144.2602728589002
 20
170.6951795363193
 30
0.0
  0
SEQEND
  5
26C
330
266
100
AcDbEntity
  8
Capa 1
370
     0
  0
POLYLINE
  5
26D
330
1B3
100
AcDbEntity
  8
Capa 1
370
     0
100
AcDb2dPolyline
 66
     1
 10
0.0
 20
0.0
 30
0.0
  0
VERTEX
  5
26E
330
26D
100
AcDbEntity
  8
Capa 1
370
     0
100
AcDbVertex
100
AcDb2dVertex
 10
130.5605061522557
 20
170.6951795363193
 30
0.0
  0
VERTEX
  5
26F
330
26D
100
AcDbEntity
  8
Capa 1
370
     0
100
AcDbVertex
100
AcDb2dVertex
 10
144.2602728589002
 20
170.6951795363193
 30
0.0
  0
VERTEX
  5
270
330
26D
100
AcDbEntity
  8
Capa 1
370
     0
100
AcDbVertex
100
AcDb2dVertex
 10
144.2602728589002
 20
165.3046386305489
 30
0.0
  0
VERTEX
  5
271
330
26D
100
AcDbEntity
  8
Capa 1
370
     0
100
AcDbVertex
100
AcDb2dVertex
 10
130.5605061522557
 20
165.3046386305489
 30
0.0
  0
VERTEX
  5
272
330
26D
100
AcDbEntity
  8
Capa 1
370
     0
100
AcDbVertex
100
AcDb2dVertex
 10
130.5605061522557
 20
170.6951795363193
 30
0.0
  0
SEQEND
  5
273
330
26D
100
AcDbEntity
  8
Capa 1
370
     0
  0
POLYLINE
  5
274
330
1B3
100
AcDbEntity
  8
Capa 1
370
     0
100
AcDb2dPolyline
 66
     1
 10
0.0
 20
0.0
 30
0.0
  0
VERTEX
  5
275
330
274
100
AcDbEntity
  8
Capa 1
370
     0
100
AcDbVertex
100
AcDb2dVertex
 10
119.3605007297085
 20
170.6951795363193
 30
0.0
  0
VERTEX
  5
276
330
274
100
AcDbEntity
  8
Capa 1
370
     0
100
AcDbVertex
100
AcDb2dVertex
 10
130.5605061522557
 20
170.6951795363193
 30
0.0
  0
VERTEX
  5
277
330
274
100
AcDbEntity
  8
Capa 1
370
     0
100
AcDbVertex
100
AcDb2dVertex
 10
130.5605061522557
 20
165.3046386305489
 30
0.0
  0
VERTEX
  5
278
330
274
100
AcDbEntity
  8
Capa 1
370
     0
100
AcDbVertex
100
AcDb2dVertex
 10
119.3605007297085
 20
165.3046386305489
 30
0.0
  0
VERTEX
  5
279
330
274
100
AcDbEntity
  8
Capa 1
370
     0
100
AcDbVertex
100
AcDb2dVertex
 10
119.3605007297085
 20
170.6951795363193
 30
0.0
  0
SEQEND
  5
27A
330
274
100
AcDbEntity
  8
Capa 1
370
     0
  0
POLYLINE
  5
27B
330
1B3
100
AcDbEntity
  8
Capa 1
370
     0
100
AcDb2dPolyline
 66
     1
 10
0.0
 20
0.0
 30
0.0
  0
VERTEX
  5
27C
330
27B
100
AcDbEntity
  8
Capa 1
370
     0
100
AcDbVertex
100
AcDb2dVertex
 10
105.9601128207322
 20
170.6951795363193
 30
0.0
  0
VERTEX
  5
27D
330
27B
100
AcDbEntity
  8
Capa 1
370
     0
100
AcDbVertex
100
AcDb2dVertex
 10
119.3598117106114
 20
170.6951795363193
 30
0.0
  0
VERTEX
  5
27E
330
27B
100
AcDbEntity
  8
Capa 1
370
     0
100
AcDbVertex
100
AcDb2dVertex
 10
119.3598117106114
 20
165.3046386305489
 30
0.0
  0
VERTEX
  5
27F
330
27B
100
AcDbEntity
  8
Capa 1
370
     0
100
AcDbVertex
100
AcDb2dVertex
 10
105.9601128207322
 20
165.3046386305489
 30
0.0
  0
VERTEX
  5
280
330
27B
100
AcDbEntity
  8
Capa 1
370
     0
100
AcDbVertex
100
AcDb2dVertex
 10
105.9601128207322
 20
170.6951795363193
 30
0.0
  0
SEQEND
  5
281
330
27B
100
AcDbEntity
  8
Capa 1
370
     0
  0
POLYLINE
  5
282
330
1B3
100
AcDbEntity
  8
Capa 1
370
     0
100
AcDb2dPolyline
 66
     1
 10
0.0
 20
0.0
 30
0.0
  0
VERTEX
  5
283
330
282
100
AcDbEntity
  8
Capa 1
370
     0
100
AcDbVertex
100
AcDb2dVertex
 10
85.10419377212673
 20
170.6951795363193
 30
0.0
  0
VERTEX
  5
284
330
282
100
AcDbEntity
  8
Capa 1
370
     0
100
AcDbVertex
100
AcDb2dVertex
 10
105.9601128207322
 20
170.6951795363193
 30
0.0
  0
VERTEX
  5
285
330
282
100
AcDbEntity
  8
Capa 1
370
     0
100
AcDbVertex
100
AcDb2dVertex
 10
105.9601128207322
 20
165.3046386305489
 30
0.0
  0
VERTEX
  5
286
330
282
100
AcDbEntity
  8
Capa 1
370
     0
100
AcDbVertex
100
AcDb2dVertex
 10
85.10419377212673
 20
165.3046386305489
 30
0.0
  0
VERTEX
  5
287
330
282
100
AcDbEntity
  8
Capa 1
370
     0
100
AcDbVertex
100
AcDb2dVertex
 10
85.10419377212673
 20
170.6951795363193
 30
0.0
  0
SEQEND
  5
288
330
282
100
AcDbEntity
  8
Capa 1
370
     0
  0
POLYLINE
  5
289
330
1B3
100
AcDbEntity
  8
Capa 1
370
     0
100
AcDb2dPolyline
 66
     1
 10
0.0
 20
0.0
 30
0.0
  0
VERTEX
  5
28A
330
289
100
AcDbEntity
  8
Capa 1
370
     0
100
AcDbVertex
100
AcDb2dVertex
 10
144.2602728589002
 20
181.4759168383116
 30
0.0
  0
VERTEX
  5
28B
330
289
100
AcDbEntity
  8
Capa 1
370
     0
100
AcDbVertex
100
AcDb2dVertex
 10
155.8158121355252
 20
181.4759168383116
 30
0.0
  0
VERTEX
  5
28C
330
289
100
AcDbEntity
  8
Capa 1
370
     0
100
AcDbVertex
100
AcDb2dVertex
 10
155.8158121355252
 20
176.0853759325412
 30
0.0
  0
VERTEX
  5
28D
330
289
100
AcDbEntity
  8
Capa 1
370
     0
100
AcDbVertex
100
AcDb2dVertex
 10
144.2602728589002
 20
176.0853759325412
 30
0.0
  0
VERTEX
  5
28E
330
289
100
AcDbEntity
  8
Capa 1
370
     0
100
AcDbVertex
100
AcDb2dVertex
 10
144.2602728589002
 20
181.4759168383116
 30
0.0
  0
SEQEND
  5
28F
330
289
100
AcDbEntity
  8
Capa 1
370
     0
  0
POLYLINE
  5
290
330
1B3
100
AcDbEntity
  8
Capa 1
370
     0
100
AcDb2dPolyline
 66
     1
 10
0.0
 20
0.0
 30
0.0
  0
VERTEX
  5
291
330
290
100
AcDbEntity
  8
Capa 1
370
     0
100
AcDbVertex
100
AcDb2dVertex
 10
130.5605061522557
 20
181.4759168383116
 30
0.0
  0
VERTEX
  5
292
330
290
100
AcDbEntity
  8
Capa 1
370
     0
100
AcDbVertex
100
AcDb2dVertex
 10
144.2602728589002
 20
181.4759168383116
 30
0.0
  0
VERTEX
  5
293
330
290
100
AcDbEntity
  8
Capa 1
370
     0
100
AcDbVertex
100
AcDb2dVertex
 10
144.2602728589002
 20
176.0853759325412
 30
0.0
  0
VERTEX
  5
294
330
290
100
AcDbEntity
  8
Capa 1
370
     0
100
AcDbVertex
100
AcDb2dVertex
 10
130.5605061522557
 20
176.0853759325412
 30
0.0
  0
VERTEX
  5
295
330
290
100
AcDbEntity
  8
Capa 1
370
     0
100
AcDbVertex
100
AcDb2dVertex
 10
130.5605061522557
 20
181.4759168383116
 30
0.0
  0
SEQEND
  5
296
330
290
100
AcDbEntity
  8
Capa 1
370
     0
  0
POLYLINE
  5
297
330
1B3
100
AcDbEntity
  8
Capa 1
370
     0
100
AcDb2dPolyline
 66
     1
 10
0.0
 20
0.0
 30
0.0
  0
VERTEX
  5
298
330
297
100
AcDbEntity
  8
Capa 1
370
     0
100
AcDbVertex
100
AcDb2dVertex
 10
119.3605007297085
 20
181.4759168383116
 30
0.0
  0
VERTEX
  5
299
330
297
100
AcDbEntity
  8
Capa 1
370
     0
100
AcDbVertex
100
AcDb2dVertex
 10
130.5605061522557
 20
181.4759168383116
 30
0.0
  0
VERTEX
  5
29A
330
297
100
AcDbEntity
  8
Capa 1
370
     0
100
AcDbVertex
100
AcDb2dVertex
 10
130.5605061522557
 20
176.0853759325412
 30
0.0
  0
VERTEX
  5
29B
330
297
100
AcDbEntity
  8
Capa 1
370
     0
100
AcDbVertex
100
AcDb2dVertex
 10
119.3605007297085
 20
176.0853759325412
 30
0.0
  0
VERTEX
  5
29C
330
297
100
AcDbEntity
  8
Capa 1
370
     0
100
AcDbVertex
100
AcDb2dVertex
 10
119.3605007297085
 20
181.4759168383116
 30
0.0
  0
SEQEND
  5
29D
330
297
100
AcDbEntity
  8
Capa 1
370
     0
  0
POLYLINE
  5
29E
330
1B3
100
AcDbEntity
  8
Capa 1
370
     0
100
AcDb2dPolyline
 66
     1
 10
0.0
 20
0.0
 30
0.0
  0
VERTEX
  5
29F
330
29E
100
AcDbEntity
  8
Capa 1
370
     0
100
AcDbVertex
100
AcDb2dVertex
 10
105.9601128207322
 20
181.4759168383116
 30
0.0
  0
VERTEX
  5
2A0
330
29E
100
AcDbEntity
  8
Capa 1
370
     0
100
AcDbVertex
100
AcDb2dVertex
 10
119.3598117106114
 20
181.4759168383116
 30
0.0
  0
VERTEX
  5
2A1
330
29E
100
AcDbEntity
  8
Capa 1
370
     0
100
AcDbVertex
100
AcDb2dVertex
 10
119.3598117106114
 20
176.0853759325412
 30
0.0
  0
VERTEX
  5
2A2
330
29E
100
AcDbEntity
  8
Capa 1
370
     0
100
AcDbVertex
100
AcDb2dVertex
 10
105.9601128207322
 20
176.0853759325412
 30
0.0
  0
VERTEX
  5
2A3
330
29E
100
AcDbEntity
  8
Capa 1
370
     0
100
AcDbVertex
100
AcDb2dVertex
 10
105.9601128207322
 20
181.4759168383116
 30
0.0
  0
SEQEND
  5
2A4
330
29E
100
AcDbEntity
  8
Capa 1
370
     0
  0
POLYLINE
  5
2A5
330
1B3
100
AcDbEntity
  8
Capa 1
370
     0
100
AcDb2dPolyline
 66
     1
 10
0.0
 20
0.0
 30
0.0
  0
VERTEX
  5
2A6
330
2A5
100
AcDbEntity
  8
Capa 1
370
     0
100
AcDbVertex
100
AcDb2dVertex
 10
85.10419377212673
 20
181.4759168383116
 30
0.0
  0
VERTEX
  5
2A7
330
2A5
100
AcDbEntity
  8
Capa 1
370
     0
100
AcDbVertex
100
AcDb2dVertex
 10
105.9601128207322
 20
181.4759168383116
 30
0.0
  0
VERTEX
  5
2A8
330
2A5
100
AcDbEntity
  8
Capa 1
370
     0
100
AcDbVertex
100
AcDb2dVertex
 10
105.9601128207322
 20
176.0853759325412
 30
0.0
  0
VERTEX
  5
2A9
330
2A5
100
AcDbEntity
  8
Capa 1
370
     0
100
AcDbVertex
100
AcDb2dVertex
 10
85.10419377212673
 20
176.0853759325412
 30
0.0
  0
VERTEX
  5
2AA
330
2A5
100
AcDbEntity
  8
Capa 1
370
     0
100
AcDbVertex
100
AcDb2dVertex
 10
85.10419377212673
 20
181.4759168383116
 30
0.0
  0
SEQEND
  5
2AB
330
2A5
100
AcDbEntity
  8
Capa 1
370
     0
  0
ENDBLK
  5
1B6
330
1B3
100
AcDbEntity
  8
0
100
AcDbBlockEnd
  0
ENDSEC
  0
SECTION
  2
ENTITIES
  0
IMAGE
  5
3F
330
1F
100
AcDbEntity
  8
Capa 1
 92
        8
310
0800000000000000
100
AcDbRasterImage
 90
        0
 10
11.01517581939697
 20
275.9352416992188
 30
0.0
 11
0.07556358929155936
 21
0.0
 31
0.0
 12
0.0
 22
-0.07535050809383392
 32
0.0
 13
1444.0
 23
2048.0
340
3D
 70
     3
280
     0
281
    50
282
    50
283
     0
360
40
 71
     1
 91
        2
 14
-0.5
 24
-0.5
 14
1443.5
 24
2047.5
  0
POLYLINE
  5
41
330
1F
100
AcDbEntity
  8
Capa 1
370
     0
100
AcDb2dPolyline
 66
     1
 10
0.0
 20
0.0
 30
0.0
  0
VERTEX
  5
42
330
41
100
AcDbEntity
  8
Capa 1
370
     0
100
AcDbVertex
100
AcDb2dVertex
 10
11.01517604976357
 20
275.9352674006342
 30
0.0
  0
VERTEX
  5
43
330
41
100
AcDbEntity
  8
Capa 1
370
     0
100
AcDbVertex
100
AcDb2dVertex
 10
120.1284125133707
 20
275.9352674006342
 30
0.0
  0
VERTEX
  5
44
330
41
100
AcDbEntity
  8
Capa 1
370
     0
100
AcDbVertex
100
AcDb2dVertex
 10
120.1284125133707
 20
121.6173827820957
 30
0.0
  0
VERTEX
  5
45
330
41
100
AcDbEntity
  8
Capa 1
370
     0
100
AcDbVertex
100
AcDb2dVertex
 10
11.01517604976357
 20
121.6173827820957
 30
0.0
  0
VERTEX
  5
46
330
41
100
AcDbEntity
  8
Capa 1
370
     0
100
AcDbVertex
100
AcDb2dVertex
 10
11.01517604976357
 20
275.9352674006342
 30
0.0
  0
SEQEND
  5
47
330
41
100
AcDbEntity
  8
Capa 1
370
     0
  0
MTEXT
  5
48
330
1F
100
AcDbEntity
  8
Capa 1
 62
     7
100
AcDbMText
 10
47.60553519860209
 20
232.4833115738236
 30
0.0
 40
2.398874246633354
 41
0.0
 71
     7
 72
     1
  1
\fCentury Gothic|b0|i0|c0|p34;\W1.01081;B
 11
0.829455016449573
 21
-0.558573518604882
 31
0.0
 73
     1
 44
1.0
  0
MTEXT
  5
49
330
1F
100
AcDbEntity
  8
Capa 1
 62
     7
100
AcDbMText
 10
50.74780679069847
 20
264.0970580394445
 30
0.0
 40
2.400232374597882
 41
0.0
 71
     7
 72
     1
  1
\fCentury Gothic|b0|i0|c0|p34;\W0.99944;A
 73
     1
 44
1.0
  0
MTEXT
  5
4A
330
1F
100
AcDbEntity
  8
Capa 1
 62
     7
100
AcDbMText
 10
99.20927596261087
 20
264.0970580394445
 30
0.0
 40
2.398888888289167
 41
0.0
 71
     7
 72
     1
  1
\fCentury Gothic|b0|i0|c0|p34;\W1.01158;31
 73
     1
 44
1.0
  0
MTEXT
  5
4B
330
1F
100
AcDbEntity
  8
Capa 1
 62
     7
100
AcDbMText
 10
98.43636879049508
 20
200.0811550064033
 30
0.0
 40
2.398888888289167
 41
0.0
 71
     7
 72
     1
  1
\fCentury Gothic|b0|i0|c0|p34;\W1.01158;61,5
 73
     1
 44
1.0
  0
MTEXT
  5
4C
330
1F
100
AcDbEntity
  8
Capa 1
 62
     7
100
AcDbMText
 10
87.44255233274006
 20
226.9766709502003
 30
0.0
 40
2.499714132717179
 41
0.0
 71
     7
 72
     1
  1
\fCentury Gothic|b0|i0|c0|p34;\W0.959665;C
 11
-4.371139000186241E-8
 21
0.999999999999999
 31
0.0
 73
     1
 44
1.0
  0
MTEXT
  5
4D
330
1F
100
AcDbEntity
  8
Capa 1
 62
     7
100
AcDbMText
 10
19.48063693089373
 20
175.8934841140128
 30
0.0
 40
2.398888888289167
 41
0.0
 71
     7
 72
     1
  1
\fCentury Gothic|b0|i0|c0|p34;\W1.01158;50
 11
-4.371139000186241E-8
 21
0.999999999999999
 31
0.0
 73
     1
 44
1.0
  0
MTEXT
  5
4E
330
1F
100
AcDbEntity
  8
Capa 1
 62
     7
100
AcDbMText
 10
47.73765461046142
 20
164.7434325760017
 30
0.0
 40
2.549683072724294
 41
0.0
 71
     7
 72
     1
  1
\fCentury Gothic|b0|i0|c0|p34;\W0.940858;D
 73
     1
 44
1.0
  0
MTEXT
  5
4F
330
1F
100
AcDbEntity
  8
Capa 1
 62
     7
100
AcDbMText
 10
74.17256128788047
 20
186.080975973445
 30
0.0
 40
2.398888888289167
 41
0.0
 71
     7
 72
     1
  1
\fCentury Gothic|b0|i0|c0|p34;\W1.01158;5,5
 11
-4.371139000186241E-8
 21
0.999999999999999
 31
0.0
 73
     1
 44
1.0
  0
POLYLINE
  5
50
330
1F
100
AcDbEntity
  8
Capa 1
 62
     7
370
    18
100
AcDb2dPolyline
 66
     1
 10
0.0
 20
0.0
 30
0.0
  0
VERTEX
  5
51
330
50
100
AcDbEntity
  8
Capa 1
 62
     7
370
    18
100
AcDbVertex
100
AcDb2dVertex
 10
23.03959282193108
 20
263.4912379983633
 30
0.0
  0
VERTEX
  5
52
330
50
100
AcDbEntity
  8
Capa 1
 62
     7
370
    18
100
AcDbVertex
100
AcDb2dVertex
 10
24.74439832280696
 20
263.7477253572401
 30
0.0
  0
VERTEX
  5
53
330
50
100
AcDbEntity
  8
Capa 1
 62
     7
370
    18
100
AcDbVertex
100
AcDb2dVertex
 10
24.74439832280696
 20
263.2161471238661
 30
0.0
  0
VERTEX
  5
54
330
50
100
AcDbEntity
  8
Capa 1
 62
     7
370
    18
100
AcDbVertex
100
AcDb2dVertex
 10
23.03959282193108
 20
263.4912379983633
 30
0.0
  0
SEQEND
  5
55
330
50
100
AcDbEntity
  8
Capa 1
370
    18
  0
POLYLINE
  5
56
330
1F
100
AcDbEntity
  8
Capa 1
 62
     7
370
    18
100
AcDb2dPolyline
 66
     1
 10
0.0
 20
0.0
 30
0.0
  0
VERTEX
  5
57
330
56
100
AcDbEntity
  8
Capa 1
 62
     7
370
    18
100
AcDbVertex
100
AcDb2dVertex
 10
75.29841849246012
 20
263.4912379983633
 30
0.0
  0
VERTEX
  5
58
330
56
100
AcDbEntity
  8
Capa 1
 62
     7
370
    18
100
AcDbVertex
100
AcDb2dVertex
 10
73.59361299158424
 20
263.2161471238661
 30
0.0
  0
VERTEX
  5
59
330
56
100
AcDbEntity
  8
Capa 1
 62
     7
370
    18
100
AcDbVertex
100
AcDb2dVertex
 10
73.59361299158424
 20
263.7477253572401
 30
0.0
  0
VERTEX
  5
5A
330
56
100
AcDbEntity
  8
Capa 1
 62
     7
370
    18
100
AcDbVertex
100
AcDb2dVertex
 10
75.29841849246012
 20
263.4912379983633
 30
0.0
  0
SEQEND
  5
5B
330
56
100
AcDbEntity
  8
Capa 1
370
    18
  0
POLYLINE
  5
5C
330
1F
100
AcDbEntity
  8
Capa 1
 62
     7
370
    18
100
AcDb2dPolyline
 66
     1
 10
0.0
 20
0.0
 30
0.0
  0
VERTEX
  5
5D
330
5C
100
AcDbEntity
  8
Capa 1
 62
     7
370
    18
100
AcDbVertex
100
AcDb2dVertex
 10
88.03752032304271
 20
204.6703667023046
 30
0.0
  0
VERTEX
  5
5E
330
5C
100
AcDbEntity
  8
Capa 1
 62
     7
370
    18
100
AcDbVertex
100
AcDb2dVertex
 10
87.76277395809403
 20
206.3751722031805
 30
0.0
  0
VERTEX
  5
5F
330
5C
100
AcDbEntity
  8
Capa 1
 62
     7
370
    18
100
AcDbVertex
100
AcDb2dVertex
 10
88.29400768191955
 20
206.3751722031805
 30
0.0
  0
VERTEX
  5
60
330
5C
100
AcDbEntity
  8
Capa 1
 62
     7
370
    18
100
AcDbVertex
100
AcDb2dVertex
 10
88.03752032304271
 20
204.6703667023046
 30
0.0
  0
SEQEND
  5
61
330
5C
100
AcDbEntity
  8
Capa 1
370
    18
  0
POLYLINE
  5
62
330
1F
100
AcDbEntity
  8
Capa 1
 62
     7
370
    18
100
AcDb2dPolyline
 66
     1
 10
0.0
 20
0.0
 30
0.0
  0
VERTEX
  5
63
330
62
100
AcDbEntity
  8
Capa 1
 62
     7
370
    18
100
AcDbVertex
100
AcDb2dVertex
 10
88.03752032304271
 20
258.2853542106023
 30
0.0
  0
VERTEX
  5
64
330
62
100
AcDbEntity
  8
Capa 1
 62
     7
370
    18
100
AcDbVertex
100
AcDb2dVertex
 10
88.29400768191955
 20
256.5807209645006
 30
0.0
  0
VERTEX
  5
65
330
62
100
AcDbEntity
  8
Capa 1
 62
     7
370
    18
100
AcDbVertex
100
AcDb2dVertex
 10
87.76277395809403
 20
256.5807209645006
 30
0.0
  0
VERTEX
  5
66
330
62
100
AcDbEntity
  8
Capa 1
 62
     7
370
    18
100
AcDbVertex
100
AcDb2dVertex
 10
88.03752032304271
 20
258.2853542106023
 30
0.0
  0
SEQEND
  5
67
330
62
100
AcDbEntity
  8
Capa 1
370
    18
  0
POLYLINE
  5
68
330
1F
100
AcDbEntity
  8
Capa 1
 62
     7
370
    18
100
AcDb2dPolyline
 66
     1
 10
0.0
 20
0.0
 30
0.0
  0
VERTEX
  5
69
330
68
100
AcDbEntity
  8
Capa 1
 62
     7
370
    18
100
AcDbVertex
100
AcDb2dVertex
 10
34.09266492203239
 20
241.4403875806989
 30
0.0
  0
VERTEX
  5
6A
330
68
100
AcDbEntity
  8
Capa 1
 62
     7
370
    18
100
AcDbVertex
100
AcDb2dVertex
 10
35.35718721989334
 20
240.2671603131971
 30
0.0
  0
VERTEX
  5
6B
330
68
100
AcDbEntity
  8
Capa 1
 62
     7
370
    18
100
AcDbVertex
100
AcDb2dVertex
 10
35.65053710046237
 20
240.6888400005917
 30
0.0
  0
VERTEX
  5
6C
330
68
100
AcDbEntity
  8
Capa 1
 62
     7
370
    18
100
AcDbVertex
100
AcDb2dVertex
 10
34.09266492203239
 20
241.4403875806989
 30
0.0
  0
SEQEND
  5
6D
330
68
100
AcDbEntity
  8
Capa 1
370
    18
  0
POLYLINE
  5
6E
330
1F
100
AcDbEntity
  8
Capa 1
 62
     7
370
    18
100
AcDb2dPolyline
 66
     1
 10
0.0
 20
0.0
 30
0.0
  0
VERTEX
  5
6F
330
6E
100
AcDbEntity
  8
Capa 1
 62
     7
370
    18
100
AcDbVertex
100
AcDb2dVertex
 10
64.24534639235881
 20
221.112429415208
 30
0.0
  0
VERTEX
  5
70
330
6E
100
AcDbEntity
  8
Capa 1
 62
     7
370
    18
100
AcDbVertex
100
AcDb2dVertex
 10
62.98047958494933
 20
222.3037434340074
 30
0.0
  0
VERTEX
  5
71
330
6E
100
AcDbEntity
  8
Capa 1
 62
     7
370
    18
100
AcDbVertex
100
AcDb2dVertex
 10
62.6871297043803
 20
221.863804740541
 30
0.0
  0
VERTEX
  5
72
330
6E
100
AcDbEntity
  8
Capa 1
 62
     7
370
    18
100
AcDbVertex
100
AcDb2dVertex
 10
64.24534639235881
 20
221.112429415208
 30
0.0
  0
SEQEND
  5
73
330
6E
100
AcDbEntity
  8
Capa 1
370
    18
  0
POLYLINE
  5
74
330
1F
100
AcDbEntity
  8
Capa 1
 62
     7
370
    18
100
AcDb2dPolyline
 66
     1
 10
0.0
 20
0.0
 30
0.0
  0
VERTEX
  5
75
330
74
100
AcDbEntity
  8
Capa 1
 62
     7
370
    18
100
AcDbVertex
100
AcDb2dVertex
 10
109.2267523598461
 20
199.4648274240921
 30
0.0
  0
VERTEX
  5
76
330
74
100
AcDbEntity
  8
Capa 1
 62
     7
370
    18
100
AcDbVertex
100
AcDb2dVertex
 10
107.5221191137445
 20
199.208167810441
 30
0.0
  0
VERTEX
  5
77
330
74
100
AcDbEntity
  8
Capa 1
 62
     7
370
    18
100
AcDbVertex
100
AcDb2dVertex
 10
107.5221191137445
 20
199.7397460438151
 30
0.0
  0
VERTEX
  5
78
330
74
100
AcDbEntity
  8
Capa 1
 62
     7
370
    18
100
AcDbVertex
100
AcDb2dVertex
 10
109.2267523598461
 20
199.4648274240921
 30
0.0
  0
SEQEND
  5
79
330
74
100
AcDbEntity
  8
Capa 1
370
    18
  0
POLYLINE
  5
7A
330
1F
100
AcDbEntity
  8
Capa 1
 62
     7
370
    18
100
AcDb2dPolyline
 66
     1
 10
0.0
 20
0.0
 30
0.0
  0
VERTEX
  5
7B
330
7A
100
AcDbEntity
  8
Capa 1
 62
     7
370
    18
100
AcDbVertex
100
AcDb2dVertex
 10
93.22497284995765
 20
199.4648274240921
 30
0.0
  0
VERTEX
  5
7C
330
7A
100
AcDbEntity
  8
Capa 1
 62
     7
370
    18
100
AcDbVertex
100
AcDb2dVertex
 10
94.94803735690536
 20
199.7397460438151
 30
0.0
  0
VERTEX
  5
7D
330
7A
100
AcDbEntity
  8
Capa 1
 62
     7
370
    18
100
AcDbVertex
100
AcDb2dVertex
 10
94.94803735690536
 20
199.208167810441
 30
0.0
  0
VERTEX
  5
7E
330
7A
100
AcDbEntity
  8
Capa 1
 62
     7
370
    18
100
AcDbVertex
100
AcDb2dVertex
 10
93.22497284995765
 20
199.4648274240921
 30
0.0
  0
SEQEND
  5
7F
330
7A
100
AcDbEntity
  8
Capa 1
370
    18
  0
POLYLINE
  5
80
330
1F
100
AcDbEntity
  8
Capa 1
 62
     7
370
    18
100
AcDb2dPolyline
 66
     1
 10
0.0
 20
0.0
 30
0.0
  0
VERTEX
  5
81
330
80
100
AcDbEntity
  8
Capa 1
 62
     7
370
    18
100
AcDbVertex
100
AcDb2dVertex
 10
105.267648628197
 20
263.4912379983633
 30
0.0
  0
VERTEX
  5
82
330
80
100
AcDbEntity
  8
Capa 1
 62
     7
370
    18
100
AcDbVertex
100
AcDb2dVertex
 10
106.9722818742986
 20
263.7477253572401
 30
0.0
  0
VERTEX
  5
83
330
80
100
AcDbEntity
  8
Capa 1
 62
     7
370
    18
100
AcDbVertex
100
AcDb2dVertex
 10
106.9722818742986
 20
263.2161471238661
 30
0.0
  0
VERTEX
  5
84
330
80
100
AcDbEntity
  8
Capa 1
 62
     7
370
    18
100
AcDbVertex
100
AcDb2dVertex
 10
105.267648628197
 20
263.4912379983633
 30
0.0
  0
SEQEND
  5
85
330
80
100
AcDbEntity
  8
Capa 1
370
    18
  0
POLYLINE
  5
86
330
1F
100
AcDbEntity
  8
Capa 1
 62
     7
370
    18
100
AcDb2dPolyline
 66
     1
 10
0.0
 20
0.0
 30
0.0
  0
VERTEX
  5
87
330
86
100
AcDbEntity
  8
Capa 1
 62
     7
370
    18
100
AcDbVertex
100
AcDb2dVertex
 10
97.20268009722712
 20
263.4912379983633
 30
0.0
  0
VERTEX
  5
88
330
86
100
AcDbEntity
  8
Capa 1
 62
     7
370
    18
100
AcDbVertex
100
AcDb2dVertex
 10
95.4980468511255
 20
263.2161471238661
 30
0.0
  0
VERTEX
  5
89
330
86
100
AcDbEntity
  8
Capa 1
 62
     7
370
    18
100
AcDbVertex
100
AcDb2dVertex
 10
95.4980468511255
 20
263.7477253572401
 30
0.0
  0
VERTEX
  5
8A
330
86
100
AcDbEntity
  8
Capa 1
 62
     7
370
    18
100
AcDbVertex
100
AcDb2dVertex
 10
97.20268009722712
 20
263.4912379983633
 30
0.0
  0
SEQEND
  5
8B
330
86
100
AcDbEntity
  8
Capa 1
370
    18
  0
POLYLINE
  5
8C
330
1F
100
AcDbEntity
  8
Capa 1
 62
     7
370
    18
100
AcDb2dPolyline
 66
     1
 10
0.0
 20
0.0
 30
0.0
  0
VERTEX
  5
8D
330
8C
100
AcDbEntity
  8
Capa 1
 62
     7
370
    18
100
AcDbVertex
100
AcDb2dVertex
 10
74.76684025908607
 20
182.9311251712811
 30
0.0
  0
VERTEX
  5
8E
330
8C
100
AcDbEntity
  8
Capa 1
 62
     7
370
    18
100
AcDbVertex
100
AcDb2dVertex
 10
75.02315536318866
 20
181.2082329191077
 30
0.0
  0
VERTEX
  5
8F
330
8C
100
AcDbEntity
  8
Capa 1
 62
     7
370
    18
100
AcDbVertex
100
AcDb2dVertex
 10
74.51018064543496
 20
181.2082329191077
 30
0.0
  0
VERTEX
  5
90
330
8C
100
AcDbEntity
  8
Capa 1
 62
     7
370
    18
100
AcDbVertex
100
AcDb2dVertex
 10
74.76684025908607
 20
182.9311251712811
 30
0.0
  0
SEQEND
  5
91
330
8C
100
AcDbEntity
  8
Capa 1
370
    18
  0
POLYLINE
  5
92
330
1F
100
AcDbEntity
  8
Capa 1
 62
     7
370
    18
100
AcDb2dPolyline
 66
     1
 10
0.0
 20
0.0
 30
0.0
  0
VERTEX
  5
93
330
92
100
AcDbEntity
  8
Capa 1
 62
     7
370
    18
100
AcDbVertex
100
AcDb2dVertex
 10
74.76684025908607
 20
184.3611843072083
 30
0.0
  0
VERTEX
  5
94
330
92
100
AcDbEntity
  8
Capa 1
 62
     7
370
    18
100
AcDbVertex
100
AcDb2dVertex
 10
74.51018064543496
 20
186.0840765593818
 30
0.0
  0
VERTEX
  5
95
330
92
100
AcDbEntity
  8
Capa 1
 62
     7
370
    18
100
AcDbVertex
100
AcDb2dVertex
 10
75.02315536318866
 20
186.0840765593818
 30
0.0
  0
VERTEX
  5
96
330
92
100
AcDbEntity
  8
Capa 1
 62
     7
370
    18
100
AcDbVertex
100
AcDb2dVertex
 10
74.76684025908607
 20
184.3611843072083
 30
0.0
  0
SEQEND
  5
97
330
92
100
AcDbEntity
  8
Capa 1
370
    18
  0
POLYLINE
  5
98
330
1F
100
AcDbEntity
  8
Capa 1
 62
     7
370
    18
100
AcDb2dPolyline
 66
     1
 10
0.0
 20
0.0
 30
0.0
  0
VERTEX
  5
99
330
98
100
AcDbEntity
  8
Capa 1
 62
     7
370
    18
100
AcDbVertex
100
AcDb2dVertex
 10
20.07009276841998
 20
170.5584092455549
 30
0.0
  0
VERTEX
  5
9A
330
98
100
AcDbEntity
  8
Capa 1
 62
     7
370
    18
100
AcDbVertex
100
AcDb2dVertex
 10
19.81360540954313
 20
172.2816460072768
 30
0.0
  0
VERTEX
  5
9B
330
98
100
AcDbEntity
  8
Capa 1
 62
     7
370
    18
100
AcDbVertex
100
AcDb2dVertex
 10
20.34518364291718
 20
172.2816460072768
 30
0.0
  0
VERTEX
  5
9C
330
98
100
AcDbEntity
  8
Capa 1
 62
     7
370
    18
100
AcDbVertex
100
AcDb2dVertex
 10
20.07009276841998
 20
170.5584092455549
 30
0.0
  0
SEQEND
  5
9D
330
98
100
AcDbEntity
  8
Capa 1
370
    18
  0
POLYLINE
  5
9E
330
1F
100
AcDbEntity
  8
Capa 1
 62
     7
370
    18
100
AcDb2dPolyline
 66
     1
 10
0.0
 20
0.0
 30
0.0
  0
VERTEX
  5
9F
330
9E
100
AcDbEntity
  8
Capa 1
 62
     7
370
    18
100
AcDbVertex
100
AcDb2dVertex
 10
20.07009276841998
 20
183.5726019506346
 30
0.0
  0
VERTEX
  5
A0
330
9E
100
AcDbEntity
  8
Capa 1
 62
     7
370
    18
100
AcDbVertex
100
AcDb2dVertex
 10
20.34518364291718
 20
181.8683132140816
 30
0.0
  0
VERTEX
  5
A1
330
9E
100
AcDbEntity
  8
Capa 1
 62
     7
370
    18
100
AcDbVertex
100
AcDb2dVertex
 10
19.81360540954313
 20
181.8683132140816
 30
0.0
  0
VERTEX
  5
A2
330
9E
100
AcDbEntity
  8
Capa 1
 62
     7
370
    18
100
AcDbVertex
100
AcDb2dVertex
 10
20.07009276841998
 20
183.5726019506346
 30
0.0
  0
SEQEND
  5
A3
330
9E
100
AcDbEntity
  8
Capa 1
370
    18
  0
POLYLINE
  5
A4
330
1F
100
AcDbEntity
  8
Capa 1
 62
     7
370
    18
100
AcDb2dPolyline
 66
     1
 10
0.0
 20
0.0
 30
0.0
  0
VERTEX
  5
A5
330
A4
100
AcDbEntity
  8
Capa 1
 62
     7
370
    18
100
AcDbVertex
100
AcDb2dVertex
 10
63.45710854533364
 20
163.941758856584
 30
0.0
  0
VERTEX
  5
A6
330
A4
100
AcDbEntity
  8
Capa 1
 62
     7
370
    18
100
AcDbVertex
100
AcDb2dVertex
 10
61.73404403838594
 20
163.6847547333844
 30
0.0
  0
VERTEX
  5
A7
330
A4
100
AcDbEntity
  8
Capa 1
 62
     7
370
    18
100
AcDbVertex
100
AcDb2dVertex
 10
61.73404403838594
 20
164.1980739606866
 30
0.0
  0
VERTEX
  5
A8
330
A4
100
AcDbEntity
  8
Capa 1
 62
     7
370
    18
100
AcDbVertex
100
AcDb2dVertex
 10
63.45710854533364
 20
163.941758856584
 30
0.0
  0
SEQEND
  5
A9
330
A4
100
AcDbEntity
  8
Capa 1
370
    18
  0
POLYLINE
  5
AA
330
1F
100
AcDbEntity
  8
Capa 1
 62
     7
370
    18
100
AcDb2dPolyline
 66
     1
 10
0.0
 20
0.0
 30
0.0
  0
VERTEX
  5
AB
330
AA
100
AcDbEntity
  8
Capa 1
 62
     7
370
    18
100
AcDbVertex
100
AcDb2dVertex
 10
34.88073051428329
 20
163.941758856584
 30
0.0
  0
VERTEX
  5
AC
330
AA
100
AcDbEntity
  8
Capa 1
 62
     7
370
    18
100
AcDbVertex
100
AcDb2dVertex
 10
36.603795021231
 20
164.1980739606866
 30
0.0
  0
VERTEX
  5
AD
330
AA
100
AcDbEntity
  8
Capa 1
 62
     7
370
    18
100
AcDbVertex
100
AcDb2dVertex
 10
36.603795021231
 20
163.6847547333844
 30
0.0
  0
VERTEX
  5
AE
330
AA
100
AcDbEntity
  8
Capa 1
 62
     7
370
    18
100
AcDbVertex
100
AcDb2dVertex
 10
34.88073051428329
 20
163.941758856584
 30
0.0
  0
SEQEND
  5
AF
330
AA
100
AcDbEntity
  8
Capa 1
370
    18
  0
POLYLINE
  5
B0
330
1F
100
AcDbEntity
  8
Capa 1
 62
     7
370
    18
100
AcDb2dPolyline
 66
     1
 10
0.0
 20
0.0
 30
0.0
  0
VERTEX
  5
B1
330
B0
100
AcDbEntity
  8
Capa 1
 62
     7
370
    18
100
AcDbVertex
100
AcDb2dVertex
 10
75.29841849246012
 20
263.4912379983633
 30
0.0
  0
VERTEX
  5
B2
330
B0
100
AcDbEntity
  8
Capa 1
 62
     7
370
    18
100
AcDbVertex
100
AcDb2dVertex
 10
23.03959282193108
 20
263.4912379983633
 30
0.0
  0
SEQEND
  5
B3
330
B0
100
AcDbEntity
  8
Capa 1
370
    18
  0
POLYLINE
  5
B4
330
1F
100
AcDbEntity
  8
Capa 1
 62
     7
370
    18
100
AcDb2dPolyline
 66
     1
 10
0.0
 20
0.0
 30
0.0
  0
VERTEX
  5
B5
330
B4
100
AcDbEntity
  8
Capa 1
 62
     7
370
    18
100
AcDbVertex
100
AcDb2dVertex
 10
23.03959282193108
 20
232.3668673464222
 30
0.0
  0
VERTEX
  5
B6
330
B4
100
AcDbEntity
  8
Capa 1
 62
     7
370
    18
100
AcDbVertex
100
AcDb2dVertex
 10
23.03959282193108
 20
264.0043849708913
 30
0.0
  0
SEQEND
  5
B7
330
B4
100
AcDbEntity
  8
Capa 1
370
    18
  0
POLYLINE
  5
B8
330
1F
100
AcDbEntity
  8
Capa 1
 62
     7
370
    18
100
AcDb2dPolyline
 66
     1
 10
0.0
 20
0.0
 30
0.0
  0
VERTEX
  5
B9
330
B8
100
AcDbEntity
  8
Capa 1
 62
     7
370
    18
100
AcDbVertex
100
AcDb2dVertex
 10
75.29841849246012
 20
233.5216633530779
 30
0.0
  0
VERTEX
  5
BA
330
B8
100
AcDbEntity
  8
Capa 1
 62
     7
370
    18
100
AcDbVertex
100
AcDb2dVertex
 10
75.29841849246012
 20
264.0043849708913
 30
0.0
  0
SEQEND
  5
BB
330
B8
100
AcDbEntity
  8
Capa 1
370
    18
  0
POLYLINE
  5
BC
330
1F
100
AcDbEntity
  8
Capa 1
 62
     7
370
    18
100
AcDb2dPolyline
 66
     1
 10
0.0
 20
0.0
 30
0.0
  0
VERTEX
  5
BD
330
BC
100
AcDbEntity
  8
Capa 1
 62
     7
370
    18
100
AcDbVertex
100
AcDb2dVertex
 10
88.03752032304271
 20
258.2853542106023
 30
0.0
  0
VERTEX
  5
BE
330
BC
100
AcDbEntity
  8
Capa 1
 62
     7
370
    18
100
AcDbVertex
100
AcDb2dVertex
 10
88.03752032304271
 20
204.6703667023046
 30
0.0
  0
SEQEND
  5
BF
330
BC
100
AcDbEntity
  8
Capa 1
370
    18
  0
POLYLINE
  5
C0
330
1F
100
AcDbEntity
  8
Capa 1
 62
     7
370
    18
100
AcDb2dPolyline
 66
     1
 10
0.0
 20
0.0
 30
0.0
  0
VERTEX
  5
C1
330
C0
100
AcDbEntity
  8
Capa 1
 62
     7
370
    18
100
AcDbVertex
100
AcDb2dVertex
 10
92.71182587742969
 20
204.6703667023046
 30
0.0
  0
VERTEX
  5
C2
330
C0
100
AcDbEntity
  8
Capa 1
 62
     7
370
    18
100
AcDbVertex
100
AcDb2dVertex
 10
87.524545605289
 20
204.6703667023046
 30
0.0
  0
SEQEND
  5
C3
330
C0
100
AcDbEntity
  8
Capa 1
370
    18
  0
POLYLINE
  5
C4
330
1F
100
AcDbEntity
  8
Capa 1
 62
     7
370
    18
100
AcDb2dPolyline
 66
     1
 10
0.0
 20
0.0
 30
0.0
  0
VERTEX
  5
C5
330
C4
100
AcDbEntity
  8
Capa 1
 62
     7
370
    18
100
AcDbVertex
100
AcDb2dVertex
 10
99.78701847548727
 20
258.2853542106023
 30
0.0
  0
VERTEX
  5
C6
330
C4
100
AcDbEntity
  8
Capa 1
 62
     7
370
    18
100
AcDbVertex
100
AcDb2dVertex
 10
87.524545605289
 20
258.2853542106023
 30
0.0
  0
SEQEND
  5
C7
330
C4
100
AcDbEntity
  8
Capa 1
370
    18
  0
POLYLINE
  5
C8
330
1F
100
AcDbEntity
  8
Capa 1
  6
AI-Linetype-1
 62
   254
370
    18
100
AcDb2dPolyline
 66
     1
 10
0.0
 20
0.0
 30
0.0
  0
VERTEX
  5
C9
330
C8
100
AcDbEntity
  8
Capa 1
  6
AI-Linetype-1
 62
   254
370
    18
100
AcDbVertex
100
AcDb2dVertex
 10
23.0413153696737
 20
231.2873466761191
 30
0.0
  0
VERTEX
  5
CA
330
C8
100
AcDbEntity
  8
Capa 1
  6
AI-Linetype-1
 62
   254
370
    18
100
AcDbVertex
100
AcDb2dVertex
 10
23.0413153696737
 20
231.8488972402149
 30
0.0
  0
SEQEND
  5
CB
330
C8
100
AcDbEntity
  8
Capa 1
  6
AI-Linetype-1
370
    18
  0
POLYLINE
  5
CD
330
1F
100
AcDbEntity
  8
Capa 1
  6
AI-Linetype-2
 62
   254
370
    18
100
AcDb2dPolyline
 66
     1
 10
0.0
 20
0.0
 30
0.0
  0
VERTEX
  5
CE
330
CD
100
AcDbEntity
  8
Capa 1
  6
AI-Linetype-2
 62
   254
370
    18
100
AcDbVertex
100
AcDb2dVertex
 10
75.31633298898342
 20
231.2873466761191
 30
0.0
  0
VERTEX
  5
CF
330
CD
100
AcDbEntity
  8
Capa 1
  6
AI-Linetype-2
 62
   254
370
    18
100
AcDbVertex
100
AcDb2dVertex
 10
75.31633298898342
 20
233.0045545207419
 30
0.0
  0
SEQEND
  5
D0
330
CD
100
AcDbEntity
  8
Capa 1
  6
AI-Linetype-2
370
    18
  0
POLYLINE
  5
D2
330
1F
100
AcDbEntity
  8
Capa 1
  6
AI-Linetype-3
 62
   254
370
    18
100
AcDb2dPolyline
 66
     1
 10
0.0
 20
0.0
 30
0.0
  0
VERTEX
  5
D3
330
D2
100
AcDbEntity
  8
Capa 1
  6
AI-Linetype-3
 62
   254
370
    18
100
AcDbVertex
100
AcDb2dVertex
 10
101.2422268084568
 20
258.2991345925433
 30
0.0
  0
VERTEX
  5
D4
330
D2
100
AcDbEntity
  8
Capa 1
  6
AI-Linetype-3
 62
   254
370
    18
100
AcDbVertex
100
AcDb2dVertex
 10
100.3132568108592
 20
258.2991345925433
 30
0.0
  0
SEQEND
  5
D5
330
D2
100
AcDbEntity
  8
Capa 1
  6
AI-Linetype-3
370
    18
  0
POLYLINE
  5
D7
330
1F
100
AcDbEntity
  8
Capa 1
 62
     7
370
    18
100
AcDb2dPolyline
 66
     1
 10
0.0
 20
0.0
 30
0.0
  0
VERTEX
  5
D8
330
D7
100
AcDbEntity
  8
Capa 1
 62
     7
370
    18
100
AcDbVertex
100
AcDb2dVertex
 10
34.09266492203239
 20
241.4403875806989
 30
0.0
  0
VERTEX
  5
D9
330
D7
100
AcDbEntity
  8
Capa 1
 62
     7
370
    18
100
AcDbVertex
100
AcDb2dVertex
 10
64.24534639235881
 20
221.112429415208
 30
0.0
  0
SEQEND
  5
DA
330
D7
100
AcDbEntity
  8
Capa 1
370
    18
  0
POLYLINE
  5
DB
330
1F
100
AcDbEntity
  8
Capa 1
 62
     7
370
    18
100
AcDb2dPolyline
 66
     1
 10
0.0
 20
0.0
 30
0.0
  0
VERTEX
  5
DC
330
DB
100
AcDbEntity
  8
Capa 1
 62
     7
370
    18
100
AcDbVertex
100
AcDb2dVertex
 10
93.22497284995765
 20
199.4648274240921
 30
0.0
  0
VERTEX
  5
DD
330
DB
100
AcDbEntity
  8
Capa 1
 62
     7
370
    18
100
AcDbVertex
100
AcDb2dVertex
 10
109.2267523598461
 20
199.4648274240921
 30
0.0
  0
SEQEND
  5
DE
330
DB
100
AcDbEntity
  8
Capa 1
370
    18
  0
POLYLINE
  5
DF
330
1F
100
AcDbEntity
  8
Capa 1
 62
     7
370
    18
100
AcDb2dPolyline
 66
     1
 10
0.0
 20
0.0
 30
0.0
  0
VERTEX
  5
E0
330
DF
100
AcDbEntity
  8
Capa 1
 62
     7
370
    18
100
AcDbVertex
100
AcDb2dVertex
 10
109.2267523598461
 20
204.1387884689306
 30
0.0
  0
VERTEX
  5
E1
330
DF
100
AcDbEntity
  8
Capa 1
 62
     7
370
    18
100
AcDbVertex
100
AcDb2dVertex
 10
109.2267523598461
 20
198.9515081967899
 30
0.0
  0
SEQEND
  5
E2
330
DF
100
AcDbEntity
  8
Capa 1
370
    18
  0
POLYLINE
  5
E3
330
1F
100
AcDbEntity
  8
Capa 1
 62
     7
370
    18
100
AcDb2dPolyline
 66
     1
 10
0.0
 20
0.0
 30
0.0
  0
VERTEX
  5
E4
330
E3
100
AcDbEntity
  8
Capa 1
 62
     7
370
    18
100
AcDbVertex
100
AcDb2dVertex
 10
93.22497284995765
 20
204.1387884689306
 30
0.0
  0
VERTEX
  5
E5
330
E3
100
AcDbEntity
  8
Capa 1
 62
     7
370
    18
100
AcDbVertex
100
AcDb2dVertex
 10
93.22497284995765
 20
198.9515081967899
 30
0.0
  0
SEQEND
  5
E6
330
E3
100
AcDbEntity
  8
Capa 1
370
    18
  0
POLYLINE
  5
E7
330
1F
100
AcDbEntity
  8
Capa 1
 62
     7
370
    18
100
AcDb2dPolyline
 66
     1
 10
0.0
 20
0.0
 30
0.0
  0
VERTEX
  5
E8
330
E7
100
AcDbEntity
  8
Capa 1
 62
     7
370
    18
100
AcDbVertex
100
AcDb2dVertex
 10
105.267648628197
 20
263.4912379983633
 30
0.0
  0
VERTEX
  5
E9
330
E7
100
AcDbEntity
  8
Capa 1
 62
     7
370
    18
100
AcDbVertex
100
AcDb2dVertex
 10
108.5673610839693
 20
263.4912379983633
 30
0.0
  0
SEQEND
  5
EA
330
E7
100
AcDbEntity
  8
Capa 1
370
    18
  0
POLYLINE
  5
EB
330
1F
100
AcDbEntity
  8
Capa 1
 62
     7
370
    18
100
AcDb2dPolyline
 66
     1
 10
0.0
 20
0.0
 30
0.0
  0
VERTEX
  5
EC
330
EB
100
AcDbEntity
  8
Capa 1
 62
     7
370
    18
100
AcDbVertex
100
AcDb2dVertex
 10
97.20268009722712
 20
263.4912379983633
 30
0.0
  0
VERTEX
  5
ED
330
EB
100
AcDbEntity
  8
Capa 1
 62
     7
370
    18
100
AcDbVertex
100
AcDb2dVertex
 10
105.267648628197
 20
263.4912379983633
 30
0.0
  0
SEQEND
  5
EE
330
EB
100
AcDbEntity
  8
Capa 1
370
    18
  0
POLYLINE
  5
EF
330
1F
100
AcDbEntity
  8
Capa 1
 62
     7
370
    18
100
AcDb2dPolyline
 66
     1
 10
0.0
 20
0.0
 30
0.0
  0
VERTEX
  5
F0
330
EF
100
AcDbEntity
  8
Capa 1
 62
     7
370
    18
100
AcDbVertex
100
AcDb2dVertex
 10
97.20268009722712
 20
263.4912379983633
 30
0.0
  0
VERTEX
  5
F1
330
EF
100
AcDbEntity
  8
Capa 1
 62
     7
370
    18
100
AcDbVertex
100
AcDb2dVertex
 10
93.90313989622908
 20
263.4912379983633
 30
0.0
  0
SEQEND
  5
F2
330
EF
100
AcDbEntity
  8
Capa 1
370
    18
  0
POLYLINE
  5
F3
330
1F
100
AcDbEntity
  8
Capa 1
 62
     7
370
    18
100
AcDb2dPolyline
 66
     1
 10
0.0
 20
0.0
 30
0.0
  0
VERTEX
  5
F4
330
F3
100
AcDbEntity
  8
Capa 1
 62
     7
370
    18
100
AcDbVertex
100
AcDb2dVertex
 10
105.267648628197
 20
257.6805676981667
 30
0.0
  0
VERTEX
  5
F5
330
F3
100
AcDbEntity
  8
Capa 1
 62
     7
370
    18
100
AcDbVertex
100
AcDb2dVertex
 10
105.267648628197
 20
264.0043849708913
 30
0.0
  0
SEQEND
  5
F6
330
F3
100
AcDbEntity
  8
Capa 1
370
    18
  0
POLYLINE
  5
F7
330
1F
100
AcDbEntity
  8
Capa 1
 62
     7
370
    18
100
AcDb2dPolyline
 66
     1
 10
0.0
 20
0.0
 30
0.0
  0
VERTEX
  5
F8
330
F7
100
AcDbEntity
  8
Capa 1
 62
     7
370
    18
100
AcDbVertex
100
AcDb2dVertex
 10
97.20268009722712
 20
257.6805676981667
 30
0.0
  0
VERTEX
  5
F9
330
F7
100
AcDbEntity
  8
Capa 1
 62
     7
370
    18
100
AcDbVertex
100
AcDb2dVertex
 10
97.20268009722712
 20
264.0043849708913
 30
0.0
  0
SEQEND
  5
FA
330
F7
100
AcDbEntity
  8
Capa 1
370
    18
  0
POLYLINE
  5
FB
330
1F
100
AcDbEntity
  8
Capa 1
 62
     7
370
    18
100
AcDb2dPolyline
 66
     1
 10
0.0
 20
0.0
 30
0.0
  0
VERTEX
  5
FC
330
FB
100
AcDbEntity
  8
Capa 1
 62
     7
370
    18
100
AcDbVertex
100
AcDb2dVertex
 10
74.76684025908607
 20
182.9311251712811
 30
0.0
  0
VERTEX
  5
FD
330
FB
100
AcDbEntity
  8
Capa 1
 62
     7
370
    18
100
AcDbVertex
100
AcDb2dVertex
 10
74.76684025908607
 20
179.6317572250574
 30
0.0
  0
SEQEND
  5
FE
330
FB
100
AcDbEntity
  8
Capa 1
370
    18
  0
POLYLINE
  5
FF
330
1F
100
AcDbEntity
  8
Capa 1
 62
     7
370
    18
100
AcDb2dPolyline
 66
     1
 10
0.0
 20
0.0
 30
0.0
  0
VERTEX
  5
100
330
FF
100
AcDbEntity
  8
Capa 1
 62
     7
370
    18
100
AcDbVertex
100
AcDb2dVertex
 10
74.76684025908607
 20
184.3611843072083
 30
0.0
  0
VERTEX
  5
101
330
FF
100
AcDbEntity
  8
Capa 1
 62
     7
370
    18
100
AcDbVertex
100
AcDb2dVertex
 10
74.76684025908607
 20
182.9311251712811
 30
0.0
  0
SEQEND
  5
102
330
FF
100
AcDbEntity
  8
Capa 1
370
    18
  0
POLYLINE
  5
103
330
1F
100
AcDbEntity
  8
Capa 1
 62
     7
370
    18
100
AcDb2dPolyline
 66
     1
 10
0.0
 20
0.0
 30
0.0
  0
VERTEX
  5
104
330
103
100
AcDbEntity
  8
Capa 1
 62
     7
370
    18
100
AcDbVertex
100
AcDb2dVertex
 10
74.76684025908607
 20
184.3611843072083
 30
0.0
  0
VERTEX
  5
105
330
103
100
AcDbEntity
  8
Capa 1
 62
     7
370
    18
100
AcDbVertex
100
AcDb2dVertex
 10
74.76684025908607
 20
190.7580376042202
 30
0.0
  0
SEQEND
  5
106
330
103
100
AcDbEntity
  8
Capa 1
370
    18
  0
POLYLINE
  5
107
330
1F
100
AcDbEntity
  8
Capa 1
 62
     7
370
    18
100
AcDb2dPolyline
 66
     1
 10
0.0
 20
0.0
 30
0.0
  0
VERTEX
  5
108
330
107
100
AcDbEntity
  8
Capa 1
 62
     7
370
    18
100
AcDbVertex
100
AcDb2dVertex
 10
65.93154837761433
 20
182.9311251712811
 30
0.0
  0
VERTEX
  5
109
330
107
100
AcDbEntity
  8
Capa 1
 62
     7
370
    18
100
AcDbVertex
100
AcDb2dVertex
 10
75.27981497683977
 20
182.9311251712811
 30
0.0
  0
SEQEND
  5
10A
330
107
100
AcDbEntity
  8
Capa 1
370
    18
  0
POLYLINE
  5
10B
330
1F
100
AcDbEntity
  8
Capa 1
 62
     7
370
    18
100
AcDb2dPolyline
 66
     1
 10
0.0
 20
0.0
 30
0.0
  0
VERTEX
  5
10C
330
10B
100
AcDbEntity
  8
Capa 1
 62
     7
370
    18
100
AcDbVertex
100
AcDb2dVertex
 10
65.93154837761433
 20
184.3611843072083
 30
0.0
  0
VERTEX
  5
10D
330
10B
100
AcDbEntity
  8
Capa 1
 62
     7
370
    18
100
AcDbVertex
100
AcDb2dVertex
 10
75.27981497683977
 20
184.3611843072083
 30
0.0
  0
SEQEND
  5
10E
330
10B
100
AcDbEntity
  8
Capa 1
370
    18
  0
POLYLINE
  5
10F
330
1F
100
AcDbEntity
  8
Capa 1
 62
     7
370
    18
100
AcDb2dPolyline
 66
     1
 10
0.0
 20
0.0
 30
0.0
  0
VERTEX
  5
110
330
10F
100
AcDbEntity
  8
Capa 1
 62
     7
370
    18
100
AcDbVertex
100
AcDb2dVertex
 10
20.07009276841998
 20
183.5726019506346
 30
0.0
  0
VERTEX
  5
111
330
10F
100
AcDbEntity
  8
Capa 1
 62
     7
370
    18
100
AcDbVertex
100
AcDb2dVertex
 10
20.07009276841998
 20
170.5584092455549
 30
0.0
  0
SEQEND
  5
112
330
10F
100
AcDbEntity
  8
Capa 1
370
    18
  0
POLYLINE
  5
113
330
1F
100
AcDbEntity
  8
Capa 1
 62
     7
370
    18
100
AcDb2dPolyline
 66
     1
 10
0.0
 20
0.0
 30
0.0
  0
VERTEX
  5
114
330
113
100
AcDbEntity
  8
Capa 1
 62
     7
370
    18
100
AcDbVertex
100
AcDb2dVertex
 10
34.36741128698107
 20
170.5584092455549
 30
0.0
  0
VERTEX
  5
115
330
113
100
AcDbEntity
  8
Capa 1
 62
     7
370
    18
100
AcDbVertex
100
AcDb2dVertex
 10
19.55694579589202
 20
170.5584092455549
 30
0.0
  0
SEQEND
  5
116
330
113
100
AcDbEntity
  8
Capa 1
370
    18
  0
POLYLINE
  5
117
330
1F
100
AcDbEntity
  8
Capa 1
 62
     7
370
    18
100
AcDb2dPolyline
 66
     1
 10
0.0
 20
0.0
 30
0.0
  0
VERTEX
  5
118
330
117
100
AcDbEntity
  8
Capa 1
 62
     7
370
    18
100
AcDbVertex
100
AcDb2dVertex
 10
34.36741128698107
 20
183.5726019506346
 30
0.0
  0
VERTEX
  5
119
330
117
100
AcDbEntity
  8
Capa 1
 62
     7
370
    18
100
AcDbVertex
100
AcDb2dVertex
 10
19.55694579589202
 20
183.5726019506346
 30
0.0
  0
SEQEND
  5
11A
330
117
100
AcDbEntity
  8
Capa 1
370
    18
  0
POLYLINE
  5
11B
330
1F
100
AcDbEntity
  8
Capa 1
 62
     7
370
    18
100
AcDb2dPolyline
 66
     1
 10
0.0
 20
0.0
 30
0.0
  0
VERTEX
  5
11C
330
11B
100
AcDbEntity
  8
Capa 1
 62
     7
370
    18
100
AcDbVertex
100
AcDb2dVertex
 10
34.88073051428329
 20
163.941758856584
 30
0.0
  0
VERTEX
  5
11D
330
11B
100
AcDbEntity
  8
Capa 1
 62
     7
370
    18
100
AcDbVertex
100
AcDb2dVertex
 10
63.45710854533364
 20
163.941758856584
 30
0.0
  0
SEQEND
  5
11E
330
11B
100
AcDbEntity
  8
Capa 1
370
    18
  0
POLYLINE
  5
11F
330
1F
100
AcDbEntity
  8
Capa 1
 62
     7
370
    18
100
AcDb2dPolyline
 66
     1
 10
0.0
 20
0.0
 30
0.0
  0
VERTEX
  5
120
330
11F
100
AcDbEntity
  8
Capa 1
 62
     7
370
    18
100
AcDbVertex
100
AcDb2dVertex
 10
63.45710854533364
 20
170.0450900182526
 30
0.0
  0
VERTEX
  5
121
330
11F
100
AcDbEntity
  8
Capa 1
 62
     7
370
    18
100
AcDbVertex
100
AcDb2dVertex
 10
63.45710854533364
 20
163.4277506101847
 30
0.0
  0
SEQEND
  5
122
330
11F
100
AcDbEntity
  8
Capa 1
370
    18
  0
POLYLINE
  5
123
330
1F
100
AcDbEntity
  8
Capa 1
 62
     7
370
    18
100
AcDb2dPolyline
 66
     1
 10
0.0
 20
0.0
 30
0.0
  0
VERTEX
  5
124
330
123
100
AcDbEntity
  8
Capa 1
 62
     7
370
    18
100
AcDbVertex
100
AcDb2dVertex
 10
34.88073051428329
 20
170.0450900182526
 30
0.0
  0
VERTEX
  5
125
330
123
100
AcDbEntity
  8
Capa 1
 62
     7
370
    18
100
AcDbVertex
100
AcDb2dVertex
 10
34.88073051428329
 20
163.4277506101847
 30
0.0
  0
SEQEND
  5
126
330
123
100
AcDbEntity
  8
Capa 1
370
    18
  0
POLYLINE
  5
127
330
1F
100
AcDbEntity
  8
Capa 1
370
     0
100
AcDb2dPolyline
 66
     1
 10
0.0
 20
0.0
 30
0.0
  0
VERTEX
  5
128
330
127
100
AcDbEntity
  8
Capa 1
370
     0
100
AcDbVertex
100
AcDb2dVertex
 10
23.03959282193108
 20
263.4912379983633
 30
0.0
  0
VERTEX
  5
129
330
127
100
AcDbEntity
  8
Capa 1
370
     0
100
AcDbVertex
100
AcDb2dVertex
 10
24.74439832280696
 20
263.7477253572401
 30
0.0
  0
VERTEX
  5
12A
330
127
100
AcDbEntity
  8
Capa 1
370
     0
100
AcDbVertex
100
AcDb2dVertex
 10
24.74439832280696
 20
263.2161471238661
 30
0.0
  0
SEQEND
  5
12B
330
127
100
AcDbEntity
  8
Capa 1
370
     0
  0
POLYLINE
  5
12C
330
1F
100
AcDbEntity
  8
Capa 1
370
     0
100
AcDb2dPolyline
 66
     1
 10
0.0
 20
0.0
 30
0.0
  0
VERTEX
  5
12D
330
12C
100
AcDbEntity
  8
Capa 1
370
     0
100
AcDbVertex
100
AcDb2dVertex
 10
75.29841849246012
 20
263.4912379983633
 30
0.0
  0
VERTEX
  5
12E
330
12C
100
AcDbEntity
  8
Capa 1
370
     0
100
AcDbVertex
100
AcDb2dVertex
 10
73.59361299158424
 20
263.2161471238661
 30
0.0
  0
VERTEX
  5
12F
330
12C
100
AcDbEntity
  8
Capa 1
370
     0
100
AcDbVertex
100
AcDb2dVertex
 10
73.59361299158424
 20
263.7477253572401
 30
0.0
  0
SEQEND
  5
130
330
12C
100
AcDbEntity
  8
Capa 1
370
     0
  0
HATCH
  5
131
330
1F
100
AcDbEntity
  8
Capa 1
 62
     7
100
AcDbHatch
 10
0.0
 20
0.0
 30
0.0
210
0.0
220
0.0
230
1.0
  2
SOLID
 70
     1
 71
     0
 91
        2
 92
        1
 93
        3
 72
     1
 10
23.03959282193108
 20
263.4912379983633
 11
24.74439832280696
 21
263.7477253572401
 72
     1
 10
24.74439832280696
 20
263.7477253572401
 11
24.74439832280696
 21
263.2161471238661
 72
     1
 10
24.74439832280696
 20
263.2161471238661
 11
23.03959282193108
 21
263.4912379983633
 97
        0
 92
        1
 93
        3
 72
     1
 10
75.29841849246012
 20
263.4912379983633
 11
73.59361299158424
 21
263.2161471238661
 72
     1
 10
73.59361299158424
 20
263.2161471238661
 11
73.59361299158424
 21
263.7477253572401
 72
     1
 10
73.59361299158424
 20
263.7477253572401
 11
75.29841849246012
 21
263.4912379983633
 97
        0
 75
     2
 76
     1
 98
        0
  0
POLYLINE
  5
132
330
1F
100
AcDbEntity
  8
Capa 1
370
     0
100
AcDb2dPolyline
 66
     1
 10
0.0
 20
0.0
 30
0.0
  0
VERTEX
  5
133
330
132
100
AcDbEntity
  8
Capa 1
370
     0
100
AcDbVertex
100
AcDb2dVertex
 10
88.03752032304271
 20
204.6703667023046
 30
0.0
  0
VERTEX
  5
134
330
132
100
AcDbEntity
  8
Capa 1
370
     0
100
AcDbVertex
100
AcDb2dVertex
 10
87.76277395809403
 20
206.3751722031805
 30
0.0
  0
VERTEX
  5
135
330
132
100
AcDbEntity
  8
Capa 1
370
     0
100
AcDbVertex
100
AcDb2dVertex
 10
88.29400768191955
 20
206.3751722031805
 30
0.0
  0
SEQEND
  5
136
330
132
100
AcDbEntity
  8
Capa 1
370
     0
  0
POLYLINE
  5
137
330
1F
100
AcDbEntity
  8
Capa 1
370
     0
100
AcDb2dPolyline
 66
     1
 10
0.0
 20
0.0
 30
0.0
  0
VERTEX
  5
138
330
137
100
AcDbEntity
  8
Capa 1
370
     0
100
AcDbVertex
100
AcDb2dVertex
 10
88.03752032304271
 20
258.2853542106023
 30
0.0
  0
VERTEX
  5
139
330
137
100
AcDbEntity
  8
Capa 1
370
     0
100
AcDbVertex
100
AcDb2dVertex
 10
88.29400768191955
 20
256.5807209645006
 30
0.0
  0
VERTEX
  5
13A
330
137
100
AcDbEntity
  8
Capa 1
370
     0
100
AcDbVertex
100
AcDb2dVertex
 10
87.76277395809403
 20
256.5807209645006
 30
0.0
  0
SEQEND
  5
13B
330
137
100
AcDbEntity
  8
Capa 1
370
     0
  0
HATCH
  5
13C
330
1F
100
AcDbEntity
  8
Capa 1
 62
     7
100
AcDbHatch
 10
0.0
 20
0.0
 30
0.0
210
0.0
220
0.0
230
1.0
  2
SOLID
 70
     1
 71
     0
 91
        2
 92
        1
 93
        3
 72
     1
 10
88.03752032304271
 20
204.6703667023046
 11
87.76277395809403
 21
206.3751722031805
 72
     1
 10
87.76277395809403
 20
206.3751722031805
 11
88.29400768191955
 21
206.3751722031805
 72
     1
 10
88.29400768191955
 20
206.3751722031805
 11
88.03752032304271
 21
204.6703667023046
 97
        0
 92
        1
 93
        3
 72
     1
 10
88.03752032304271
 20
258.2853542106023
 11
88.29400768191955
 21
256.5807209645006
 72
     1
 10
88.29400768191955
 20
256.5807209645006
 11
87.76277395809403
 21
256.5807209645006
 72
     1
 10
87.76277395809403
 20
256.5807209645006
 11
88.03752032304271
 21
258.2853542106023
 97
        0
 75
     2
 76
     1
 98
        0
  0
POLYLINE
  5
13D
330
1F
100
AcDbEntity
  8
Capa 1
370
     0
100
AcDb2dPolyline
 66
     1
 10
0.0
 20
0.0
 30
0.0
  0
VERTEX
  5
13E
330
13D
100
AcDbEntity
  8
Capa 1
370
     0
100
AcDbVertex
100
AcDb2dVertex
 10
34.09266492203239
 20
241.4403875806989
 30
0.0
  0
VERTEX
  5
13F
330
13D
100
AcDbEntity
  8
Capa 1
370
     0
100
AcDbVertex
100
AcDb2dVertex
 10
35.35718721989334
 20
240.2671603131971
 30
0.0
  0
VERTEX
  5
140
330
13D
100
AcDbEntity
  8
Capa 1
370
     0
100
AcDbVertex
100
AcDb2dVertex
 10
35.65053710046237
 20
240.6888400005917
 30
0.0
  0
SEQEND
  5
141
330
13D
100
AcDbEntity
  8
Capa 1
370
     0
  0
POLYLINE
  5
142
330
1F
100
AcDbEntity
  8
Capa 1
370
     0
100
AcDb2dPolyline
 66
     1
 10
0.0
 20
0.0
 30
0.0
  0
VERTEX
  5
143
330
142
100
AcDbEntity
  8
Capa 1
370
     0
100
AcDbVertex
100
AcDb2dVertex
 10
64.24534639235881
 20
221.112429415208
 30
0.0
  0
VERTEX
  5
144
330
142
100
AcDbEntity
  8
Capa 1
370
     0
100
AcDbVertex
100
AcDb2dVertex
 10
62.98047958494933
 20
222.3037434340074
 30
0.0
  0
VERTEX
  5
145
330
142
100
AcDbEntity
  8
Capa 1
370
     0
100
AcDbVertex
100
AcDb2dVertex
 10
62.6871297043803
 20
221.863804740541
 30
0.0
  0
SEQEND
  5
146
330
142
100
AcDbEntity
  8
Capa 1
370
     0
  0
HATCH
  5
147
330
1F
100
AcDbEntity
  8
Capa 1
 62
     7
100
AcDbHatch
 10
0.0
 20
0.0
 30
0.0
210
0.0
220
0.0
230
1.0
  2
SOLID
 70
     1
 71
     0
 91
        2
 92
        1
 93
        3
 72
     1
 10
34.09266492203239
 20
241.4403875806989
 11
35.35718721989334
 21
240.2671603131971
 72
     1
 10
35.35718721989334
 20
240.2671603131971
 11
35.65053710046237
 21
240.6888400005917
 72
     1
 10
35.65053710046237
 20
240.6888400005917
 11
34.09266492203239
 21
241.4403875806989
 97
        0
 92
        1
 93
        3
 72
     1
 10
64.24534639235881
 20
221.112429415208
 11
62.98047958494933
 21
222.3037434340074
 72
     1
 10
62.98047958494933
 20
222.3037434340074
 11
62.6871297043803
 21
221.863804740541
 72
     1
 10
62.6871297043803
 20
221.863804740541
 11
64.24534639235881
 21
221.112429415208
 97
        0
 75
     2
 76
     1
 98
        0
  0
POLYLINE
  5
148
330
1F
100
AcDbEntity
  8
Capa 1
370
     0
100
AcDb2dPolyline
 66
     1
 10
0.0
 20
0.0
 30
0.0
  0
VERTEX
  5
149
330
148
100
AcDbEntity
  8
Capa 1
370
     0
100
AcDbVertex
100
AcDb2dVertex
 10
109.2267523598461
 20
199.4648274240921
 30
0.0
  0
VERTEX
  5
14A
330
148
100
AcDbEntity
  8
Capa 1
370
     0
100
AcDbVertex
100
AcDb2dVertex
 10
107.5221191137445
 20
199.208167810441
 30
0.0
  0
VERTEX
  5
14B
330
148
100
AcDbEntity
  8
Capa 1
370
     0
100
AcDbVertex
100
AcDb2dVertex
 10
107.5221191137445
 20
199.7397460438151
 30
0.0
  0
SEQEND
  5
14C
330
148
100
AcDbEntity
  8
Capa 1
370
     0
  0
POLYLINE
  5
14D
330
1F
100
AcDbEntity
  8
Capa 1
370
     0
100
AcDb2dPolyline
 66
     1
 10
0.0
 20
0.0
 30
0.0
  0
VERTEX
  5
14E
330
14D
100
AcDbEntity
  8
Capa 1
370
     0
100
AcDbVertex
100
AcDb2dVertex
 10
93.22497284995765
 20
199.4648274240921
 30
0.0
  0
VERTEX
  5
14F
330
14D
100
AcDbEntity
  8
Capa 1
370
     0
100
AcDbVertex
100
AcDb2dVertex
 10
94.94803735690536
 20
199.7397460438151
 30
0.0
  0
VERTEX
  5
150
330
14D
100
AcDbEntity
  8
Capa 1
370
     0
100
AcDbVertex
100
AcDb2dVertex
 10
94.94803735690536
 20
199.208167810441
 30
0.0
  0
SEQEND
  5
151
330
14D
100
AcDbEntity
  8
Capa 1
370
     0
  0
HATCH
  5
152
330
1F
100
AcDbEntity
  8
Capa 1
 62
     7
100
AcDbHatch
 10
0.0
 20
0.0
 30
0.0
210
0.0
220
0.0
230
1.0
  2
SOLID
 70
     1
 71
     0
 91
        2
 92
        1
 93
        3
 72
     1
 10
109.2267523598461
 20
199.4648274240921
 11
107.5221191137445
 21
199.208167810441
 72
     1
 10
107.5221191137445
 20
199.208167810441
 11
107.5221191137445
 21
199.7397460438151
 72
     1
 10
107.5221191137445
 20
199.7397460438151
 11
109.2267523598461
 21
199.4648274240921
 97
        0
 92
        1
 93
        3
 72
     1
 10
93.22497284995765
 20
199.4648274240921
 11
94.94803735690536
 21
199.7397460438151
 72
     1
 10
94.94803735690536
 20
199.7397460438151
 11
94.94803735690536
 21
199.208167810441
 72
     1
 10
94.94803735690536
 20
199.208167810441
 11
93.22497284995765
 21
199.4648274240921
 97
        0
 75
     2
 76
     1
 98
        0
  0
POLYLINE
  5
153
330
1F
100
AcDbEntity
  8
Capa 1
370
     0
100
AcDb2dPolyline
 66
     1
 10
0.0
 20
0.0
 30
0.0
  0
VERTEX
  5
154
330
153
100
AcDbEntity
  8
Capa 1
370
     0
100
AcDbVertex
100
AcDb2dVertex
 10
105.267648628197
 20
263.4912379983633
 30
0.0
  0
VERTEX
  5
155
330
153
100
AcDbEntity
  8
Capa 1
370
     0
100
AcDbVertex
100
AcDb2dVertex
 10
106.9722818742986
 20
263.7477253572401
 30
0.0
  0
VERTEX
  5
156
330
153
100
AcDbEntity
  8
Capa 1
370
     0
100
AcDbVertex
100
AcDb2dVertex
 10
106.9722818742986
 20
263.2161471238661
 30
0.0
  0
SEQEND
  5
157
330
153
100
AcDbEntity
  8
Capa 1
370
     0
  0
POLYLINE
  5
158
330
1F
100
AcDbEntity
  8
Capa 1
370
     0
100
AcDb2dPolyline
 66
     1
 10
0.0
 20
0.0
 30
0.0
  0
VERTEX
  5
159
330
158
100
AcDbEntity
  8
Capa 1
370
     0
100
AcDbVertex
100
AcDb2dVertex
 10
97.20268009722712
 20
263.4912379983633
 30
0.0
  0
VERTEX
  5
15A
330
158
100
AcDbEntity
  8
Capa 1
370
     0
100
AcDbVertex
100
AcDb2dVertex
 10
95.4980468511255
 20
263.2161471238661
 30
0.0
  0
VERTEX
  5
15B
330
158
100
AcDbEntity
  8
Capa 1
370
     0
100
AcDbVertex
100
AcDb2dVertex
 10
95.4980468511255
 20
263.7477253572401
 30
0.0
  0
SEQEND
  5
15C
330
158
100
AcDbEntity
  8
Capa 1
370
     0
  0
HATCH
  5
15D
330
1F
100
AcDbEntity
  8
Capa 1
 62
     7
100
AcDbHatch
 10
0.0
 20
0.0
 30
0.0
210
0.0
220
0.0
230
1.0
  2
SOLID
 70
     1
 71
     0
 91
        2
 92
        1
 93
        3
 72
     1
 10
105.267648628197
 20
263.4912379983633
 11
106.9722818742986
 21
263.7477253572401
 72
     1
 10
106.9722818742986
 20
263.7477253572401
 11
106.9722818742986
 21
263.2161471238661
 72
     1
 10
106.9722818742986
 20
263.2161471238661
 11
105.267648628197
 21
263.4912379983633
 97
        0
 92
        1
 93
        3
 72
     1
 10
97.20268009722712
 20
263.4912379983633
 11
95.4980468511255
 21
263.2161471238661
 72
     1
 10
95.4980468511255
 20
263.2161471238661
 11
95.4980468511255
 21
263.7477253572401
 72
     1
 10
95.4980468511255
 20
263.7477253572401
 11
97.20268009722712
 21
263.4912379983633
 97
        0
 75
     2
 76
     1
 98
        0
  0
POLYLINE
  5
15E
330
1F
100
AcDbEntity
  8
Capa 1
370
     0
100
AcDb2dPolyline
 66
     1
 10
0.0
 20
0.0
 30
0.0
  0
VERTEX
  5
15F
330
15E
100
AcDbEntity
  8
Capa 1
370
     0
100
AcDbVertex
100
AcDb2dVertex
 10
74.76684025908607
 20
182.9311251712811
 30
0.0
  0
VERTEX
  5
160
330
15E
100
AcDbEntity
  8
Capa 1
370
     0
100
AcDbVertex
100
AcDb2dVertex
 10
75.02315536318866
 20
181.2082329191077
 30
0.0
  0
VERTEX
  5
161
330
15E
100
AcDbEntity
  8
Capa 1
370
     0
100
AcDbVertex
100
AcDb2dVertex
 10
74.51018064543496
 20
181.2082329191077
 30
0.0
  0
SEQEND
  5
162
330
15E
100
AcDbEntity
  8
Capa 1
370
     0
  0
POLYLINE
  5
163
330
1F
100
AcDbEntity
  8
Capa 1
370
     0
100
AcDb2dPolyline
 66
     1
 10
0.0
 20
0.0
 30
0.0
  0
VERTEX
  5
164
330
163
100
AcDbEntity
  8
Capa 1
370
     0
100
AcDbVertex
100
AcDb2dVertex
 10
74.76684025908607
 20
184.3611843072083
 30
0.0
  0
VERTEX
  5
165
330
163
100
AcDbEntity
  8
Capa 1
370
     0
100
AcDbVertex
100
AcDb2dVertex
 10
74.51018064543496
 20
186.0840765593818
 30
0.0
  0
VERTEX
  5
166
330
163
100
AcDbEntity
  8
Capa 1
370
     0
100
AcDbVertex
100
AcDb2dVertex
 10
75.02315536318866
 20
186.0840765593818
 30
0.0
  0
SEQEND
  5
167
330
163
100
AcDbEntity
  8
Capa 1
370
     0
  0
HATCH
  5
168
330
1F
100
AcDbEntity
  8
Capa 1
 62
     7
100
AcDbHatch
 10
0.0
 20
0.0
 30
0.0
210
0.0
220
0.0
230
1.0
  2
SOLID
 70
     1
 71
     0
 91
        2
 92
        1
 93
        3
 72
     1
 10
74.76684025908607
 20
182.9311251712811
 11
75.02315536318866
 21
181.2082329191077
 72
     1
 10
75.02315536318866
 20
181.2082329191077
 11
74.51018064543496
 21
181.2082329191077
 72
     1
 10
74.51018064543496
 20
181.2082329191077
 11
74.76684025908607
 21
182.9311251712811
 97
        0
 92
        1
 93
        3
 72
     1
 10
74.76684025908607
 20
184.3611843072083
 11
74.51018064543496
 21
186.0840765593818
 72
     1
 10
74.51018064543496
 20
186.0840765593818
 11
75.02315536318866
 21
186.0840765593818
 72
     1
 10
75.02315536318866
 20
186.0840765593818
 11
74.76684025908607
 21
184.3611843072083
 97
        0
 75
     2
 76
     1
 98
        0
  0
POLYLINE
  5
169
330
1F
100
AcDbEntity
  8
Capa 1
370
     0
100
AcDb2dPolyline
 66
     1
 10
0.0
 20
0.0
 30
0.0
  0
VERTEX
  5
16A
330
169
100
AcDbEntity
  8
Capa 1
370
     0
100
AcDbVertex
100
AcDb2dVertex
 10
20.07009276841998
 20
170.5584092455549
 30
0.0
  0
VERTEX
  5
16B
330
169
100
AcDbEntity
  8
Capa 1
370
     0
100
AcDbVertex
100
AcDb2dVertex
 10
19.81360540954313
 20
172.2816460072768
 30
0.0
  0
VERTEX
  5
16C
330
169
100
AcDbEntity
  8
Capa 1
370
     0
100
AcDbVertex
100
AcDb2dVertex
 10
20.34518364291718
 20
172.2816460072768
 30
0.0
  0
SEQEND
  5
16D
330
169
100
AcDbEntity
  8
Capa 1
370
     0
  0
POLYLINE
  5
16E
330
1F
100
AcDbEntity
  8
Capa 1
370
     0
100
AcDb2dPolyline
 66
     1
 10
0.0
 20
0.0
 30
0.0
  0
VERTEX
  5
16F
330
16E
100
AcDbEntity
  8
Capa 1
370
     0
100
AcDbVertex
100
AcDb2dVertex
 10
20.07009276841998
 20
183.5726019506346
 30
0.0
  0
VERTEX
  5
170
330
16E
100
AcDbEntity
  8
Capa 1
370
     0
100
AcDbVertex
100
AcDb2dVertex
 10
20.34518364291718
 20
181.8683132140816
 30
0.0
  0
VERTEX
  5
171
330
16E
100
AcDbEntity
  8
Capa 1
370
     0
100
AcDbVertex
100
AcDb2dVertex
 10
19.81360540954313
 20
181.8683132140816
 30
0.0
  0
SEQEND
  5
172
330
16E
100
AcDbEntity
  8
Capa 1
370
     0
  0
HATCH
  5
173
330
1F
100
AcDbEntity
  8
Capa 1
 62
     7
100
AcDbHatch
 10
0.0
 20
0.0
 30
0.0
210
0.0
220
0.0
230
1.0
  2
SOLID
 70
     1
 71
     0
 91
        2
 92
        1
 93
        3
 72
     1
 10
20.07009276841998
 20
170.5584092455549
 11
19.81360540954313
 21
172.2816460072768
 72
     1
 10
19.81360540954313
 20
172.2816460072768
 11
20.34518364291718
 21
172.2816460072768
 72
     1
 10
20.34518364291718
 20
172.2816460072768
 11
20.07009276841998
 21
170.5584092455549
 97
        0
 92
        1
 93
        3
 72
     1
 10
20.07009276841998
 20
183.5726019506346
 11
20.34518364291718
 21
181.8683132140816
 72
     1
 10
20.34518364291718
 20
181.8683132140816
 11
19.81360540954313
 21
181.8683132140816
 72
     1
 10
19.81360540954313
 20
181.8683132140816
 11
20.07009276841998
 21
183.5726019506346
 97
        0
 75
     2
 76
     1
 98
        0
  0
POLYLINE
  5
174
330
1F
100
AcDbEntity
  8
Capa 1
370
     0
100
AcDb2dPolyline
 66
     1
 10
0.0
 20
0.0
 30
0.0
  0
VERTEX
  5
175
330
174
100
AcDbEntity
  8
Capa 1
370
     0
100
AcDbVertex
100
AcDb2dVertex
 10
63.45710854533364
 20
163.941758856584
 30
0.0
  0
VERTEX
  5
176
330
174
100
AcDbEntity
  8
Capa 1
370
     0
100
AcDbVertex
100
AcDb2dVertex
 10
61.73404403838594
 20
163.6847547333844
 30
0.0
  0
VERTEX
  5
177
330
174
100
AcDbEntity
  8
Capa 1
370
     0
100
AcDbVertex
100
AcDb2dVertex
 10
61.73404403838594
 20
164.1980739606866
 30
0.0
  0
SEQEND
  5
178
330
174
100
AcDbEntity
  8
Capa 1
370
     0
  0
POLYLINE
  5
179
330
1F
100
AcDbEntity
  8
Capa 1
370
     0
100
AcDb2dPolyline
 66
     1
 10
0.0
 20
0.0
 30
0.0
  0
VERTEX
  5
17A
330
179
100
AcDbEntity
  8
Capa 1
370
     0
100
AcDbVertex
100
AcDb2dVertex
 10
34.88073051428329
 20
163.941758856584
 30
0.0
  0
VERTEX
  5
17B
330
179
100
AcDbEntity
  8
Capa 1
370
     0
100
AcDbVertex
100
AcDb2dVertex
 10
36.603795021231
 20
164.1980739606866
 30
0.0
  0
VERTEX
  5
17C
330
179
100
AcDbEntity
  8
Capa 1
370
     0
100
AcDbVertex
100
AcDb2dVertex
 10
36.603795021231
 20
163.6847547333844
 30
0.0
  0
SEQEND
  5
17D
330
179
100
AcDbEntity
  8
Capa 1
370
     0
  0
HATCH
  5
17E
330
1F
100
AcDbEntity
  8
Capa 1
 62
     7
100
AcDbHatch
 10
0.0
 20
0.0
 30
0.0
210
0.0
220
0.0
230
1.0
  2
SOLID
 70
     1
 71
     0
 91
        2
 92
        1
 93
        3
 72
     1
 10
63.45710854533364
 20
163.941758856584
 11
61.73404403838594
 21
163.6847547333844
 72
     1
 10
61.73404403838594
 20
163.6847547333844
 11
61.73404403838594
 21
164.1980739606866
 72
     1
 10
61.73404403838594
 20
164.1980739606866
 11
63.45710854533364
 21
163.941758856584
 97
        0
 92
        1
 93
        3
 72
     1
 10
34.88073051428329
 20
163.941758856584
 11
36.603795021231
 21
164.1980739606866
 72
     1
 10
36.603795021231
 20
164.1980739606866
 11
36.603795021231
 21
163.6847547333844
 72
     1
 10
36.603795021231
 20
163.6847547333844
 11
34.88073051428329
 21
163.941758856584
 97
        0
 75
     2
 76
     1
 98
        0
  0
POLYLINE
  5
17F
330
1F
100
AcDbEntity
  8
Capa 1
 62
     7
370
     9
100
AcDb2dPolyline
 66
     1
 10
0.0
 20
0.0
 30
0.0
  0
VERTEX
  5
180
330
17F
100
AcDbEntity
  8
Capa 1
 62
     7
370
     9
100
AcDbVertex
100
AcDb2dVertex
 10
85.06078556901258
 20
169.2840684255609
 30
0.0
  0
VERTEX
  5
181
330
17F
100
AcDbEntity
  8
Capa 1
 62
     7
370
     9
100
AcDbVertex
100
AcDb2dVertex
 10
105.9604573302807
 20
169.2840684255609
 30
0.0
  0
SEQEND
  5
182
330
17F
100
AcDbEntity
  8
Capa 1
370
     9
  0
POLYLINE
  5
183
330
1F
100
AcDbEntity
  8
Capa 1
 62
     7
370
     9
100
AcDb2dPolyline
 66
     1
 10
0.0
 20
0.0
 30
0.0
  0
VERTEX
  5
184
330
183
100
AcDbEntity
  8
Capa 1
 62
     7
370
     9
100
AcDbVertex
100
AcDb2dVertex
 10
85.10488279122379
 20
163.9376247420017
 30
0.0
  0
VERTEX
  5
185
330
183
100
AcDbEntity
  8
Capa 1
 62
     7
370
     9
100
AcDbVertex
100
AcDb2dVertex
 10
85.10488279122379
 20
169.2396266938012
 30
0.0
  0
SEQEND
  5
186
330
183
100
AcDbEntity
  8
Capa 1
370
     9
  0
POLYLINE
  5
187
330
1F
100
AcDbEntity
  8
Capa 1
 62
     7
370
     9
100
AcDb2dPolyline
 66
     1
 10
0.0
 20
0.0
 30
0.0
  0
VERTEX
  5
188
330
187
100
AcDbEntity
  8
Capa 1
 62
     7
370
     9
100
AcDbVertex
100
AcDb2dVertex
 10
105.9608018398292
 20
169.2840684255609
 30
0.0
  0
VERTEX
  5
189
330
187
100
AcDbEntity
  8
Capa 1
 62
     7
370
     9
100
AcDbVertex
100
AcDb2dVertex
 10
119.3605007297085
 20
169.2840684255609
 30
0.0
  0
SEQEND
  5
18A
330
187
100
AcDbEntity
  8
Capa 1
370
     9
  0
POLYLINE
  5
18B
330
1F
100
AcDbEntity
  8
Capa 1
 62
     7
370
     9
100
AcDb2dPolyline
 66
     1
 10
0.0
 20
0.0
 30
0.0
  0
VERTEX
  5
18C
330
18B
100
AcDbEntity
  8
Capa 1
 62
     7
370
     9
100
AcDbVertex
100
AcDb2dVertex
 10
119.3605007297085
 20
169.2840684255609
 30
0.0
  0
VERTEX
  5
18D
330
18B
100
AcDbEntity
  8
Capa 1
 62
     7
370
     9
100
AcDbVertex
100
AcDb2dVertex
 10
130.5605061522557
 20
169.2840684255609
 30
0.0
  0
SEQEND
  5
18E
330
18B
100
AcDbEntity
  8
Capa 1
370
     9
  0
POLYLINE
  5
18F
330
1F
100
AcDbEntity
  8
Capa 1
 62
     7
370
     9
100
AcDb2dPolyline
 66
     1
 10
0.0
 20
0.0
 30
0.0
  0
VERTEX
  5
190
330
18F
100
AcDbEntity
  8
Capa 1
 62
     7
370
     9
100
AcDbVertex
100
AcDb2dVertex
 10
130.5605061522557
 20
169.2840684255609
 30
0.0
  0
VERTEX
  5
191
330
18F
100
AcDbEntity
  8
Capa 1
 62
     7
370
     9
100
AcDbVertex
100
AcDb2dVertex
 10
144.2606173684487
 20
169.2840684255609
 30
0.0
  0
SEQEND
  5
192
330
18F
100
AcDbEntity
  8
Capa 1
370
     9
  0
POLYLINE
  5
193
330
1F
100
AcDbEntity
  8
Capa 1
 62
     7
370
     9
100
AcDb2dPolyline
 66
     1
 10
0.0
 20
0.0
 30
0.0
  0
VERTEX
  5
194
330
193
100
AcDbEntity
  8
Capa 1
 62
     7
370
     9
100
AcDbVertex
100
AcDb2dVertex
 10
144.2606173684487
 20
169.2840684255609
 30
0.0
  0
VERTEX
  5
195
330
193
100
AcDbEntity
  8
Capa 1
 62
     7
370
     9
100
AcDbVertex
100
AcDb2dVertex
 10
155.8605983768335
 20
169.2840684255609
 30
0.0
  0
SEQEND
  5
196
330
193
100
AcDbEntity
  8
Capa 1
370
     9
  0
POLYLINE
  5
197
330
1F
100
AcDbEntity
  8
Capa 1
 62
     7
370
     9
100
AcDb2dPolyline
 66
     1
 10
0.0
 20
0.0
 30
0.0
  0
VERTEX
  5
198
330
197
100
AcDbEntity
  8
Capa 1
 62
     7
370
     9
100
AcDbVertex
100
AcDb2dVertex
 10
85.10488279122379
 20
158.5467393266828
 30
0.0
  0
VERTEX
  5
199
330
197
100
AcDbEntity
  8
Capa 1
 62
     7
370
     9
100
AcDbVertex
100
AcDb2dVertex
 10
85.10488279122379
 20
163.8490857880308
 30
0.0
  0
SEQEND
  5
19A
330
197
100
AcDbEntity
  8
Capa 1
370
     9
  0
POLYLINE
  5
19B
330
1F
100
AcDbEntity
  8
Capa 1
 62
     7
370
     9
100
AcDb2dPolyline
 66
     1
 10
0.0
 20
0.0
 30
0.0
  0
VERTEX
  5
19C
330
19B
100
AcDbEntity
  8
Capa 1
 62
     7
370
     9
100
AcDbVertex
100
AcDb2dVertex
 10
85.10488279122379
 20
153.1565429304609
 30
0.0
  0
VERTEX
  5
19D
330
19B
100
AcDbEntity
  8
Capa 1
 62
     7
370
     9
100
AcDbVertex
100
AcDb2dVertex
 10
85.10488279122379
 20
158.4585448822604
 30
0.0
  0
SEQEND
  5
19E
330
19B
100
AcDbEntity
  8
Capa 1
370
     9
  0
POLYLINE
  5
19F
330
1F
100
AcDbEntity
  8
Capa 1
 62
     7
370
     9
100
AcDb2dPolyline
 66
     1
 10
0.0
 20
0.0
 30
0.0
  0
VERTEX
  5
1A0
330
19F
100
AcDbEntity
  8
Capa 1
 62
     7
370
     9
100
AcDbVertex
100
AcDb2dVertex
 10
85.10488279122379
 20
147.7660020246904
 30
0.0
  0
VERTEX
  5
1A1
330
19F
100
AcDbEntity
  8
Capa 1
 62
     7
370
     9
100
AcDbVertex
100
AcDb2dVertex
 10
85.10488279122379
 20
153.06800397649
 30
0.0
  0
SEQEND
  5
1A2
330
19F
100
AcDbEntity
  8
Capa 1
370
     9
  0
POLYLINE
  5
1A3
330
1F
100
AcDbEntity
  8
Capa 1
 62
     7
370
     9
100
AcDb2dPolyline
 66
     1
 10
0.0
 20
0.0
 30
0.0
  0
VERTEX
  5
1A4
330
1A3
100
AcDbEntity
  8
Capa 1
 62
     7
370
     9
100
AcDbVertex
100
AcDb2dVertex
 10
85.10488279122379
 20
142.37546111892
 30
0.0
  0
VERTEX
  5
1A5
330
1A3
100
AcDbEntity
  8
Capa 1
 62
     7
370
     9
100
AcDbVertex
100
AcDb2dVertex
 10
85.10488279122379
 20
147.6774630707195
 30
0.0
  0
SEQEND
  5
1A6
330
1A3
100
AcDbEntity
  8
Capa 1
370
     9
  0
POLYLINE
  5
1A7
330
1F
100
AcDbEntity
  8
Capa 1
 62
     7
370
     9
100
AcDb2dPolyline
 66
     1
 10
0.0
 20
0.0
 30
0.0
  0
VERTEX
  5
1A8
330
1A7
100
AcDbEntity
  8
Capa 1
 62
     7
370
     9
100
AcDbVertex
100
AcDb2dVertex
 10
85.10488279122379
 20
136.9845757036011
 30
0.0
  0
VERTEX
  5
1A9
330
1A7
100
AcDbEntity
  8
Capa 1
 62
     7
370
     9
100
AcDbVertex
100
AcDb2dVertex
 10
85.10488279122379
 20
142.2869221649491
 30
0.0
  0
SEQEND
  5
1AA
330
1A7
100
AcDbEntity
  8
Capa 1
370
     9
  0
POLYLINE
  5
1AB
330
1F
100
AcDbEntity
  8
Capa 1
 62
     7
370
     9
100
AcDb2dPolyline
 66
     1
 10
0.0
 20
0.0
 30
0.0
  0
VERTEX
  5
1AC
330
1AB
100
AcDbEntity
  8
Capa 1
 62
     7
370
     9
100
AcDbVertex
100
AcDb2dVertex
 10
85.10488279122379
 20
131.5943793073792
 30
0.0
  0
VERTEX
  5
1AD
330
1AB
100
AcDbEntity
  8
Capa 1
 62
     7
370
     9
100
AcDbVertex
100
AcDb2dVertex
 10
85.10488279122379
 20
136.8963812591787
 30
0.0
  0
SEQEND
  5
1AE
330
1AB
100
AcDbEntity
  8
Capa 1
370
     9
  0
INSERT
  5
1B0
330
1F
100
AcDbEntity
  8
Capa 1
100
AcDbBlockReference
  2
block 2
 10
0.0
 20
0.0
 30
0.0
  0
ENDSEC
  0
SECTION
  2
OBJECTS
  0
DICTIONARY
  5
C
330
0
100
AcDbDictionary
281
     1
  3
ACAD_GROUP
350
D
  3
ACAD_IMAGE_DICT
350
3C
  3
ACAD_IMAGE_VARS
350
3E
  3
ACAD_LAYOUT
350
1A
  3
ACAD_MLINESTYLE
350
17
  3
ACAD_PLOTSETTINGS
350
19
  3
ACAD_PLOTSTYLENAME
350
E
  3
ACAD_TABLESTYLE
350
3E7
  3
ACAD_VISUALSTYLE
350
2A
  0
IMAGEDEF_REACTOR
  5
40
330
3F
100
AcDbRasterImageDefReactor
 90
        2
330
3F
  0
DICTIONARY
  5
D
102
{ACAD_REACTORS
330
C
102
}
330
C
100
AcDbDictionary
281
     1
  0
DICTIONARY
  5
3C
102
{ACAD_REACTORS
330
C
102
}
330
C
100
AcDbDictionary
281
     1
  3
X:\PRODUC-TECA\PRODUCTES\P - Proteccio i Control\P1\WGC\DI_WGC_MD12_1.png
350
3D
  0
RASTERVARIABLES
  5
3E
102
{ACAD_REACTORS
330
C
102
}
330
C
100
AcDbRasterVariables
 90
        0
 70
     0
 71
     1
 72
     0
  0
DICTIONARY
  5
1A
102
{ACAD_REACTORS
330
C
102
}
330
C
100
AcDbDictionary
281
     1
  3
Layout1
350
1E
  3
Layout2
350
26
  3
Model
350
22
  0
DICTIONARY
  5
17
102
{ACAD_REACTORS
330
C
102
}
330
C
100
AcDbDictionary
281
     1
  3
Standard
350
18
  0
DICTIONARY
  5
19
102
{ACAD_REACTORS
330
C
102
}
330
C
100
AcDbDictionary
281
     1
  0
ACDBDICTIONARYWDFLT
  5
E
102
{ACAD_REACTORS
330
C
102
}
330
C
100
AcDbDictionary
281
     1
  3
Normal
350
F
100
AcDbDictionaryWithDefault
340
F
  0
DICTIONARY
  5
3E7
102
{ACAD_REACTORS
330
C
102
}
330
C
100
AcDbDictionary
281
     1
  0
DICTIONARY
  5
2A
102
{ACAD_REACTORS
330
C
102
}
330
C
100
AcDbDictionary
281
     1
  3
2dWireframe
350
2F
  3
3D Hidden
350
31
  3
3dWireframe
350
30
  3
Basic
350
32
  3
Brighten
350
36
  3
ColorChange
350
3A
  3
Conceptual
350
34
  3
Dim
350
35
  3
Facepattern
350
39
  3
Flat
350
2B
  3
FlatWithEdges
350
2C
  3
Gouraud
350
2D
  3
GouraudWithEdges
350
2E
  3
Linepattern
350
38
  3
Realistic
350
33
  3
Thicken
350
37
  0
IMAGEDEF
  5
3D
102
{ACAD_REACTORS
330
3C
330
40
102
}
330
3C
100
AcDbRasterImageDef
 90
        0
  1
X:\PRODUC-TECA\PRODUCTES\P - Proteccio i Control\P1\WGC\DI_WGC_MD12_1.png
 10
1444.0
 20
2048.0
 11
0.3527777777777777
 21
0.3527777777777777
280
     1
281
     5
  0
LAYOUT
  5
1E
102
{ACAD_REACTORS
330
1A
102
}
330
1A
100
AcDbPlotSettings
  1

  2
none_device
  4

  6

 40
0.0
 41
0.0
 42
0.0
 43
0.0
 44
0.0
 45
0.0
 46
0.0
 47
0.0
 48
0.0
 49
0.0
140
0.0
141
0.0
142
1.0
143
1.0
 70
   688
 72
     0
 73
     0
 74
     5
  7

 75
    16
 76
     0
 77
     2
 78
   300
147
1.0
148
0.0
149
0.0
100
AcDbLayout
  1
Layout1
 70
     1
 71
     1
 10
0.0
 20
0.0
 11
12.0
 21
9.0
 12
0.0
 22
0.0
 32
0.0
 14
1.000000000000000E+20
 24
1.000000000000000E+20
 34
1.000000000000000E+20
 15
-1.000000000000000E+20
 25
-1.000000000000000E+20
 35
-1.000000000000000E+20
146
0.0
 13
0.0
 23
0.0
 33
0.0
 16
1.0
 26
0.0
 36
0.0
 17
0.0
 27
1.0
 37
0.0
 76
     0
330
1B
  0
LAYOUT
  5
26
102
{ACAD_REACTORS
330
1A
102
}
330
1A
100
AcDbPlotSettings
  1

  2
none_device
  4

  6

 40
0.0
 41
0.0
 42
0.0
 43
0.0
 44
0.0
 45
0.0
 46
0.0
 47
0.0
 48
0.0
 49
0.0
140
0.0
141
0.0
142
1.0
143
1.0
 70
   688
 72
     0
 73
     0
 74
     5
  7

 75
    16
 76
     0
 77
     2
 78
   300
147
1.0
148
0.0
149
0.0
100
AcDbLayout
  1
Layout2
 70
     1
 71
     2
 10
0.0
 20
0.0
 11
0.0
 21
0.0
 12
0.0
 22
0.0
 32
0.0
 14
0.0
 24
0.0
 34
0.0
 15
0.0
 25
0.0
 35
0.0
146
0.0
 13
0.0
 23
0.0
 33
0.0
 16
1.0
 26
0.0
 36
0.0
 17
0.0
 27
1.0
 37
0.0
 76
     0
330
23
  0
LAYOUT
  5
22
102
{ACAD_REACTORS
330
1A
102
}
330
1A
100
AcDbPlotSettings
  1

  2
none_device
  4

  6

 40
0.0
 41
0.0
 42
0.0
 43
0.0
 44
0.0
 45
0.0
 46
0.0
 47
0.0
 48
0.0
 49
0.0
140
0.0
141
0.0
142
1.0
143
1.0
 70
  1712
 72
     0
 73
     0
 74
     0
  7

 75
     0
 76
     0
 77
     2
 78
   300
147
1.0
148
0.0
149
0.0
100
AcDbLayout
  1
Model
 70
     1
 71
     0
 10
0.0
 20
0.0
 11
12.0
 21
9.0
 12
0.0
 22
0.0
 32
0.0
 14
1.000000000000000E+20
 24
1.000000000000000E+20
 34
1.000000000000000E+20
 15
-1.000000000000000E+20
 25
-1.000000000000000E+20
 35
-1.000000000000000E+20
146
0.0
 13
0.0
 23
0.0
 33
0.0
 16
1.0
 26
0.0
 36
0.0
 17
0.0
 27
1.0
 37
0.0
 76
     0
330
1F
331
29
  0
MLINESTYLE
  5
18
102
{ACAD_REACTORS
330
17
102
}
330
17
100
AcDbMlineStyle
  2
Standard
 70
     0
  3

 62
   256
 51
90.0
 52
90.0
 71
     2
 49
0.5
 62
   256
  6
BYLAYER
 49
-0.5
 62
   256
  6
BYLAYER
  0
ACDBPLACEHOLDER
  5
F
102
{ACAD_REACTORS
330
E
102
}
330
E
  0
VISUALSTYLE
  5
2F
102
{ACAD_REACTORS
330
2A
102
}
330
2A
100
AcDbVisualStyle
  2
2dWireframe
 70
     4
 71
     0
 72
     2
 73
     0
 90
        0
 40
-0.6
 41
-30.0
 62
     5
 63
     7
421
 16777215
 74
     1
 91
        4
 64
     7
 65
   257
 75
     1
175
     1
 42
1.0
 92
        0
 66
   257
 43
1.0
 76
     1
 77
     6
 78
     2
 67
     7
 79
     5
170
     0
171
     0
290
     0
174
     0
 93
        1
 44
0.0
173
     0
291
     0
 45
0.0
1001
ACAD
1000
AcDbSavedByObjectVersion
1070
     0
  0
VISUALSTYLE
  5
31
102
{ACAD_REACTORS
330
2A
102
}
330
2A
100
AcDbVisualStyle
  2
3D Hidden
 70
     6
 71
     1
 72
     2
 73
     2
 90
        0
 40
-0.6
 41
-30.0
 62
     5
 63
     7
421
 16777215
 74
     2
 91
        2
 64
     7
 65
   257
 75
     2
175
     1
 42
40.0
 92
        0
 66
   257
 43
1.0
 76
     1
 77
     6
 78
     2
 67
     7
 79
     3
170
     0
171
     0
290
     0
174
     0
 93
        1
 44
0.0
173
     0
291
     0
 45
0.0
1001
ACAD
1000
AcDbSavedByObjectVersion
1070
     0
  0
VISUALSTYLE
  5
30
102
{ACAD_REACTORS
330
2A
102
}
330
2A
100
AcDbVisualStyle
  2
3dWireframe
 70
     5
 71
     0
 72
     2
 73
     0
 90
        0
 40
-0.6
 41
-30.0
 62
     5
 63
     7
421
 16777215
 74
     1
 91
        4
 64
     7
 65
   257
 75
     1
175
     1
 42
1.0
 92
        0
 66
   257
 43
1.0
 76
     1
 77
     6
 78
     2
 67
     7
 79
     5
170
     0
171
     0
290
     0
174
     0
 93
        1
 44
0.0
173
     0
291
     0
 45
0.0
1001
ACAD
1000
AcDbSavedByObjectVersion
1070
     0
  0
VISUALSTYLE
  5
32
102
{ACAD_REACTORS
330
2A
102
}
330
2A
100
AcDbVisualStyle
  2
Basic
 70
     7
 71
     1
 72
     0
 73
     1
 90
        0
 40
-0.6
 41
-30.0
 62
     5
 63
     7
421
 16777215
 74
     0
 91
        4
 64
     7
 65
   257
 75
     1
175
     1
 42
1.0
 92
        8
 66
     7
 43
1.0
 76
     1
 77
     6
 78
     2
 67
     7
 79
     5
170
     0
171
     0
290
     0
174
     0
 93
        1
 44
0.0
173
     0
291
     1
 45
0.0
1001
ACAD
1000
AcDbSavedByObjectVersion
1070
     0
  0
VISUALSTYLE
  5
36
102
{ACAD_REACTORS
330
2A
102
}
330
2A
100
AcDbVisualStyle
  2
Brighten
 70
    12
 71
     2
 72
     2
 73
     0
 90
        0
 40
-0.6
 41
-30.0
 62
     5
 63
     7
421
 16777215
 74
     1
 91
        4
 64
     7
 65
   257
 75
     1
175
     1
 42
1.0
 92
        8
 66
     7
 43
1.0
 76
     1
 77
     6
 78
     2
 67
     7
 79
     5
170
     0
171
     0
290
     0
174
     0
 93
        1
 44
50.0
173
     0
291
     1
 45
0.0
1001
ACAD
1000
AcDbSavedByObjectVersion
1070
     0
  0
VISUALSTYLE
  5
3A
102
{ACAD_REACTORS
330
2A
102
}
330
2A
100
AcDbVisualStyle
  2
ColorChange
 70
    16
 71
     2
 72
     2
 73
     3
 90
        0
 40
-0.6
 41
-30.0
 62
     5
 63
     8
421
  8421504
 74
     1
 91
        4
 64
     7
 65
   257
 75
     1
175
     1
 42
1.0
 92
        8
 66
     8
424
  8421504
 43
1.0
 76
     1
 77
     6
 78
     2
 67
     7
 79
     5
170
     0
171
     0
290
     0
174
     0
 93
        1
 44
0.0
173
     0
291
     1
 45
0.0
1001
ACAD
1000
AcDbSavedByObjectVersion
1070
     0
  0
VISUALSTYLE
  5
34
102
{ACAD_REACTORS
330
2A
102
}
330
2A
100
AcDbVisualStyle
  2
Conceptual
 70
     9
 71
     3
 72
     2
 73
     0
 90
        0
 40
-0.6
 41
-30.0
 62
     5
 63
     7
421
 16777215
 74
     2
 91
        2
 64
     7
 65
   257
 75
     1
175
     1
 42
40.0
 92
        8
 66
     7
 43
1.0
 76
     1
 77
     6
 78
     2
 67
     7
 79
     3
170
     0
171
     0
290
     0
174
     0
 93
        1
 44
0.0
173
     0
291
     0
 45
0.0
1001
ACAD
1000
AcDbSavedByObjectVersion
1070
     0
  0
VISUALSTYLE
  5
35
102
{ACAD_REACTORS
330
2A
102
}
330
2A
100
AcDbVisualStyle
  2
Dim
 70
    11
 71
     2
 72
     2
 73
     0
 90
        0
 40
-0.6
 41
-30.0
 62
     5
 63
     7
421
 16777215
 74
     1
 91
        4
 64
     7
 65
   257
 75
     1
175
     1
 42
1.0
 92
        8
 66
     7
 43
1.0
 76
     1
 77
     6
 78
     2
 67
     7
 79
     5
170
     0
171
     0
290
     0
174
     0
 93
        1
 44
-50.0
173
     0
291
     1
 45
0.0
1001
ACAD
1000
AcDbSavedByObjectVersion
1070
     0
  0
VISUALSTYLE
  5
39
102
{ACAD_REACTORS
330
2A
102
}
330
2A
100
AcDbVisualStyle
  2
Facepattern
 70
    15
 71
     2
 72
     2
 73
     0
 90
        0
 40
-0.6
 41
-30.0
 62
     5
 63
     7
421
 16777215
 74
     1
 91
        4
 64
     7
 65
   257
 75
     1
175
     1
 42
1.0
 92
        8
 66
     7
 43
1.0
 76
     1
 77
     6
 78
     2
 67
     7
 79
     5
170
     0
171
     0
290
     0
174
     0
 93
        1
 44
0.0
173
     0
291
     1
 45
0.0
1001
ACAD
1000
AcDbSavedByObjectVersion
1070
     0
  0
VISUALSTYLE
  5
2B
102
{ACAD_REACTORS
330
2A
102
}
330
2A
100
AcDbVisualStyle
  2
Flat
 70
     0
 71
     2
 72
     1
 73
     1
 90
        2
 40
-0.6
 41
30.0
 62
     5
 63
     7
421
 16777215
 74
     0
 91
        4
 64
     7
 65
   257
 75
     1
175
     1
 42
1.0
 92
        8
 66
     7
 43
1.0
 76
     1
 77
     6
 78
     2
 67
     7
 79
     5
170
     0
171
     0
290
     0
174
     0
 93
       13
 44
0.0
173
     0
291
     1
 45
0.0
1001
ACAD
1000
AcDbSavedByObjectVersion
1070
     0
  0
VISUALSTYLE
  5
2C
102
{ACAD_REACTORS
330
2A
102
}
330
2A
100
AcDbVisualStyle
  2
FlatWithEdges
 70
     1
 71
     2
 72
     1
 73
     1
 90
        2
 40
-0.6
 41
30.0
 62
     5
 63
     7
421
 16777215
 74
     1
 91
        4
 64
     7
 65
   257
 75
     1
175
     1
 42
1.0
 92
        0
 66
   257
 43
1.0
 76
     1
 77
     6
 78
     2
 67
     7
 79
     5
170
     0
171
     0
290
     0
174
     0
 93
       13
 44
0.0
173
     0
291
     1
 45
0.0
1001
ACAD
1000
AcDbSavedByObjectVersion
1070
     0
  0
VISUALSTYLE
  5
2D
102
{ACAD_REACTORS
330
2A
102
}
330
2A
100
AcDbVisualStyle
  2
Gouraud
 70
     2
 71
     2
 72
     2
 73
     1
 90
        2
 40
-0.6
 41
30.0
 62
     5
 63
     7
421
 16777215
 74
     0
 91
        4
 64
     7
 65
   257
 75
     1
175
     1
 42
1.0
 92
        0
 66
     7
 43
1.0
 76
     1
 77
     6
 78
     2
 67
     7
 79
     5
170
     0
171
     0
290
     0
174
     0
 93
       13
 44
0.0
173
     0
291
     1
 45
0.0
1001
ACAD
1000
AcDbSavedByObjectVersion
1070
     0
  0
VISUALSTYLE
  5
2E
102
{ACAD_REACTORS
330
2A
102
}
330
2A
100
AcDbVisualStyle
  2
GouraudWithEdges
 70
     3
 71
     2
 72
     2
 73
     1
 90
        2
 40
-0.6
 41
30.0
 62
     5
 63
     7
421
 16777215
 74
     1
 91
        4
 64
     7
 65
   257
 75
     1
175
     1
 42
1.0
 92
        0
 66
   257
 43
1.0
 76
     1
 77
     6
 78
     2
 67
     7
 79
     5
170
     0
171
     0
290
     0
174
     0
 93
       13
 44
0.0
173
     0
291
     1
 45
0.0
1001
ACAD
1000
AcDbSavedByObjectVersion
1070
     0
  0
VISUALSTYLE
  5
38
102
{ACAD_REACTORS
330
2A
102
}
330
2A
100
AcDbVisualStyle
  2
Linepattern
 70
    14
 71
     2
 72
     2
 73
     0
 90
        0
 40
-0.6
 41
-30.0
 62
     5
 63
     7
421
 16777215
 74
     1
 91
        4
 64
     7
 65
   257
 75
     7
175
     7
 42
1.0
 92
        8
 66
     7
 43
1.0
 76
     1
 77
     6
 78
     2
 67
     7
 79
     5
170
     0
171
     0
290
     0
174
     0
 93
        1
 44
0.0
173
     0
291
     1
 45
0.0
1001
ACAD
1000
AcDbSavedByObjectVersion
1070
     0
  0
VISUALSTYLE
  5
33
102
{ACAD_REACTORS
330
2A
102
}
330
2A
100
AcDbVisualStyle
  2
Realistic
 70
     8
 71
     2
 72
     2
 73
     0
 90
        0
 40
-0.6
 41
-30.0
 62
     5
 63
     7
421
 16777215
 74
     1
 91
        0
 64
     7
 65
   257
 75
     1
175
     1
 42
1.0
 92
        8
 66
     8
424
  7895160
 43
1.0
 76
     1
 77
     6
 78
     2
 67
     7
 79
     5
170
     0
171
     0
290
     0
174
     0
 93
       13
 44
0.0
173
     0
291
     0
 45
0.0
1001
ACAD
1000
AcDbSavedByObjectVersion
1070
     0
  0
VISUALSTYLE
  5
37
102
{ACAD_REACTORS
330
2A
102
}
330
2A
100
AcDbVisualStyle
  2
Thicken
 70
    13
 71
     2
 72
     2
 73
     0
 90
        0
 40
-0.6
 41
-30.0
 62
     5
 63
     7
421
 16777215
 74
     1
 91
        4
 64
     7
 65
   257
 75
     1
175
     1
 42
1.0
 92
       12
 66
     7
 43
1.0
 76
     1
 77
     6
 78
     2
 67
     7
 79
     5
170
     0
171
     0
290
     0
174
     0
 93
        1
 44
0.0
173
     0
291
     1
 45
0.0
1001
ACAD
1000
AcDbSavedByObjectVersion
1070
     0
  0
ENDSEC
  0
EOF
