  0
SECTION
  2
HEADER
  9
$ACADVER
  1
AC1012
  9
$DWGCODEPAGE
  3
ansi_1252
  9
$INSBASE
 10
0.0
 20
0.0
 30
0.0
  9
$EXTMIN
 10
1.000000000000000E+20
 20
1.000000000000000E+20
 30
1.000000000000000E+20
  9
$EXTMAX
 10
-1.000000000000000E+20
 20
-1.000000000000000E+20
 30
-1.000000000000000E+20
  9
$LIMMIN
 10
0.0
 20
0.0
  9
$LIMMAX
 10
12.0
 20
9.0
  9
$ORTHOMODE
 70
     0
  9
$REGENMODE
 70
     1
  9
$FILLMODE
 70
     1
  9
$QTEXTMODE
 70
     0
  9
$MIRRTEXT
 70
     1
  9
$DRAGMODE
 70
     2
  9
$LTSCALE
 40
1.0
  9
$OSMODE
 70
    37
  9
$ATTMODE
 70
     1
  9
$TEXTSIZE
 40
0.2
  9
$TRACEWID
 40
0.05
  9
$TEXTSTYLE
  7
STANDARD
  9
$CLAYER
  8
0
  9
$CELTYPE
  6
BYLAYER
  9
$CECOLOR
 62
   256
  9
$CELTSCALE
 40
1.0
  9
$DELOBJ
 70
     1
  9
$DISPSILH
 70
     0
  9
$DIMSCALE
 40
1.0
  9
$DIMASZ
 40
0.18
  9
$DIMEXO
 40
0.0625
  9
$DIMDLI
 40
0.38
  9
$DIMRND
 40
0.0
  9
$DIMDLE
 40
0.0
  9
$DIMEXE
 40
0.18
  9
$DIMTP
 40
0.0
  9
$DIMTM
 40
0.0
  9
$DIMTXT
 40
0.18
  9
$DIMCEN
 40
0.09
  9
$DIMTSZ
 40
0.0
  9
$DIMTOL
 70
     0
  9
$DIMLIM
 70
     0
  9
$DIMTIH
 70
     1
  9
$DIMTOH
 70
     1
  9
$DIMSE1
 70
     0
  9
$DIMSE2
 70
     0
  9
$DIMTAD
 70
     0
  9
$DIMZIN
 70
     0
  9
$DIMBLK
  1

  9
$DIMASO
 70
     1
  9
$DIMSHO
 70
     1
  9
$DIMPOST
  1

  9
$DIMAPOST
  1

  9
$DIMALT
 70
     0
  9
$DIMALTD
 70
     2
  9
$DIMALTF
 40
25.4
  9
$DIMLFAC
 40
1.0
  9
$DIMTOFL
 70
     0
  9
$DIMTVP
 40
0.0
  9
$DIMTIX
 70
     0
  9
$DIMSOXD
 70
     0
  9
$DIMSAH
 70
     0
  9
$DIMBLK1
  1

  9
$DIMBLK2
  1

  9
$DIMSTYLE
  2
STANDARD
  9
$DIMCLRD
 70
     0
  9
$DIMCLRE
 70
     0
  9
$DIMCLRT
 70
     0
  9
$DIMTFAC
 40
1.0
  9
$DIMGAP
 40
0.09
  9
$DIMJUST
 70
     0
  9
$DIMSD1
 70
     0
  9
$DIMSD2
 70
     0
  9
$DIMTOLJ
 70
     1
  9
$DIMTZIN
 70
     0
  9
$DIMALTZ
 70
     0
  9
$DIMALTTZ
 70
     0
  9
$DIMFIT
 70
     3
  9
$DIMUPT
 70
     0
  9
$DIMUNIT
 70
     2
  9
$DIMDEC
 70
     4
  9
$DIMTDEC
 70
     4
  9
$DIMALTU
 70
     2
  9
$DIMALTTD
 70
     2
  9
$DIMTXSTY
  7
STANDARD
  9
$DIMAUNIT
 70
     0
  9
$LUNITS
 70
     2
  9
$LUPREC
 70
     4
  9
$SKETCHINC
 40
0.1
  9
$FILLETRAD
 40
0.5
  9
$AUNITS
 70
     0
  9
$AUPREC
 70
     0
  9
$MENU
  1
.
  9
$ELEVATION
 40
0.0
  9
$PELEVATION
 40
0.0
  9
$THICKNESS
 40
0.0
  9
$LIMCHECK
 70
     0
  9
$CHAMFERA
 40
0.5
  9
$CHAMFERB
 40
0.5
  9
$CHAMFERC
 40
1.0
  9
$CHAMFERD
 40
0.0
  9
$SKPOLY
 70
     0
  9
$TDCREATE
 40
2458457.362221979
  9
$TDUPDATE
 40
2458457.362221991
  9
$TDINDWG
 40
0.0000000116
  9
$TDUSRTIMER
 40
0.0000000116
  9
$USRTIMER
 70
     1
  9
$ANGBASE
 50
0.0
  9
$ANGDIR
 70
     0
  9
$PDMODE
 70
     0
  9
$PDSIZE
 40
0.0
  9
$PLINEWID
 40
0.0
  9
$COORDS
 70
     1
  9
$SPLFRAME
 70
     0
  9
$SPLINETYPE
 70
     6
  9
$SPLINESEGS
 70
     8
  9
$ATTDIA
 70
     0
  9
$ATTREQ
 70
     1
  9
$HANDLING
 70
     1
  9
$HANDSEED
  5
10A
  9
$SURFTAB1
 70
     6
  9
$SURFTAB2
 70
     6
  9
$SURFTYPE
 70
     6
  9
$SURFU
 70
     6
  9
$SURFV
 70
     6
  9
$UCSNAME
  2

  9
$UCSORG
 10
0.0
 20
0.0
 30
0.0
  9
$UCSXDIR
 10
1.0
 20
0.0
 30
0.0
  9
$UCSYDIR
 10
0.0
 20
1.0
 30
0.0
  9
$PUCSNAME
  2

  9
$PUCSORG
 10
0.0
 20
0.0
 30
0.0
  9
$PUCSXDIR
 10
1.0
 20
0.0
 30
0.0
  9
$PUCSYDIR
 10
0.0
 20
1.0
 30
0.0
  9
$USERI1
 70
     0
  9
$USERI2
 70
     0
  9
$USERI3
 70
     0
  9
$USERI4
 70
     0
  9
$USERI5
 70
     0
  9
$USERR1
 40
0.0
  9
$USERR2
 40
0.0
  9
$USERR3
 40
0.0
  9
$USERR4
 40
0.0
  9
$USERR5
 40
0.0
  9
$WORLDVIEW
 70
     1
  9
$SHADEDGE
 70
     3
  9
$SHADEDIF
 70
    70
  9
$TILEMODE
 70
     1
  9
$MAXACTVP
 70
    64
  9
$PINSBASE
 10
0.0
 20
0.0
 30
0.0
  9
$PLIMCHECK
 70
     0
  9
$PEXTMIN
 10
1.000000000000000E+20
 20
1.000000000000000E+20
 30
1.000000000000000E+20
  9
$PEXTMAX
 10
-1.000000000000000E+20
 20
-1.000000000000000E+20
 30
-1.000000000000000E+20
  9
$PLIMMIN
 10
0.0
 20
0.0
  9
$PLIMMAX
 10
12.0
 20
9.0
  9
$UNITMODE
 70
     0
  9
$VISRETAIN
 70
     1
  9
$PLINEGEN
 70
     0
  9
$PSLTSCALE
 70
     1
  9
$TREEDEPTH
 70
  3020
  9
$PICKSTYLE
 70
     1
  9
$CMLSTYLE
  2
STANDARD
  9
$CMLJUST
 70
     0
  9
$CMLSCALE
 40
1.0
  9
$SAVEIMAGES
 70
     1
  0
ENDSEC
  0
SECTION
  2
CLASSES
  0
CLASS
  1
ACDBDICTIONARYWDFLT
  2
AcDbDictionaryWithDefault
  3
ObjectDBX Classes
 90
    32768
280
     0
281
     0
  0
CLASS
  1
VISUALSTYLE
  2
AcDbVisualStyle
  3
ObjectDBX Classes
 90
     4095
280
     0
281
     0
  0
CLASS
  1
XRECORD
  2
AcDbXrecord
  3
AutoCAD 2000
 90
    32768
280
     0
281
     0
  0
CLASS
  1
LWPOLYLINE
  2
AcDbPolyline
  3
AutoCAD 2000
 90
    32768
280
     0
281
     1
  0
CLASS
  1
HATCH
  2
AcDbHatch
  3
AutoCAD 2000
 90
    32768
280
     0
281
     1
  0
CLASS
  1
ACDBPLACEHOLDER
  2
AcDbPlaceHolder
  3
ObjectDBX Classes
 90
        0
280
     0
281
     0
  0
CLASS
  1
LAYOUT
  2
AcDbLayout
  3
ObjectDBX Classes
 90
        0
280
     0
281
     0
  0
ENDSEC
  0
SECTION
  2
TABLES
  0
TABLE
  2
VPORT
  5
8
330
0
100
AcDbSymbolTable
 70
     1
  0
VPORT
  5
29
330
8
100
AcDbSymbolTableRecord
100
AcDbViewportTableRecord
  2
*ACTIVE
 70
     0
 10
0.0
 20
0.0
 11
1.0
 21
1.0
 12
0.0
 22
0.0
 13
0.0
 23
0.0
 14
0.5
 24
0.5
 15
0.5
 25
0.5
 16
0.0
 26
0.0
 36
1.0
 17
107.9499999730125
 27
158.9263888491573
 37
0.0
 40
165.4527777364146
 41
1.356076759061834
 42
50.0
 43
0.0
 44
0.0
 50
0.0
 51
0.0
 71
     0
 72
   100
 73
     1
 74
     3
 75
     0
 76
     0
 77
     0
 78
     0
  0
ENDTAB
  0
TABLE
  2
LTYPE
  5
5
330
0
100
AcDbSymbolTable
 70
     1
  0
LTYPE
  5
14
330
5
100
AcDbSymbolTableRecord
100
AcDbLinetypeTableRecord
  2
BYBLOCK
 70
     0
  3

 72
    65
 73
     0
 40
0.0
  0
LTYPE
  5
15
330
5
100
AcDbSymbolTableRecord
100
AcDbLinetypeTableRecord
  2
BYLAYER
 70
     0
  3

 72
    65
 73
     0
 40
0.0
  0
LTYPE
  5
16
330
5
100
AcDbSymbolTableRecord
100
AcDbLinetypeTableRecord
  2
CONTINUOUS
 70
     0
  3
Solid line
 72
    65
 73
     0
 40
0.0
  0
ENDTAB
  0
TABLE
  2
LAYER
  5
2
330
0
100
AcDbSymbolTable
 70
     2
  0
LAYER
  5
10
330
2
100
AcDbSymbolTableRecord
100
AcDbLayerTableRecord
  2
0
 70
     0
 62
     7
  6
CONTINUOUS
  0
LAYER
  5
59
330
2
100
AcDbSymbolTableRecord
100
AcDbLayerTableRecord
  2
02___PRT_ALL_AXES
 70
     0
 62
     7
  6
CONTINUOUS
  0
ENDTAB
  0
TABLE
  2
STYLE
  5
3
330
0
100
AcDbSymbolTable
 70
     1
  0
STYLE
  5
11
330
3
100
AcDbSymbolTableRecord
100
AcDbTextStyleTableRecord
  2
STANDARD
 70
     0
 40
0.0
 41
1.0
 50
0.0
 71
     0
 42
0.2
  3
txt
  4

  0
ENDTAB
  0
TABLE
  2
VIEW
  5
6
330
0
100
AcDbSymbolTable
 70
     0
  0
ENDTAB
  0
TABLE
  2
UCS
  5
7
330
0
100
AcDbSymbolTable
 70
     0
  0
ENDTAB
  0
TABLE
  2
APPID
  5
9
330
0
100
AcDbSymbolTable
 70
     1
  0
APPID
  5
12
330
9
100
AcDbSymbolTableRecord
100
AcDbRegAppTableRecord
  2
ACAD
 70
     0
  0
ENDTAB
  0
TABLE
  2
DIMSTYLE
  5
A
330
0
100
AcDbSymbolTable
 70
     1
  0
DIMSTYLE
105
27
330
A
100
AcDbSymbolTableRecord
100
AcDbDimStyleTableRecord
  2
STANDARD
 70
     0
  3

  4

  5

  6

  7

 40
1.0
 41
0.18
 42
0.0625
 43
0.38
 44
0.18
 45
0.0
 46
0.0
 47
0.0
 48
0.0
140
0.18
141
0.09
142
0.0
143
25.4
144
1.0
145
0.0
146
1.0
147
0.09
 71
     0
 72
     0
 73
     1
 74
     1
 75
     0
 76
     0
 77
     0
 78
     0
170
     0
171
     2
172
     0
173
     0
174
     0
175
     0
176
     0
177
     0
178
     0
270
     2
271
     4
272
     4
273
     2
274
     2
340
11
275
     0
280
     0
281
     0
282
     0
283
     1
284
     0
285
     0
286
     0
287
     3
288
     0
  0
ENDTAB
  0
TABLE
  2
BLOCK_RECORD
  5
1
330
0
100
AcDbSymbolTable
 70
    22
  0
BLOCK_RECORD
  5
1F
330
1
100
AcDbSymbolTableRecord
100
AcDbBlockTableRecord
  2
*MODEL_SPACE
  0
BLOCK_RECORD
  5
1B
330
1
100
AcDbSymbolTableRecord
100
AcDbBlockTableRecord
  2
*PAPER_SPACE
  0
BLOCK_RECORD
  5
3B
330
1
100
AcDbSymbolTableRecord
100
AcDbBlockTableRecord
  2
BLOCK_2
  0
BLOCK_RECORD
  5
40
330
1
100
AcDbSymbolTableRecord
100
AcDbBlockTableRecord
  2
BLOCK_3
  0
BLOCK_RECORD
  5
45
330
1
100
AcDbSymbolTableRecord
100
AcDbBlockTableRecord
  2
BLOCK_4
  0
BLOCK_RECORD
  5
4A
330
1
100
AcDbSymbolTableRecord
100
AcDbBlockTableRecord
  2
BLOCK_5
  0
BLOCK_RECORD
  5
4F
330
1
100
AcDbSymbolTableRecord
100
AcDbBlockTableRecord
  2
BLOCK_6
  0
BLOCK_RECORD
  5
54
330
1
100
AcDbSymbolTableRecord
100
AcDbBlockTableRecord
  2
BLOCK_7
  0
BLOCK_RECORD
  5
5A
330
1
100
AcDbSymbolTableRecord
100
AcDbBlockTableRecord
  2
BLOCK_8
  0
BLOCK_RECORD
  5
C7
330
1
100
AcDbSymbolTableRecord
100
AcDbBlockTableRecord
  2
*U8
  0
BLOCK_RECORD
  5
CB
330
1
100
AcDbSymbolTableRecord
100
AcDbBlockTableRecord
  2
*U9
  0
BLOCK_RECORD
  5
D0
330
1
100
AcDbSymbolTableRecord
100
AcDbBlockTableRecord
  2
*U10
  0
BLOCK_RECORD
  5
D4
330
1
100
AcDbSymbolTableRecord
100
AcDbBlockTableRecord
  2
*U11
  0
BLOCK_RECORD
  5
D8
330
1
100
AcDbSymbolTableRecord
100
AcDbBlockTableRecord
  2
*U12
  0
BLOCK_RECORD
  5
DC
330
1
100
AcDbSymbolTableRecord
100
AcDbBlockTableRecord
  2
*U13
  0
BLOCK_RECORD
  5
E2
330
1
100
AcDbSymbolTableRecord
100
AcDbBlockTableRecord
  2
*U14
  0
BLOCK_RECORD
  5
E8
330
1
100
AcDbSymbolTableRecord
100
AcDbBlockTableRecord
  2
*U15
  0
BLOCK_RECORD
  5
EE
330
1
100
AcDbSymbolTableRecord
100
AcDbBlockTableRecord
  2
*U16
  0
BLOCK_RECORD
  5
F2
330
1
100
AcDbSymbolTableRecord
100
AcDbBlockTableRecord
  2
*U17
  0
BLOCK_RECORD
  5
F8
330
1
100
AcDbSymbolTableRecord
100
AcDbBlockTableRecord
  2
*U18
  0
BLOCK_RECORD
  5
FD
330
1
100
AcDbSymbolTableRecord
100
AcDbBlockTableRecord
  2
*U19
  0
BLOCK_RECORD
  5
102
330
1
100
AcDbSymbolTableRecord
100
AcDbBlockTableRecord
  2
*U20
  0
BLOCK_RECORD
  5
106
330
1
100
AcDbSymbolTableRecord
100
AcDbBlockTableRecord
  2
*U21
  0
ENDTAB
  0
ENDSEC
  0
SECTION
  2
BLOCKS
  0
BLOCK
  5
20
330
1F
100
AcDbEntity
  8
0
100
AcDbBlockBegin
  2
*MODEL_SPACE
 70
     0
 71
     0
 10
0.0
 20
0.0
 30
0.0
  3
*MODEL_SPACE
  1

  0
ENDBLK
  5
21
330
1F
100
AcDbEntity
  8
0
100
AcDbBlockEnd
  0
BLOCK
  5
1C
330
1B
100
AcDbEntity
 67
     1
  8
0
100
AcDbBlockBegin
  2
*PAPER_SPACE
 70
     0
 71
     0
 10
0.0
 20
0.0
 30
0.0
  3
*PAPER_SPACE
  1

  0
ENDBLK
  5
1D
330
1B
100
AcDbEntity
 67
     1
  8
0
100
AcDbBlockEnd
  0
BLOCK
  5
3D
330
3B
100
AcDbEntity
  8
0
100
AcDbBlockBegin
  2
BLOCK_2
 70
     0
 71
     0
 10
0.0
 20
0.0
 30
0.0
  3
BLOCK_2
  1

  0
MTEXT
  5
3F
330
3B
100
AcDbEntity
  8
0
 62
     7
100
AcDbMText
 10
178.985801821573
 20
94.27710501115295
 30
0.0
 40
4.256310127465789
 41
0.0
 71
     7
 72
     1
  1
\fMyriad Pro|b0|i0|c0|p34;\W0.8;500
  0
ENDBLK
  5
3E
330
3B
100
AcDbEntity
  8
0
100
AcDbBlockEnd
  0
BLOCK
  5
42
330
40
100
AcDbEntity
  8
0
100
AcDbBlockBegin
  2
BLOCK_3
 70
     0
 71
     0
 10
0.0
 20
0.0
 30
0.0
  3
BLOCK_3
  1

  0
MTEXT
  5
44
330
40
100
AcDbEntity
  8
0
 62
     7
100
AcDbMText
 10
4.2388454850514
 20
163.4360188393493
 30
0.0
 40
4.256310127465789
 41
0.0
 71
     7
 72
     1
  1
\fMyriad Pro|b0|i0|c0|p34;\W0.8;1200
 11
-4.371139000186241E-8
 21
0.999999999999999
 31
0.0
  0
ENDBLK
  5
43
330
40
100
AcDbEntity
  8
0
100
AcDbBlockEnd
  0
BLOCK
  5
47
330
45
100
AcDbEntity
  8
0
100
AcDbBlockBegin
  2
BLOCK_4
 70
     0
 71
     0
 10
0.0
 20
0.0
 30
0.0
  3
BLOCK_4
  1

  0
MTEXT
  5
49
330
45
100
AcDbEntity
  8
0
 62
     7
100
AcDbMText
 10
4.178384059285265
 20
98.91627059159038
 30
0.0
 40
4.256310127465789
 41
0.0
 71
     7
 72
     1
  1
\fMyriad Pro|b0|i0|c0|p34;\W0.8;50
  0
ENDBLK
  5
48
330
45
100
AcDbEntity
  8
0
100
AcDbBlockEnd
  0
BLOCK
  5
4C
330
4A
100
AcDbEntity
  8
0
100
AcDbBlockBegin
  2
BLOCK_5
 70
     0
 71
     0
 10
0.0
 20
0.0
 30
0.0
  3
BLOCK_5
  1

  0
MTEXT
  5
4E
330
4A
100
AcDbEntity
  8
0
 62
     7
100
AcDbMText
 10
53.37176376703901
 20
99.0227240420846
 30
0.0
 40
4.256310127465789
 41
0.0
 71
     7
 72
     1
  1
\fMyriad Pro|b0|i0|c0|p34;\W0.8;700
  0
ENDBLK
  5
4D
330
4A
100
AcDbEntity
  8
0
100
AcDbBlockEnd
  0
BLOCK
  5
51
330
4F
100
AcDbEntity
  8
0
100
AcDbBlockBegin
  2
BLOCK_6
 70
     0
 71
     0
 10
0.0
 20
0.0
 30
0.0
  3
BLOCK_6
  1

  0
MTEXT
  5
53
330
4F
100
AcDbEntity
  8
0
 62
     7
100
AcDbMText
 10
107.5865423993186
 20
98.91627059159038
 30
0.0
 40
4.256310127465789
 41
0.0
 71
     7
 72
     1
  1
\fMyriad Pro|b0|i0|c0|p34;\W0.8;50
  0
ENDBLK
  5
52
330
4F
100
AcDbEntity
  8
0
100
AcDbBlockEnd
  0
BLOCK
  5
56
330
54
100
AcDbEntity
  8
0
100
AcDbBlockBegin
  2
BLOCK_7
 70
     0
 71
     0
 10
0.0
 20
0.0
 30
0.0
  3
BLOCK_7
  1

  0
MTEXT
  5
58
330
54
100
AcDbEntity
  8
0
 62
     7
100
AcDbMText
 10
54.26111516655625
 20
86.05193954011897
 30
0.0
 40
4.256310127465789
 41
0.0
 71
     7
 72
     1
  1
\fMyriad Pro|b0|i0|c0|p34;\W0.8;800
  0
ENDBLK
  5
57
330
54
100
AcDbEntity
  8
0
100
AcDbBlockEnd
  0
BLOCK
  5
5C
330
5A
100
AcDbEntity
  8
0
100
AcDbBlockBegin
  2
BLOCK_8
 70
     0
 71
     0
 10
0.0
 20
0.0
 30
0.0
  3
BLOCK_8
  1

  0
POLYLINE
  5
5E
330
5A
100
AcDbEntity
  8
02___PRT_ALL_AXES
100
AcDb2dPolyline
 66
     1
 10
0.0
 20
0.0
 30
0.0
  0
VERTEX
  5
5F
330
5E
100
AcDbEntity
  8
02___PRT_ALL_AXES
100
AcDbVertex
100
AcDb2dVertex
 10
165.5664658874278
 20
157.859787286924
 30
0.0
  0
VERTEX
  5
60
330
5E
100
AcDbEntity
  8
02___PRT_ALL_AXES
100
AcDbVertex
100
AcDb2dVertex
 10
178.985801821573
 20
163.4360188393493
 30
0.0
  0
VERTEX
  5
61
330
5E
100
AcDbEntity
  8
02___PRT_ALL_AXES
100
AcDbVertex
100
AcDb2dVertex
 10
165.5664658874278
 20
169.0122503917747
 30
0.0
  0
VERTEX
  5
62
330
5E
100
AcDbEntity
  8
02___PRT_ALL_AXES
100
AcDbVertex
100
AcDb2dVertex
 10
165.5664658874278
 20
157.859787286924
 30
0.0
  0
SEQEND
  5
63
330
5E
100
AcDbEntity
  8
02___PRT_ALL_AXES
  0
INSERT
  5
64
330
5A
100
AcDbEntity
  8
02___PRT_ALL_AXES
 62
    14
100
AcDbBlockReference
  2
*U8
 10
0.0
 20
0.0
 30
0.0
1001
ACAD
1002
{
1000
R14_HATCH_DATA
1000
64
1011
1.0
1021
0.0
1031
0.0
1011
0.0
1021
1.0
1031
0.0
1011
0.0
1021
0.0
1031
1.0
1040
0.0
1010
0.0
1020
0.0
1030
1.0
1000
SOLID
1070
     1
1070
     1
1071
        1
1071
        1
1071
        3
1070
     1
1040
165.5664658874278
1040
157.859787286924
1040
178.985801821573
1040
163.4360188393493
1070
     1
1040
178.985801821573
1040
163.4360188393493
1040
165.5664658874278
1040
169.0122503917747
1070
     1
1040
165.5664658874278
1040
169.0122503917747
1040
165.5664658874278
1040
157.859787286924
1071
        0
1070
     2
1070
     1
1071
        0
1002
}
  0
POLYLINE
  5
65
330
5A
100
AcDbEntity
  8
02___PRT_ALL_AXES
100
AcDb2dPolyline
 66
     1
 10
0.0
 20
0.0
 30
0.0
  0
VERTEX
  5
66
330
65
100
AcDbEntity
  8
02___PRT_ALL_AXES
100
AcDbVertex
100
AcDb2dVertex
 10
22.88783636580582
 20
100.7190890590216
 30
0.0
  0
VERTEX
  5
67
330
65
100
AcDbEntity
  8
02___PRT_ALL_AXES
100
AcDbVertex
100
AcDb2dVertex
 10
34.04029947065659
 20
100.7190890590216
 30
0.0
  0
VERTEX
  5
68
330
65
100
AcDbEntity
  8
02___PRT_ALL_AXES
100
AcDbVertex
100
AcDb2dVertex
 10
28.4640679182312
 20
114.1380804836183
 30
0.0
  0
VERTEX
  5
69
330
65
100
AcDbEntity
  8
02___PRT_ALL_AXES
100
AcDbVertex
100
AcDb2dVertex
 10
22.88783636580582
 20
100.7190890590216
 30
0.0
  0
SEQEND
  5
6A
330
65
100
AcDbEntity
  8
02___PRT_ALL_AXES
  0
INSERT
  5
6B
330
5A
100
AcDbEntity
  8
02___PRT_ALL_AXES
 62
    14
100
AcDbBlockReference
  2
*U9
 10
0.0
 20
0.0
 30
0.0
1001
ACAD
1002
{
1000
R14_HATCH_DATA
1000
6B
1011
1.0
1021
0.0
1031
0.0
1011
0.0
1021
1.0
1031
0.0
1011
0.0
1021
0.0
1031
1.0
1040
0.0
1010
0.0
1020
0.0
1030
1.0
1000
SOLID
1070
     1
1070
     1
1071
        1
1071
        1
1071
        3
1070
     1
1040
22.88783636580582
1040
100.7190890590216
1040
34.04029947065659
1040
100.7190890590216
1070
     1
1040
34.04029947065659
1040
100.7190890590216
1040
28.4640679182312
1040
114.1380804836183
1070
     1
1040
28.4640679182312
1040
114.1380804836183
1040
22.88783636580582
1040
100.7190890590216
1071
        0
1070
     2
1070
     1
1071
        0
1002
}
  0
POLYLINE
  5
6C
330
5A
100
AcDbEntity
  8
02___PRT_ALL_AXES
100
AcDb2dPolyline
 66
     1
 10
0.0
 20
0.0
 30
0.0
  0
VERTEX
  5
6D
330
6C
100
AcDbEntity
  8
02___PRT_ALL_AXES
100
AcDbVertex
100
AcDb2dVertex
 10
99.56033119255784
 20
83.39163680640904
 30
0.0
  0
VERTEX
  5
6E
330
6C
100
AcDbEntity
  8
02___PRT_ALL_AXES
100
AcDbVertex
100
AcDb2dVertex
 10
101.6885389285709
 20
83.92390405888014
 30
0.0
  0
VERTEX
  5
6F
330
6C
100
AcDbEntity
  8
02___PRT_ALL_AXES
100
AcDbVertex
100
AcDb2dVertex
 10
99.56033119255784
 20
84.45582680180271
 30
0.0
  0
VERTEX
  5
70
330
6C
100
AcDbEntity
  8
02___PRT_ALL_AXES
100
AcDbVertex
100
AcDb2dVertex
 10
99.56033119255784
 20
83.39163680640904
 30
0.0
  0
SEQEND
  5
71
330
6C
100
AcDbEntity
  8
02___PRT_ALL_AXES
  0
INSERT
  5
72
330
5A
100
AcDbEntity
  8
02___PRT_ALL_AXES
 62
     7
100
AcDbBlockReference
  2
*U10
 10
0.0
 20
0.0
 30
0.0
1001
ACAD
1002
{
1000
R14_HATCH_DATA
1000
72
1011
1.0
1021
0.0
1031
0.0
1011
0.0
1021
1.0
1031
0.0
1011
0.0
1021
0.0
1031
1.0
1040
0.0
1010
0.0
1020
0.0
1030
1.0
1000
SOLID
1070
     1
1070
     1
1071
        1
1071
        1
1071
        3
1070
     1
1040
99.56033119255784
1040
83.39163680640904
1040
101.6885389285709
1040
83.92390405888014
1070
     1
1040
101.6885389285709
1040
83.92390405888014
1040
99.56033119255784
1040
84.45582680180271
1070
     1
1040
99.56033119255784
1040
84.45582680180271
1040
99.56033119255784
1040
83.39163680640904
1071
        0
1070
     2
1070
     1
1071
        0
1002
}
  0
POLYLINE
  5
73
330
5A
100
AcDbEntity
  8
02___PRT_ALL_AXES
100
AcDb2dPolyline
 66
     1
 10
0.0
 20
0.0
 30
0.0
  0
VERTEX
  5
74
330
73
100
AcDbEntity
  8
02___PRT_ALL_AXES
100
AcDbVertex
100
AcDb2dVertex
 10
18.69050428135168
 20
83.39163680640904
 30
0.0
  0
VERTEX
  5
75
330
73
100
AcDbEntity
  8
02___PRT_ALL_AXES
100
AcDbVertex
100
AcDb2dVertex
 10
18.69050428135168
 20
84.45582680180271
 30
0.0
  0
VERTEX
  5
76
330
73
100
AcDbEntity
  8
02___PRT_ALL_AXES
100
AcDbVertex
100
AcDb2dVertex
 10
16.56229654533859
 20
83.92390405888014
 30
0.0
  0
VERTEX
  5
77
330
73
100
AcDbEntity
  8
02___PRT_ALL_AXES
100
AcDbVertex
100
AcDb2dVertex
 10
18.69050428135168
 20
83.39163680640904
 30
0.0
  0
SEQEND
  5
78
330
73
100
AcDbEntity
  8
02___PRT_ALL_AXES
  0
INSERT
  5
79
330
5A
100
AcDbEntity
  8
02___PRT_ALL_AXES
 62
     7
100
AcDbBlockReference
  2
*U11
 10
0.0
 20
0.0
 30
0.0
1001
ACAD
1002
{
1000
R14_HATCH_DATA
1000
79
1011
1.0
1021
0.0
1031
0.0
1011
0.0
1021
1.0
1031
0.0
1011
0.0
1021
0.0
1031
1.0
1040
0.0
1010
0.0
1020
0.0
1030
1.0
1000
SOLID
1070
     1
1070
     1
1071
        1
1071
        1
1071
        3
1070
     1
1040
18.69050428135168
1040
83.39163680640904
1040
18.69050428135168
1040
84.45582680180271
1070
     1
1040
18.69050428135168
1040
84.45582680180271
1040
16.56229654533859
1040
83.92390405888014
1070
     1
1040
16.56229654533859
1040
83.92390405888014
1040
18.69050428135168
1040
83.39163680640904
1071
        0
1070
     2
1070
     1
1071
        0
1002
}
  0
POLYLINE
  5
7A
330
5A
100
AcDbEntity
  8
02___PRT_ALL_AXES
100
AcDb2dPolyline
 66
     1
 10
0.0
 20
0.0
 30
0.0
  0
VERTEX
  5
7B
330
7A
100
AcDbEntity
  8
02___PRT_ALL_AXES
100
AcDbVertex
100
AcDb2dVertex
 10
103.8165744098097
 20
96.25596785788046
 30
0.0
  0
VERTEX
  5
7C
330
7A
100
AcDbEntity
  8
02___PRT_ALL_AXES
100
AcDbVertex
100
AcDb2dVertex
 10
103.8165744098097
 20
97.32015785327413
 30
0.0
  0
VERTEX
  5
7D
330
7A
100
AcDbEntity
  8
02___PRT_ALL_AXES
100
AcDbVertex
100
AcDb2dVertex
 10
101.6885389285709
 20
96.78823511035155
 30
0.0
  0
VERTEX
  5
7E
330
7A
100
AcDbEntity
  8
02___PRT_ALL_AXES
100
AcDbVertex
100
AcDb2dVertex
 10
103.8165744098097
 20
96.25596785788046
 30
0.0
  0
SEQEND
  5
7F
330
7A
100
AcDbEntity
  8
02___PRT_ALL_AXES
  0
INSERT
  5
80
330
5A
100
AcDbEntity
  8
02___PRT_ALL_AXES
 62
     7
100
AcDbBlockReference
  2
*U12
 10
0.0
 20
0.0
 30
0.0
1001
ACAD
1002
{
1000
R14_HATCH_DATA
1000
80
1011
1.0
1021
0.0
1031
0.0
1011
0.0
1021
1.0
1031
0.0
1011
0.0
1021
0.0
1031
1.0
1040
0.0
1010
0.0
1020
0.0
1030
1.0
1000
SOLID
1070
     1
1070
     1
1071
        1
1071
        1
1071
        3
1070
     1
1040
103.8165744098097
1040
96.25596785788046
1040
103.8165744098097
1040
97.32015785327413
1070
     1
1040
103.8165744098097
1040
97.32015785327413
1040
101.6885389285709
1040
96.78823511035155
1070
     1
1040
101.6885389285709
1040
96.78823511035155
1040
103.8165744098097
1040
96.25596785788046
1071
        0
1070
     2
1070
     1
1071
        0
1002
}
  0
POLYLINE
  5
81
330
5A
100
AcDbEntity
  8
02___PRT_ALL_AXES
100
AcDb2dPolyline
 66
     1
 10
0.0
 20
0.0
 30
0.0
  0
VERTEX
  5
82
330
81
100
AcDbEntity
  8
02___PRT_ALL_AXES
100
AcDbVertex
100
AcDb2dVertex
 10
94.23989797991226
 20
96.25596785788046
 30
0.0
  0
VERTEX
  5
83
330
81
100
AcDbEntity
  8
02___PRT_ALL_AXES
100
AcDbVertex
100
AcDb2dVertex
 10
96.36810571592534
 20
96.78823511035155
 30
0.0
  0
VERTEX
  5
84
330
81
100
AcDbEntity
  8
02___PRT_ALL_AXES
100
AcDbVertex
100
AcDb2dVertex
 10
96.1551988149369
 20
96.84128958082441
 30
0.0
  0
VERTEX
  5
85
330
81
100
AcDbEntity
  8
02___PRT_ALL_AXES
100
AcDbVertex
100
AcDb2dVertex
 10
94.23989797991226
 20
96.36242130837468
 30
0.0
  0
VERTEX
  5
86
330
81
100
AcDbEntity
  8
02___PRT_ALL_AXES
100
AcDbVertex
100
AcDb2dVertex
 10
94.23989797991226
 20
96.25596785788046
 30
0.0
  0
SEQEND
  5
87
330
81
100
AcDbEntity
  8
02___PRT_ALL_AXES
  0
INSERT
  5
88
330
5A
100
AcDbEntity
  8
02___PRT_ALL_AXES
 62
     7
100
AcDbBlockReference
  2
*U13
 10
0.0
 20
0.0
 30
0.0
1001
ACAD
1002
{
1000
R14_HATCH_DATA
1000
88
1011
1.0
1021
0.0
1031
0.0
1011
0.0
1021
1.0
1031
0.0
1011
0.0
1021
0.0
1031
1.0
1040
0.0
1010
0.0
1020
0.0
1030
1.0
1000
SOLID
1070
     1
1070
     1
1071
        1
1071
        1
1071
        4
1070
     1
1040
94.23989797991226
1040
96.25596785788046
1040
96.36810571592534
1040
96.78823511035155
1070
     1
1040
96.36810571592534
1040
96.78823511035155
1040
96.1551988149369
1040
96.84128958082441
1070
     1
1040
96.1551988149369
1040
96.84128958082441
1040
94.23989797991226
1040
96.36242130837468
1070
     1
1040
94.23989797991226
1040
96.36242130837468
1040
94.23989797991226
1040
96.25596785788046
1071
        0
1070
     2
1070
     1
1071
        0
1002
}
  0
POLYLINE
  5
89
330
5A
100
AcDbEntity
  8
02___PRT_ALL_AXES
100
AcDb2dPolyline
 66
     1
 10
0.0
 20
0.0
 30
0.0
  0
VERTEX
  5
8A
330
89
100
AcDbEntity
  8
02___PRT_ALL_AXES
100
AcDbVertex
100
AcDb2dVertex
 10
94.23989797991226
 20
97.42661130376835
 30
0.0
  0
VERTEX
  5
8B
330
89
100
AcDbEntity
  8
02___PRT_ALL_AXES
100
AcDbVertex
100
AcDb2dVertex
 10
94.23989797991226
 20
97.32015785327413
 30
0.0
  0
VERTEX
  5
8C
330
89
100
AcDbEntity
  8
02___PRT_ALL_AXES
100
AcDbVertex
100
AcDb2dVertex
 10
94.23989797991226
 20
96.36242130837468
 30
0.0
  0
VERTEX
  5
8D
330
89
100
AcDbEntity
  8
02___PRT_ALL_AXES
100
AcDbVertex
100
AcDb2dVertex
 10
96.1551988149369
 20
96.84128958082441
 30
0.0
  0
VERTEX
  5
8E
330
89
100
AcDbEntity
  8
02___PRT_ALL_AXES
100
AcDbVertex
100
AcDb2dVertex
 10
96.36810571592534
 20
96.89468856084578
 30
0.0
  0
VERTEX
  5
8F
330
89
100
AcDbEntity
  8
02___PRT_ALL_AXES
100
AcDbVertex
100
AcDb2dVertex
 10
94.23989797991226
 20
97.42661130376835
 30
0.0
  0
SEQEND
  5
90
330
89
100
AcDbEntity
  8
02___PRT_ALL_AXES
  0
INSERT
  5
91
330
5A
100
AcDbEntity
  8
02___PRT_ALL_AXES
 62
     7
100
AcDbBlockReference
  2
*U14
 10
0.0
 20
0.0
 30
0.0
1001
ACAD
1002
{
1000
R14_HATCH_DATA
1000
91
1011
1.0
1021
0.0
1031
0.0
1011
0.0
1021
1.0
1031
0.0
1011
0.0
1021
0.0
1031
1.0
1040
0.0
1010
0.0
1020
0.0
1030
1.0
1000
SOLID
1070
     1
1070
     1
1071
        1
1071
        1
1071
        5
1070
     1
1040
94.23989797991226
1040
97.42661130376835
1040
94.23989797991226
1040
97.32015785327413
1070
     1
1040
94.23989797991226
1040
97.32015785327413
1040
94.23989797991226
1040
96.36242130837468
1070
     1
1040
94.23989797991226
1040
96.36242130837468
1040
96.1551988149369
1040
96.84128958082441
1070
     1
1040
96.1551988149369
1040
96.84128958082441
1040
96.36810571592534
1040
96.89468856084578
1070
     1
1040
96.36810571592534
1040
96.89468856084578
1040
94.23989797991226
1040
97.42661130376835
1071
        0
1070
     2
1070
     1
1071
        0
1002
}
  0
POLYLINE
  5
92
330
5A
100
AcDbEntity
  8
02___PRT_ALL_AXES
100
AcDb2dPolyline
 66
     1
 10
0.0
 20
0.0
 30
0.0
  0
VERTEX
  5
93
330
92
100
AcDbEntity
  8
02___PRT_ALL_AXES
100
AcDbVertex
100
AcDb2dVertex
 10
22.09563665897262
 20
96.84128958082441
 30
0.0
  0
VERTEX
  5
94
330
92
100
AcDbEntity
  8
02___PRT_ALL_AXES
100
AcDbVertex
100
AcDb2dVertex
 10
24.01076523922301
 20
97.32015785327413
 30
0.0
  0
VERTEX
  5
95
330
92
100
AcDbEntity
  8
02___PRT_ALL_AXES
100
AcDbVertex
100
AcDb2dVertex
 10
24.01076523922301
 20
97.42661130376835
 30
0.0
  0
VERTEX
  5
96
330
92
100
AcDbEntity
  8
02___PRT_ALL_AXES
100
AcDbVertex
100
AcDb2dVertex
 10
21.88272975798418
 20
96.89468856084578
 30
0.0
  0
VERTEX
  5
97
330
92
100
AcDbEntity
  8
02___PRT_ALL_AXES
100
AcDbVertex
100
AcDb2dVertex
 10
22.09563665897262
 20
96.84128958082441
 30
0.0
  0
SEQEND
  5
98
330
92
100
AcDbEntity
  8
02___PRT_ALL_AXES
  0
INSERT
  5
99
330
5A
100
AcDbEntity
  8
02___PRT_ALL_AXES
 62
     7
100
AcDbBlockReference
  2
*U15
 10
0.0
 20
0.0
 30
0.0
1001
ACAD
1002
{
1000
R14_HATCH_DATA
1000
99
1011
1.0
1021
0.0
1031
0.0
1011
0.0
1021
1.0
1031
0.0
1011
0.0
1021
0.0
1031
1.0
1040
0.0
1010
0.0
1020
0.0
1030
1.0
1000
SOLID
1070
     1
1070
     1
1071
        1
1071
        1
1071
        4
1070
     1
1040
22.09563665897262
1040
96.84128958082441
1040
24.01076523922301
1040
97.32015785327413
1070
     1
1040
24.01076523922301
1040
97.32015785327413
1040
24.01076523922301
1040
97.42661130376835
1070
     1
1040
24.01076523922301
1040
97.42661130376835
1040
21.88272975798418
1040
96.89468856084578
1070
     1
1040
21.88272975798418
1040
96.89468856084578
1040
22.09563665897262
1040
96.84128958082441
1071
        0
1070
     2
1070
     1
1071
        0
1002
}
  0
POLYLINE
  5
9A
330
5A
100
AcDbEntity
  8
02___PRT_ALL_AXES
100
AcDb2dPolyline
 66
     1
 10
0.0
 20
0.0
 30
0.0
  0
VERTEX
  5
9B
330
9A
100
AcDbEntity
  8
02___PRT_ALL_AXES
100
AcDbVertex
100
AcDb2dVertex
 10
14.43408880932551
 20
97.32015785327413
 30
0.0
  0
VERTEX
  5
9C
330
9A
100
AcDbEntity
  8
02___PRT_ALL_AXES
100
AcDbVertex
100
AcDb2dVertex
 10
14.43408880932551
 20
96.25596785788046
 30
0.0
  0
VERTEX
  5
9D
330
9A
100
AcDbEntity
  8
02___PRT_ALL_AXES
100
AcDbVertex
100
AcDb2dVertex
 10
16.56229654533859
 20
96.78823511035155
 30
0.0
  0
VERTEX
  5
9E
330
9A
100
AcDbEntity
  8
02___PRT_ALL_AXES
100
AcDbVertex
100
AcDb2dVertex
 10
14.43408880932551
 20
97.32015785327413
 30
0.0
  0
SEQEND
  5
9F
330
9A
100
AcDbEntity
  8
02___PRT_ALL_AXES
  0
INSERT
  5
A0
330
5A
100
AcDbEntity
  8
02___PRT_ALL_AXES
 62
     7
100
AcDbBlockReference
  2
*U16
 10
0.0
 20
0.0
 30
0.0
1001
ACAD
1002
{
1000
R14_HATCH_DATA
1000
A0
1011
1.0
1021
0.0
1031
0.0
1011
0.0
1021
1.0
1031
0.0
1011
0.0
1021
0.0
1031
1.0
1040
0.0
1010
0.0
1020
0.0
1030
1.0
1000
SOLID
1070
     1
1070
     1
1071
        1
1071
        1
1071
        3
1070
     1
1040
14.43408880932551
1040
97.32015785327413
1040
14.43408880932551
1040
96.25596785788046
1070
     1
1040
14.43408880932551
1040
96.25596785788046
1040
16.56229654533859
1040
96.78823511035155
1070
     1
1040
16.56229654533859
1040
96.78823511035155
1040
14.43408880932551
1040
97.32015785327413
1071
        0
1070
     2
1070
     1
1071
        0
1002
}
  0
POLYLINE
  5
A1
330
5A
100
AcDbEntity
  8
02___PRT_ALL_AXES
100
AcDb2dPolyline
 66
     1
 10
0.0
 20
0.0
 30
0.0
  0
VERTEX
  5
A2
330
A1
100
AcDbEntity
  8
02___PRT_ALL_AXES
100
AcDbVertex
100
AcDb2dVertex
 10
21.88272975798418
 20
96.78823511035155
 30
0.0
  0
VERTEX
  5
A3
330
A1
100
AcDbEntity
  8
02___PRT_ALL_AXES
100
AcDbVertex
100
AcDb2dVertex
 10
24.01076523922301
 20
96.25596785788046
 30
0.0
  0
VERTEX
  5
A4
330
A1
100
AcDbEntity
  8
02___PRT_ALL_AXES
100
AcDbVertex
100
AcDb2dVertex
 10
24.01076523922301
 20
96.36242130837468
 30
0.0
  0
VERTEX
  5
A5
330
A1
100
AcDbEntity
  8
02___PRT_ALL_AXES
100
AcDbVertex
100
AcDb2dVertex
 10
24.01076523922301
 20
97.32015785327413
 30
0.0
  0
VERTEX
  5
A6
330
A1
100
AcDbEntity
  8
02___PRT_ALL_AXES
100
AcDbVertex
100
AcDb2dVertex
 10
22.09563665897262
 20
96.84128958082441
 30
0.0
  0
VERTEX
  5
A7
330
A1
100
AcDbEntity
  8
02___PRT_ALL_AXES
100
AcDbVertex
100
AcDb2dVertex
 10
21.88272975798418
 20
96.78823511035155
 30
0.0
  0
SEQEND
  5
A8
330
A1
100
AcDbEntity
  8
02___PRT_ALL_AXES
  0
INSERT
  5
A9
330
5A
100
AcDbEntity
  8
02___PRT_ALL_AXES
 62
     7
100
AcDbBlockReference
  2
*U17
 10
0.0
 20
0.0
 30
0.0
1001
ACAD
1002
{
1000
R14_HATCH_DATA
1000
A9
1011
1.0
1021
0.0
1031
0.0
1011
0.0
1021
1.0
1031
0.0
1011
0.0
1021
0.0
1031
1.0
1040
0.0
1010
0.0
1020
0.0
1030
1.0
1000
SOLID
1070
     1
1070
     1
1071
        1
1071
        1
1071
        5
1070
     1
1040
21.88272975798418
1040
96.78823511035155
1040
24.01076523922301
1040
96.25596785788046
1070
     1
1040
24.01076523922301
1040
96.25596785788046
1040
24.01076523922301
1040
96.36242130837468
1070
     1
1040
24.01076523922301
1040
96.36242130837468
1040
24.01076523922301
1040
97.32015785327413
1070
     1
1040
24.01076523922301
1040
97.32015785327413
1040
22.09563665897262
1040
96.84128958082441
1070
     1
1040
22.09563665897262
1040
96.84128958082441
1040
21.88272975798418
1040
96.78823511035155
1071
        0
1070
     2
1070
     1
1071
        0
1002
}
  0
POLYLINE
  5
AA
330
5A
100
AcDbEntity
  8
02___PRT_ALL_AXES
100
AcDb2dPolyline
 66
     1
 10
0.0
 20
0.0
 30
0.0
  0
VERTEX
  5
AB
330
AA
100
AcDbEntity
  8
02___PRT_ALL_AXES
100
AcDbVertex
100
AcDb2dVertex
 10
5.835130478141912
 20
230.9419758537229
 30
0.0
  0
VERTEX
  5
AC
330
AA
100
AcDbEntity
  8
02___PRT_ALL_AXES
100
AcDbVertex
100
AcDb2dVertex
 10
6.899148218761324
 20
230.9419758537229
 30
0.0
  0
VERTEX
  5
AD
330
AA
100
AcDbEntity
  8
02___PRT_ALL_AXES
100
AcDbVertex
100
AcDb2dVertex
 10
6.367225475838749
 20
233.0701835897359
 30
0.0
  0
VERTEX
  5
AE
330
AA
100
AcDbEntity
  8
02___PRT_ALL_AXES
100
AcDbVertex
100
AcDb2dVertex
 10
5.835130478141912
 20
230.9419758537229
 30
0.0
  0
SEQEND
  5
AF
330
AA
100
AcDbEntity
  8
02___PRT_ALL_AXES
  0
INSERT
  5
B0
330
5A
100
AcDbEntity
  8
02___PRT_ALL_AXES
 62
     7
100
AcDbBlockReference
  2
*U18
 10
0.0
 20
0.0
 30
0.0
1001
ACAD
1002
{
1000
R14_HATCH_DATA
1000
B0
1011
1.0
1021
0.0
1031
0.0
1011
0.0
1021
1.0
1031
0.0
1011
0.0
1021
0.0
1031
1.0
1040
0.0
1010
0.0
1020
0.0
1030
1.0
1000
SOLID
1070
     1
1070
     1
1071
        1
1071
        1
1071
        3
1070
     1
1040
5.835130478141912
1040
230.9419758537229
1040
6.899148218761324
1040
230.9419758537229
1070
     1
1040
6.899148218761324
1040
230.9419758537229
1040
6.367225475838749
1040
233.0701835897359
1070
     1
1040
6.367225475838749
1040
233.0701835897359
1040
5.835130478141912
1040
230.9419758537229
1071
        0
1070
     2
1070
     1
1071
        0
1002
}
  0
POLYLINE
  5
B1
330
5A
100
AcDbEntity
  8
02___PRT_ALL_AXES
100
AcDb2dPolyline
 66
     1
 10
0.0
 20
0.0
 30
0.0
  0
VERTEX
  5
B2
330
B1
100
AcDbEntity
  8
02___PRT_ALL_AXES
100
AcDbVertex
100
AcDb2dVertex
 10
6.367225475838749
 20
105.3809922696617
 30
0.0
  0
VERTEX
  5
B3
330
B1
100
AcDbEntity
  8
02___PRT_ALL_AXES
100
AcDbVertex
100
AcDb2dVertex
 10
6.899148218761324
 20
107.5090277509005
 30
0.0
  0
VERTEX
  5
B4
330
B1
100
AcDbEntity
  8
02___PRT_ALL_AXES
100
AcDbVertex
100
AcDb2dVertex
 10
5.835130478141912
 20
107.5090277509005
 30
0.0
  0
VERTEX
  5
B5
330
B1
100
AcDbEntity
  8
02___PRT_ALL_AXES
100
AcDbVertex
100
AcDb2dVertex
 10
6.367225475838749
 20
105.3809922696617
 30
0.0
  0
SEQEND
  5
B6
330
B1
100
AcDbEntity
  8
02___PRT_ALL_AXES
  0
INSERT
  5
B7
330
5A
100
AcDbEntity
  8
02___PRT_ALL_AXES
 62
     7
100
AcDbBlockReference
  2
*U19
 10
0.0
 20
0.0
 30
0.0
1001
ACAD
1002
{
1000
R14_HATCH_DATA
1000
B7
1011
1.0
1021
0.0
1031
0.0
1011
0.0
1021
1.0
1031
0.0
1011
0.0
1021
0.0
1031
1.0
1040
0.0
1010
0.0
1020
0.0
1030
1.0
1000
SOLID
1070
     1
1070
     1
1071
        1
1071
        1
1071
        3
1070
     1
1040
6.367225475838749
1040
105.3809922696617
1040
6.899148218761324
1040
107.5090277509005
1070
     1
1040
6.899148218761324
1040
107.5090277509005
1040
5.835130478141912
1040
107.5090277509005
1070
     1
1040
5.835130478141912
1040
107.5090277509005
1040
6.367225475838749
1040
105.3809922696617
1071
        0
1070
     2
1070
     1
1071
        0
1002
}
  0
POLYLINE
  5
B8
330
5A
100
AcDbEntity
  8
02___PRT_ALL_AXES
100
AcDb2dPolyline
 66
     1
 10
0.0
 20
0.0
 30
0.0
  0
VERTEX
  5
B9
330
B8
100
AcDbEntity
  8
02___PRT_ALL_AXES
100
AcDbVertex
100
AcDb2dVertex
 10
207.7919677214895
 20
93.21291501575928
 30
0.0
  0
VERTEX
  5
BA
330
B8
100
AcDbEntity
  8
02___PRT_ALL_AXES
100
AcDbVertex
100
AcDb2dVertex
 10
207.7919677214895
 20
92.1487250203656
 30
0.0
  0
VERTEX
  5
BB
330
B8
100
AcDbEntity
  8
02___PRT_ALL_AXES
100
AcDbVertex
100
AcDb2dVertex
 10
209.9200032027283
 20
92.6809922728367
 30
0.0
  0
VERTEX
  5
BC
330
B8
100
AcDbEntity
  8
02___PRT_ALL_AXES
100
AcDbVertex
100
AcDb2dVertex
 10
207.7919677214895
 20
93.21291501575928
 30
0.0
  0
SEQEND
  5
BD
330
B8
100
AcDbEntity
  8
02___PRT_ALL_AXES
  0
INSERT
  5
BE
330
5A
100
AcDbEntity
  8
02___PRT_ALL_AXES
 62
     7
100
AcDbBlockReference
  2
*U20
 10
0.0
 20
0.0
 30
0.0
1001
ACAD
1002
{
1000
R14_HATCH_DATA
1000
BE
1011
1.0
1021
0.0
1031
0.0
1011
0.0
1021
1.0
1031
0.0
1011
0.0
1021
0.0
1031
1.0
1040
0.0
1010
0.0
1020
0.0
1030
1.0
1000
SOLID
1070
     1
1070
     1
1071
        1
1071
        1
1071
        3
1070
     1
1040
207.7919677214895
1040
93.21291501575928
1040
207.7919677214895
1040
92.1487250203656
1070
     1
1040
207.7919677214895
1040
92.1487250203656
1040
209.9200032027283
1040
92.6809922728367
1070
     1
1040
209.9200032027283
1040
92.6809922728367
1040
207.7919677214895
1040
93.21291501575928
1071
        0
1070
     2
1070
     1
1071
        0
1002
}
  0
POLYLINE
  5
BF
330
5A
100
AcDbEntity
  8
02___PRT_ALL_AXES
100
AcDb2dPolyline
 66
     1
 10
0.0
 20
0.0
 30
0.0
  0
VERTEX
  5
C0
330
BF
100
AcDbEntity
  8
02___PRT_ALL_AXES
100
AcDbVertex
100
AcDb2dVertex
 10
158.8443955766083
 20
92.1487250203656
 30
0.0
  0
VERTEX
  5
C1
330
BF
100
AcDbEntity
  8
02___PRT_ALL_AXES
100
AcDbVertex
100
AcDb2dVertex
 10
158.8443955766083
 20
93.21291501575928
 30
0.0
  0
VERTEX
  5
C2
330
BF
100
AcDbEntity
  8
02___PRT_ALL_AXES
100
AcDbVertex
100
AcDb2dVertex
 10
156.716015585821
 20
92.6809922728367
 30
0.0
  0
VERTEX
  5
C3
330
BF
100
AcDbEntity
  8
02___PRT_ALL_AXES
100
AcDbVertex
100
AcDb2dVertex
 10
158.8443955766083
 20
92.1487250203656
 30
0.0
  0
SEQEND
  5
C4
330
BF
100
AcDbEntity
  8
02___PRT_ALL_AXES
  0
INSERT
  5
C5
330
5A
100
AcDbEntity
  8
02___PRT_ALL_AXES
 62
     7
100
AcDbBlockReference
  2
*U21
 10
0.0
 20
0.0
 30
0.0
1001
ACAD
1002
{
1000
R14_HATCH_DATA
1000
C5
1011
1.0
1021
0.0
1031
0.0
1011
0.0
1021
1.0
1031
0.0
1011
0.0
1021
0.0
1031
1.0
1040
0.0
1010
0.0
1020
0.0
1030
1.0
1000
SOLID
1070
     1
1070
     1
1071
        1
1071
        1
1071
        3
1070
     1
1040
158.8443955766083
1040
92.1487250203656
1040
158.8443955766083
1040
93.21291501575928
1070
     1
1040
158.8443955766083
1040
93.21291501575928
1040
156.716015585821
1040
92.6809922728367
1070
     1
1040
156.716015585821
1040
92.6809922728367
1040
158.8443955766083
1040
92.1487250203656
1071
        0
1070
     2
1070
     1
1071
        0
1002
}
  0
ENDBLK
  5
5D
330
5A
100
AcDbEntity
  8
0
100
AcDbBlockEnd
  0
BLOCK
  5
C9
330
C7
100
AcDbEntity
  8
0
100
AcDbBlockBegin
  2
*U8
 70
     1
 71
     0
 10
0.0
 20
0.0
 30
0.0
  3
*U8
  1

  0
SOLID
  5
C8
330
C7
100
AcDbEntity
  8
02___PRT_ALL_AXES
 62
    14
100
AcDbTrace
 10
165.5664658874278
 20
157.859787286924
 30
0.0
 11
165.5664658874278
 21
169.0122503917747
 31
0.0
 12
178.985801821573
 22
163.4360188393493
 32
0.0
 13
178.985801821573
 23
163.4360188393493
 33
0.0
  0
ENDBLK
  5
CA
330
C7
100
AcDbEntity
  8
0
100
AcDbBlockEnd
  0
BLOCK
  5
CE
330
CB
100
AcDbEntity
  8
0
100
AcDbBlockBegin
  2
*U9
 70
     1
 71
     0
 10
0.0
 20
0.0
 30
0.0
  3
*U9
  1

  0
SOLID
  5
CC
330
CB
100
AcDbEntity
  8
02___PRT_ALL_AXES
 62
    14
100
AcDbTrace
 10
28.4640679182312
 20
100.7190890590216
 30
0.0
 11
22.88783636580582
 21
100.7190890590216
 31
0.0
 12
28.4640679182312
 22
114.1380804836183
 32
0.0
 13
28.4640679182312
 23
114.1380804836183
 33
0.0
  0
SOLID
  5
CD
330
CB
100
AcDbEntity
  8
02___PRT_ALL_AXES
 62
    14
100
AcDbTrace
 10
-28.4640679182312
 20
100.7190890590216
 30
0.0
 11
-28.4640679182312
 21
114.1380804836183
 31
0.0
 12
-34.04029947065659
 22
100.7190890590216
 32
0.0
 13
-34.04029947065659
 23
100.7190890590216
 33
0.0
210
0.0
220
0.0
230
-1.0
  0
ENDBLK
  5
CF
330
CB
100
AcDbEntity
  8
0
100
AcDbBlockEnd
  0
BLOCK
  5
D2
330
D0
100
AcDbEntity
  8
0
100
AcDbBlockBegin
  2
*U10
 70
     1
 71
     0
 10
0.0
 20
0.0
 30
0.0
  3
*U10
  1

  0
SOLID
  5
D1
330
D0
100
AcDbEntity
  8
02___PRT_ALL_AXES
 62
     7
100
AcDbTrace
 10
99.56033119255784
 20
83.39163680640904
 30
0.0
 11
99.56033119255784
 21
84.45582680180271
 31
0.0
 12
101.6885389285709
 22
83.92390405888014
 32
0.0
 13
101.6885389285709
 23
83.92390405888014
 33
0.0
  0
ENDBLK
  5
D3
330
D0
100
AcDbEntity
  8
0
100
AcDbBlockEnd
  0
BLOCK
  5
D6
330
D4
100
AcDbEntity
  8
0
100
AcDbBlockBegin
  2
*U11
 70
     1
 71
     0
 10
0.0
 20
0.0
 30
0.0
  3
*U11
  1

  0
SOLID
  5
D5
330
D4
100
AcDbEntity
  8
02___PRT_ALL_AXES
 62
     7
100
AcDbTrace
 10
18.69050428135168
 20
83.39163680640904
 30
0.0
 11
16.56229654533859
 21
83.92390405888014
 31
0.0
 12
18.69050428135168
 22
84.45582680180271
 32
0.0
 13
18.69050428135168
 23
84.45582680180271
 33
0.0
  0
ENDBLK
  5
D7
330
D4
100
AcDbEntity
  8
0
100
AcDbBlockEnd
  0
BLOCK
  5
DA
330
D8
100
AcDbEntity
  8
0
100
AcDbBlockBegin
  2
*U12
 70
     1
 71
     0
 10
0.0
 20
0.0
 30
0.0
  3
*U12
  1

  0
SOLID
  5
D9
330
D8
100
AcDbEntity
  8
02___PRT_ALL_AXES
 62
     7
100
AcDbTrace
 10
103.8165744098097
 20
96.25596785788046
 30
0.0
 11
101.6885389285709
 21
96.78823511035155
 31
0.0
 12
103.8165744098097
 22
97.32015785327413
 32
0.0
 13
103.8165744098097
 23
97.32015785327413
 33
0.0
  0
ENDBLK
  5
DB
330
D8
100
AcDbEntity
  8
0
100
AcDbBlockEnd
  0
BLOCK
  5
E0
330
DC
100
AcDbEntity
  8
0
100
AcDbBlockBegin
  2
*U13
 70
     1
 71
     0
 10
0.0
 20
0.0
 30
0.0
  3
*U13
  1

  0
SOLID
  5
DD
330
DC
100
AcDbEntity
  8
02___PRT_ALL_AXES
 62
     7
100
AcDbTrace
 10
94.23989797991226
 20
96.25596785788046
 30
0.0
 11
94.23989797991226
 21
96.36242130837468
 31
0.0
 12
96.1551988149369
 22
96.73498684454384
 32
0.0
 13
96.1551988149369
 23
96.73498684454384
 33
0.0
  0
SOLID
  5
DE
330
DC
100
AcDbEntity
  8
02___PRT_ALL_AXES
 62
     7
100
AcDbTrace
 10
96.1551988149369
 20
96.73498684454384
 30
0.0
 11
94.23989797991226
 21
96.36242130837468
 31
0.0
 12
96.1551988149369
 22
96.84128958082441
 32
0.0
 13
96.1551988149369
 23
96.84128958082441
 33
0.0
  0
SOLID
  5
DF
330
DC
100
AcDbEntity
  8
02___PRT_ALL_AXES
 62
     7
100
AcDbTrace
 10
96.1551988149369
 20
96.73498684454384
 30
0.0
 11
96.1551988149369
 21
96.84128958082441
 31
0.0
 12
96.36810571592534
 22
96.78823511035155
 32
0.0
 13
96.36810571592534
 23
96.78823511035155
 33
0.0
  0
ENDBLK
  5
E1
330
DC
100
AcDbEntity
  8
0
100
AcDbBlockEnd
  0
BLOCK
  5
E6
330
E2
100
AcDbEntity
  8
0
100
AcDbBlockBegin
  2
*U14
 70
     1
 71
     0
 10
0.0
 20
0.0
 30
0.0
  3
*U14
  1

  0
SOLID
  5
E3
330
E2
100
AcDbEntity
  8
02___PRT_ALL_AXES
 62
     7
100
AcDbTrace
 10
94.23989797991226
 20
96.36242130837468
 30
0.0
 11
94.23989797991226
 21
97.42661130376835
 31
0.0
 12
96.1551988149369
 22
96.84128958082441
 32
0.0
 13
96.1551988149369
 23
96.84128958082441
 33
0.0
  0
SOLID
  5
E4
330
E2
100
AcDbEntity
  8
02___PRT_ALL_AXES
 62
     7
100
AcDbTrace
 10
96.1551988149369
 20
96.84128958082441
 30
0.0
 11
94.23989797991226
 21
97.42661130376835
 31
0.0
 12
96.1551988149369
 22
96.94790236175653
 32
0.0
 13
96.1551988149369
 23
96.94790236175653
 33
0.0
  0
SOLID
  5
E5
330
E2
100
AcDbEntity
  8
02___PRT_ALL_AXES
 62
     7
100
AcDbTrace
 10
96.1551988149369
 20
96.84128958082441
 30
0.0
 11
96.1551988149369
 21
96.94790236175653
 31
0.0
 12
96.36810571592534
 22
96.89468856084578
 32
0.0
 13
96.36810571592534
 23
96.89468856084578
 33
0.0
  0
ENDBLK
  5
E7
330
E2
100
AcDbEntity
  8
0
100
AcDbBlockEnd
  0
BLOCK
  5
EC
330
E8
100
AcDbEntity
  8
0
100
AcDbBlockBegin
  2
*U15
 70
     1
 71
     0
 10
0.0
 20
0.0
 30
0.0
  3
*U15
  1

  0
SOLID
  5
E9
330
E8
100
AcDbEntity
  8
02___PRT_ALL_AXES
 62
     7
100
AcDbTrace
 10
22.09563665897262
 20
96.84128958082441
 30
0.0
 11
21.88272975798418
 21
96.89468856084578
 31
0.0
 12
22.09563665897262
 22
96.9479066691712
 32
0.0
 13
22.09563665897262
 23
96.9479066691712
 33
0.0
  0
SOLID
  5
EA
330
E8
100
AcDbEntity
  8
02___PRT_ALL_AXES
 62
     7
100
AcDbTrace
 10
22.09563665897262
 20
96.84128958082441
 30
0.0
 11
22.09563665897262
 21
96.9479066691712
 31
0.0
 12
24.01076523922301
 22
97.32015785327413
 32
0.0
 13
24.01076523922301
 23
97.32015785327413
 33
0.0
  0
SOLID
  5
EB
330
E8
100
AcDbEntity
  8
02___PRT_ALL_AXES
 62
     7
100
AcDbTrace
 10
24.01076523922301
 20
97.32015785327413
 30
0.0
 11
22.09563665897262
 21
96.9479066691712
 31
0.0
 12
24.01076523922301
 22
97.42661130376835
 32
0.0
 13
24.01076523922301
 23
97.42661130376835
 33
0.0
  0
ENDBLK
  5
ED
330
E8
100
AcDbEntity
  8
0
100
AcDbBlockEnd
  0
BLOCK
  5
F0
330
EE
100
AcDbEntity
  8
0
100
AcDbBlockBegin
  2
*U16
 70
     1
 71
     0
 10
0.0
 20
0.0
 30
0.0
  3
*U16
  1

  0
SOLID
  5
EF
330
EE
100
AcDbEntity
  8
02___PRT_ALL_AXES
 62
     7
100
AcDbTrace
 10
14.43408880932551
 20
96.25596785788046
 30
0.0
 11
14.43408880932551
 21
97.32015785327413
 31
0.0
 12
16.56229654533859
 22
96.78823511035155
 32
0.0
 13
16.56229654533859
 23
96.78823511035155
 33
0.0
  0
ENDBLK
  5
F1
330
EE
100
AcDbEntity
  8
0
100
AcDbBlockEnd
  0
BLOCK
  5
F6
330
F2
100
AcDbEntity
  8
0
100
AcDbBlockBegin
  2
*U17
 70
     1
 71
     0
 10
0.0
 20
0.0
 30
0.0
  3
*U17
  1

  0
SOLID
  5
F3
330
F2
100
AcDbEntity
  8
02___PRT_ALL_AXES
 62
     7
100
AcDbTrace
 10
22.09563665897262
 20
96.73498253433938
 30
0.0
 11
21.88272975798418
 21
96.78823511035155
 31
0.0
 12
22.09563665897262
 22
96.84128958082441
 32
0.0
 13
22.09563665897262
 23
96.84128958082441
 33
0.0
  0
SOLID
  5
F4
330
F2
100
AcDbEntity
  8
02___PRT_ALL_AXES
 62
     7
100
AcDbTrace
 10
22.09563665897262
 20
96.73498253433938
 30
0.0
 11
22.09563665897262
 21
96.84128958082441
 31
0.0
 12
24.01076523922301
 22
96.25596785788046
 32
0.0
 13
24.01076523922301
 23
96.25596785788046
 33
0.0
  0
SOLID
  5
F5
330
F2
100
AcDbEntity
  8
02___PRT_ALL_AXES
 62
     7
100
AcDbTrace
 10
24.01076523922301
 20
96.25596785788046
 30
0.0
 11
22.09563665897262
 21
96.84128958082441
 31
0.0
 12
24.01076523922301
 22
97.32015785327413
 32
0.0
 13
24.01076523922301
 23
97.32015785327413
 33
0.0
  0
ENDBLK
  5
F7
330
F2
100
AcDbEntity
  8
0
100
AcDbBlockEnd
  0
BLOCK
  5
FB
330
F8
100
AcDbEntity
  8
0
100
AcDbBlockBegin
  2
*U18
 70
     1
 71
     0
 10
0.0
 20
0.0
 30
0.0
  3
*U18
  1

  0
SOLID
  5
F9
330
F8
100
AcDbEntity
  8
02___PRT_ALL_AXES
 62
     7
100
AcDbTrace
 10
6.367225475838749
 20
230.9419758537229
 30
0.0
 11
5.835130478141912
 21
230.9419758537229
 31
0.0
 12
6.367225475838749
 22
233.0701835897359
 32
0.0
 13
6.367225475838749
 23
233.0701835897359
 33
0.0
  0
SOLID
  5
FA
330
F8
100
AcDbEntity
  8
02___PRT_ALL_AXES
 62
     7
100
AcDbTrace
 10
-6.367225475838749
 20
230.9419758537229
 30
0.0
 11
-6.367225475838749
 21
233.0701835897359
 31
0.0
 12
-6.899148218761324
 22
230.9419758537229
 32
0.0
 13
-6.899148218761324
 23
230.9419758537229
 33
0.0
210
0.0
220
0.0
230
-1.0
  0
ENDBLK
  5
FC
330
F8
100
AcDbEntity
  8
0
100
AcDbBlockEnd
  0
BLOCK
  5
100
330
FD
100
AcDbEntity
  8
0
100
AcDbBlockBegin
  2
*U19
 70
     1
 71
     0
 10
0.0
 20
0.0
 30
0.0
  3
*U19
  1

  0
SOLID
  5
FE
330
FD
100
AcDbEntity
  8
02___PRT_ALL_AXES
 62
     7
100
AcDbTrace
 10
-6.367225475838749
 20
105.3809922696617
 30
0.0
 11
-5.835130478141912
 21
107.5090277509005
 31
0.0
 12
-6.367225475838749
 22
107.5090277509005
 32
0.0
 13
-6.367225475838749
 23
107.5090277509005
 33
0.0
210
0.0
220
0.0
230
-1.0
  0
SOLID
  5
FF
330
FD
100
AcDbEntity
  8
02___PRT_ALL_AXES
 62
     7
100
AcDbTrace
 10
-6.367225475838749
 20
105.3809922696617
 30
0.0
 11
-6.367225475838749
 21
107.5090277509005
 31
0.0
 12
-6.899148218761324
 22
107.5090277509005
 32
0.0
 13
-6.899148218761324
 23
107.5090277509005
 33
0.0
210
0.0
220
0.0
230
-1.0
  0
ENDBLK
  5
101
330
FD
100
AcDbEntity
  8
0
100
AcDbBlockEnd
  0
BLOCK
  5
104
330
102
100
AcDbEntity
  8
0
100
AcDbBlockBegin
  2
*U20
 70
     1
 71
     0
 10
0.0
 20
0.0
 30
0.0
  3
*U20
  1

  0
SOLID
  5
103
330
102
100
AcDbEntity
  8
02___PRT_ALL_AXES
 62
     7
100
AcDbTrace
 10
207.7919677214895
 20
92.1487250203656
 30
0.0
 11
207.7919677214895
 21
93.21291501575928
 31
0.0
 12
209.9200032027283
 22
92.6809922728367
 32
0.0
 13
209.9200032027283
 23
92.6809922728367
 33
0.0
  0
ENDBLK
  5
105
330
102
100
AcDbEntity
  8
0
100
AcDbBlockEnd
  0
BLOCK
  5
108
330
106
100
AcDbEntity
  8
0
100
AcDbBlockBegin
  2
*U21
 70
     1
 71
     0
 10
0.0
 20
0.0
 30
0.0
  3
*U21
  1

  0
SOLID
  5
107
330
106
100
AcDbEntity
  8
02___PRT_ALL_AXES
 62
     7
100
AcDbTrace
 10
158.8443955766083
 20
92.1487250203656
 30
0.0
 11
156.716015585821
 21
92.6809922728367
 31
0.0
 12
158.8443955766083
 22
93.21291501575928
 32
0.0
 13
158.8443955766083
 23
93.21291501575928
 33
0.0
  0
ENDBLK
  5
109
330
106
100
AcDbEntity
  8
0
100
AcDbBlockEnd
  0
ENDSEC
  0
SECTION
  2
ENTITIES
  0
INSERT
  5
3C
330
1F
100
AcDbEntity
  8
0
100
AcDbBlockReference
  2
BLOCK_2
 10
0.0
 20
0.0
 30
0.0
  0
INSERT
  5
41
330
1F
100
AcDbEntity
  8
0
100
AcDbBlockReference
  2
BLOCK_3
 10
0.0
 20
0.0
 30
0.0
  0
INSERT
  5
46
330
1F
100
AcDbEntity
  8
0
100
AcDbBlockReference
  2
BLOCK_4
 10
0.0
 20
0.0
 30
0.0
  0
INSERT
  5
4B
330
1F
100
AcDbEntity
  8
0
100
AcDbBlockReference
  2
BLOCK_5
 10
0.0
 20
0.0
 30
0.0
  0
INSERT
  5
50
330
1F
100
AcDbEntity
  8
0
100
AcDbBlockReference
  2
BLOCK_6
 10
0.0
 20
0.0
 30
0.0
  0
INSERT
  5
55
330
1F
100
AcDbEntity
  8
0
100
AcDbBlockReference
  2
BLOCK_7
 10
0.0
 20
0.0
 30
0.0
  0
INSERT
  5
5B
330
1F
100
AcDbEntity
  8
02___PRT_ALL_AXES
100
AcDbBlockReference
  2
BLOCK_8
 10
0.0
 20
0.0
 30
0.0
  0
ENDSEC
  0
SECTION
  2
OBJECTS
  0
DICTIONARY
  5
C
330
0
100
AcDbDictionary
  3
ACAD_GROUP
350
D
  3
ACAD_LAYOUT
350
1A
  3
ACAD_MLINESTYLE
350
17
  3
ACAD_PLOTSETTINGS
350
19
  3
ACAD_TABLESTYLE
350
C6
  3
ACAD_VISUALSTYLE
350
2A
1001
ACAD
1000
TREAT_AS_HARD
1070
     0
  0
DICTIONARY
  5
D
102
{ACAD_REACTORS
330
C
102
}
330
C
100
AcDbDictionary
1001
ACAD
1000
TREAT_AS_HARD
1070
     0
  0
DICTIONARY
  5
1A
102
{ACAD_REACTORS
330
C
102
}
330
C
100
AcDbDictionary
1001
ACAD
1000
TREAT_AS_HARD
1070
     0
  0
DICTIONARY
  5
17
102
{ACAD_REACTORS
330
C
102
}
330
C
100
AcDbDictionary
  3
STANDARD
350
18
1001
ACAD
1000
TREAT_AS_HARD
1070
     0
  0
DICTIONARY
  5
19
102
{ACAD_REACTORS
330
C
102
}
330
C
100
AcDbDictionary
1001
ACAD
1000
TREAT_AS_HARD
1070
     0
  0
DICTIONARY
  5
C6
102
{ACAD_REACTORS
330
C
102
}
330
C
100
AcDbDictionary
1001
ACAD
1000
TREAT_AS_HARD
1070
     0
  0
DICTIONARY
  5
2A
102
{ACAD_REACTORS
330
C
102
}
330
C
100
AcDbDictionary
  3
2DWIREFRAME
350
2F
  3
3D_HIDDEN
350
31
  3
3DWIREFRAME
350
30
  3
BASIC
350
32
  3
BRIGHTEN
350
36
  3
COLORCHANGE
350
3A
  3
CONCEPTUAL
350
34
  3
DIM
350
35
  3
FACEPATTERN
350
39
  3
FLAT
350
2B
  3
FLATWITHEDGES
350
2C
  3
GOURAUD
350
2D
  3
GOURAUDWITHEDGES
350
2E
  3
LINEPATTERN
350
38
  3
REALISTIC
350
33
  3
THICKEN
350
37
1001
ACAD
1000
TREAT_AS_HARD
1070
     0
  0
MLINESTYLE
  5
18
102
{ACAD_REACTORS
330
17
102
}
330
17
100
AcDbMlineStyle
  2
Standard
 70
     0
  3

 62
   256
 51
90.0
 52
90.0
 71
     2
 49
0.5
 62
   256
  6
BYLAYER
 49
-0.5
 62
   256
  6
BYLAYER
  0
VISUALSTYLE
  5
2F
102
{ACAD_REACTORS
330
2A
102
}
330
2A
100
AcDbVisualStyle
  2
2dWireframe
 70
     4
 71
     0
 72
     2
 73
     0
 90
        0
 40
-0.6
 41
-30.0
 62
     5
 63
     7
 74
     1
 91
        4
 64
     7
 65
   257
 75
     1
175
     1
 42
1.0
 92
        0
 66
   257
 43
1.0
 76
     1
 77
     6
 78
     2
 67
     7
 79
     5
170
     0
171
     0
290
     0
174
     0
 93
        1
 44
0.0
173
     0
291
     0
 45
0.0
1001
ACAD
1000
AcDbSavedByObjectVersion
1070
     0
  0
VISUALSTYLE
  5
31
102
{ACAD_REACTORS
330
2A
102
}
330
2A
100
AcDbVisualStyle
  2
3D Hidden
 70
     6
 71
     1
 72
     2
 73
     2
 90
        0
 40
-0.6
 41
-30.0
 62
     5
 63
     7
 74
     2
 91
        2
 64
     7
 65
   257
 75
     2
175
     1
 42
40.0
 92
        0
 66
   257
 43
1.0
 76
     1
 77
     6
 78
     2
 67
     7
 79
     3
170
     0
171
     0
290
     0
174
     0
 93
        1
 44
0.0
173
     0
291
     0
 45
0.0
1001
ACAD
1000
AcDbSavedByObjectVersion
1070
     0
  0
VISUALSTYLE
  5
30
102
{ACAD_REACTORS
330
2A
102
}
330
2A
100
AcDbVisualStyle
  2
3dWireframe
 70
     5
 71
     0
 72
     2
 73
     0
 90
        0
 40
-0.6
 41
-30.0
 62
     5
 63
     7
 74
     1
 91
        4
 64
     7
 65
   257
 75
     1
175
     1
 42
1.0
 92
        0
 66
   257
 43
1.0
 76
     1
 77
     6
 78
     2
 67
     7
 79
     5
170
     0
171
     0
290
     0
174
     0
 93
        1
 44
0.0
173
     0
291
     0
 45
0.0
1001
ACAD
1000
AcDbSavedByObjectVersion
1070
     0
  0
VISUALSTYLE
  5
32
102
{ACAD_REACTORS
330
2A
102
}
330
2A
100
AcDbVisualStyle
  2
Basic
 70
     7
 71
     1
 72
     0
 73
     1
 90
        0
 40
-0.6
 41
-30.0
 62
     5
 63
     7
 74
     0
 91
        4
 64
     7
 65
   257
 75
     1
175
     1
 42
1.0
 92
        8
 66
     7
 43
1.0
 76
     1
 77
     6
 78
     2
 67
     7
 79
     5
170
     0
171
     0
290
     0
174
     0
 93
        1
 44
0.0
173
     0
291
     1
 45
0.0
1001
ACAD
1000
AcDbSavedByObjectVersion
1070
     0
  0
VISUALSTYLE
  5
36
102
{ACAD_REACTORS
330
2A
102
}
330
2A
100
AcDbVisualStyle
  2
Brighten
 70
    12
 71
     2
 72
     2
 73
     0
 90
        0
 40
-0.6
 41
-30.0
 62
     5
 63
     7
 74
     1
 91
        4
 64
     7
 65
   257
 75
     1
175
     1
 42
1.0
 92
        8
 66
     7
 43
1.0
 76
     1
 77
     6
 78
     2
 67
     7
 79
     5
170
     0
171
     0
290
     0
174
     0
 93
        1
 44
50.0
173
     0
291
     1
 45
0.0
1001
ACAD
1000
AcDbSavedByObjectVersion
1070
     0
  0
VISUALSTYLE
  5
3A
102
{ACAD_REACTORS
330
2A
102
}
330
2A
100
AcDbVisualStyle
  2
ColorChange
 70
    16
 71
     2
 72
     2
 73
     3
 90
        0
 40
-0.6
 41
-30.0
 62
     5
 63
     8
 74
     1
 91
        4
 64
     7
 65
   257
 75
     1
175
     1
 42
1.0
 92
        8
 66
     8
 43
1.0
 76
     1
 77
     6
 78
     2
 67
     7
 79
     5
170
     0
171
     0
290
     0
174
     0
 93
        1
 44
0.0
173
     0
291
     1
 45
0.0
1001
ACAD
1000
AcDbSavedByObjectVersion
1070
     0
  0
VISUALSTYLE
  5
34
102
{ACAD_REACTORS
330
2A
102
}
330
2A
100
AcDbVisualStyle
  2
Conceptual
 70
     9
 71
     3
 72
     2
 73
     0
 90
        0
 40
-0.6
 41
-30.0
 62
     5
 63
     7
 74
     2
 91
        2
 64
     7
 65
   257
 75
     1
175
     1
 42
40.0
 92
        8
 66
     7
 43
1.0
 76
     1
 77
     6
 78
     2
 67
     7
 79
     3
170
     0
171
     0
290
     0
174
     0
 93
        1
 44
0.0
173
     0
291
     0
 45
0.0
1001
ACAD
1000
AcDbSavedByObjectVersion
1070
     0
  0
VISUALSTYLE
  5
35
102
{ACAD_REACTORS
330
2A
102
}
330
2A
100
AcDbVisualStyle
  2
Dim
 70
    11
 71
     2
 72
     2
 73
     0
 90
        0
 40
-0.6
 41
-30.0
 62
     5
 63
     7
 74
     1
 91
        4
 64
     7
 65
   257
 75
     1
175
     1
 42
1.0
 92
        8
 66
     7
 43
1.0
 76
     1
 77
     6
 78
     2
 67
     7
 79
     5
170
     0
171
     0
290
     0
174
     0
 93
        1
 44
-50.0
173
     0
291
     1
 45
0.0
1001
ACAD
1000
AcDbSavedByObjectVersion
1070
     0
  0
VISUALSTYLE
  5
39
102
{ACAD_REACTORS
330
2A
102
}
330
2A
100
AcDbVisualStyle
  2
Facepattern
 70
    15
 71
     2
 72
     2
 73
     0
 90
        0
 40
-0.6
 41
-30.0
 62
     5
 63
     7
 74
     1
 91
        4
 64
     7
 65
   257
 75
     1
175
     1
 42
1.0
 92
        8
 66
     7
 43
1.0
 76
     1
 77
     6
 78
     2
 67
     7
 79
     5
170
     0
171
     0
290
     0
174
     0
 93
        1
 44
0.0
173
     0
291
     1
 45
0.0
1001
ACAD
1000
AcDbSavedByObjectVersion
1070
     0
  0
VISUALSTYLE
  5
2B
102
{ACAD_REACTORS
330
2A
102
}
330
2A
100
AcDbVisualStyle
  2
Flat
 70
     0
 71
     2
 72
     1
 73
     1
 90
        2
 40
-0.6
 41
30.0
 62
     5
 63
     7
 74
     0
 91
        4
 64
     7
 65
   257
 75
     1
175
     1
 42
1.0
 92
        8
 66
     7
 43
1.0
 76
     1
 77
     6
 78
     2
 67
     7
 79
     5
170
     0
171
     0
290
     0
174
     0
 93
       13
 44
0.0
173
     0
291
     1
 45
0.0
1001
ACAD
1000
AcDbSavedByObjectVersion
1070
     0
  0
VISUALSTYLE
  5
2C
102
{ACAD_REACTORS
330
2A
102
}
330
2A
100
AcDbVisualStyle
  2
FlatWithEdges
 70
     1
 71
     2
 72
     1
 73
     1
 90
        2
 40
-0.6
 41
30.0
 62
     5
 63
     7
 74
     1
 91
        4
 64
     7
 65
   257
 75
     1
175
     1
 42
1.0
 92
        0
 66
   257
 43
1.0
 76
     1
 77
     6
 78
     2
 67
     7
 79
     5
170
     0
171
     0
290
     0
174
     0
 93
       13
 44
0.0
173
     0
291
     1
 45
0.0
1001
ACAD
1000
AcDbSavedByObjectVersion
1070
     0
  0
VISUALSTYLE
  5
2D
102
{ACAD_REACTORS
330
2A
102
}
330
2A
100
AcDbVisualStyle
  2
Gouraud
 70
     2
 71
     2
 72
     2
 73
     1
 90
        2
 40
-0.6
 41
30.0
 62
     5
 63
     7
 74
     0
 91
        4
 64
     7
 65
   257
 75
     1
175
     1
 42
1.0
 92
        0
 66
     7
 43
1.0
 76
     1
 77
     6
 78
     2
 67
     7
 79
     5
170
     0
171
     0
290
     0
174
     0
 93
       13
 44
0.0
173
     0
291
     1
 45
0.0
1001
ACAD
1000
AcDbSavedByObjectVersion
1070
     0
  0
VISUALSTYLE
  5
2E
102
{ACAD_REACTORS
330
2A
102
}
330
2A
100
AcDbVisualStyle
  2
GouraudWithEdges
 70
     3
 71
     2
 72
     2
 73
     1
 90
        2
 40
-0.6
 41
30.0
 62
     5
 63
     7
 74
     1
 91
        4
 64
     7
 65
   257
 75
     1
175
     1
 42
1.0
 92
        0
 66
   257
 43
1.0
 76
     1
 77
     6
 78
     2
 67
     7
 79
     5
170
     0
171
     0
290
     0
174
     0
 93
       13
 44
0.0
173
     0
291
     1
 45
0.0
1001
ACAD
1000
AcDbSavedByObjectVersion
1070
     0
  0
VISUALSTYLE
  5
38
102
{ACAD_REACTORS
330
2A
102
}
330
2A
100
AcDbVisualStyle
  2
Linepattern
 70
    14
 71
     2
 72
     2
 73
     0
 90
        0
 40
-0.6
 41
-30.0
 62
     5
 63
     7
 74
     1
 91
        4
 64
     7
 65
   257
 75
     7
175
     7
 42
1.0
 92
        8
 66
     7
 43
1.0
 76
     1
 77
     6
 78
     2
 67
     7
 79
     5
170
     0
171
     0
290
     0
174
     0
 93
        1
 44
0.0
173
     0
291
     1
 45
0.0
1001
ACAD
1000
AcDbSavedByObjectVersion
1070
     0
  0
VISUALSTYLE
  5
33
102
{ACAD_REACTORS
330
2A
102
}
330
2A
100
AcDbVisualStyle
  2
Realistic
 70
     8
 71
     2
 72
     2
 73
     0
 90
        0
 40
-0.6
 41
-30.0
 62
     5
 63
     7
 74
     1
 91
        0
 64
     7
 65
   257
 75
     1
175
     1
 42
1.0
 92
        8
 66
     8
 43
1.0
 76
     1
 77
     6
 78
     2
 67
     7
 79
     5
170
     0
171
     0
290
     0
174
     0
 93
       13
 44
0.0
173
     0
291
     0
 45
0.0
1001
ACAD
1000
AcDbSavedByObjectVersion
1070
     0
  0
VISUALSTYLE
  5
37
102
{ACAD_REACTORS
330
2A
102
}
330
2A
100
AcDbVisualStyle
  2
Thicken
 70
    13
 71
     2
 72
     2
 73
     0
 90
        0
 40
-0.6
 41
-30.0
 62
     5
 63
     7
 74
     1
 91
        4
 64
     7
 65
   257
 75
     1
175
     1
 42
1.0
 92
       12
 66
     7
 43
1.0
 76
     1
 77
     6
 78
     2
 67
     7
 79
     5
170
     0
171
     0
290
     0
174
     0
 93
        1
 44
0.0
173
     0
291
     1
 45
0.0
1001
ACAD
1000
AcDbSavedByObjectVersion
1070
     0
  0
ENDSEC
  0
EOF
