  0
SECTION
  2
HEADER
  9
$ACADVER
  1
AC1027
  9
$ACADMAINTVER
 70
   125
  9
$DWGCODEPAGE
  3
ANSI_1252
  9
$REQUIREDVERSIONS
160
                 0
  9
$INSBASE
 10
0.0
 20
0.0
 30
0.0
  9
$EXTMIN
 10
1.000000000000000E+20
 20
1.000000000000000E+20
 30
1.000000000000000E+20
  9
$EXTMAX
 10
-1.000000000000000E+20
 20
-1.000000000000000E+20
 30
-1.000000000000000E+20
  9
$LIMMIN
 10
0.0
 20
0.0
  9
$LIMMAX
 10
12.0
 20
9.0
  9
$ORTHOMODE
 70
     0
  9
$REGENMODE
 70
     1
  9
$FILLMODE
 70
     1
  9
$QTEXTMODE
 70
     0
  9
$MIRRTEXT
 70
     0
  9
$LTSCALE
 40
1.0
  9
$ATTMODE
 70
     1
  9
$TEXTSIZE
 40
0.2
  9
$TRACEWID
 40
0.05
  9
$TEXTSTYLE
  7
Standard
  9
$CLAYER
  8
0
  9
$CELTYPE
  6
ByLayer
  9
$CECOLOR
 62
   256
  9
$CELTSCALE
 40
1.0
  9
$DISPSILH
 70
     0
  9
$DIMSCALE
 40
1.0
  9
$DIMASZ
 40
0.18
  9
$DIMEXO
 40
0.0625
  9
$DIMDLI
 40
0.38
  9
$DIMRND
 40
0.0
  9
$DIMDLE
 40
0.0
  9
$DIMEXE
 40
0.18
  9
$DIMTP
 40
0.0
  9
$DIMTM
 40
0.0
  9
$DIMTXT
 40
0.18
  9
$DIMCEN
 40
0.09
  9
$DIMTSZ
 40
0.0
  9
$DIMTOL
 70
     0
  9
$DIMLIM
 70
     0
  9
$DIMTIH
 70
     1
  9
$DIMTOH
 70
     1
  9
$DIMSE1
 70
     0
  9
$DIMSE2
 70
     0
  9
$DIMTAD
 70
     0
  9
$DIMZIN
 70
     0
  9
$DIMBLK
  1

  9
$DIMASO
 70
     1
  9
$DIMSHO
 70
     1
  9
$DIMPOST
  1

  9
$DIMAPOST
  1

  9
$DIMALT
 70
     0
  9
$DIMALTD
 70
     2
  9
$DIMALTF
 40
25.4
  9
$DIMLFAC
 40
1.0
  9
$DIMTOFL
 70
     0
  9
$DIMTVP
 40
0.0
  9
$DIMTIX
 70
     0
  9
$DIMSOXD
 70
     0
  9
$DIMSAH
 70
     0
  9
$DIMBLK1
  1

  9
$DIMBLK2
  1

  9
$DIMSTYLE
  2
Standard
  9
$DIMCLRD
 70
     0
  9
$DIMCLRE
 70
     0
  9
$DIMCLRT
 70
     0
  9
$DIMTFAC
 40
1.0
  9
$DIMGAP
 40
0.09
  9
$DIMJUST
 70
     0
  9
$DIMSD1
 70
     0
  9
$DIMSD2
 70
     0
  9
$DIMTOLJ
 70
     1
  9
$DIMTZIN
 70
     0
  9
$DIMALTZ
 70
     0
  9
$DIMALTTZ
 70
     0
  9
$DIMUPT
 70
     0
  9
$DIMDEC
 70
     4
  9
$DIMTDEC
 70
     4
  9
$DIMALTU
 70
     2
  9
$DIMALTTD
 70
     2
  9
$DIMTXSTY
  7
Standard
  9
$DIMAUNIT
 70
     0
  9
$DIMADEC
 70
     0
  9
$DIMALTRND
 40
0.0
  9
$DIMAZIN
 70
     0
  9
$DIMDSEP
 70
    46
  9
$DIMATFIT
 70
     3
  9
$DIMFRAC
 70
     0
  9
$DIMLDRBLK
  1

  9
$DIMLUNIT
 70
     2
  9
$DIMLWD
 70
    -2
  9
$DIMLWE
 70
    -2
  9
$DIMTMOVE
 70
     0
  9
$DIMFXL
 40
1.0
  9
$DIMFXLON
 70
     0
  9
$DIMJOGANG
 40
0.7853981633974483
  9
$DIMTFILL
 70
     0
  9
$DIMTFILLCLR
 70
     0
  9
$DIMARCSYM
 70
     0
  9
$DIMLTYPE
  6

  9
$DIMLTEX1
  6

  9
$DIMLTEX2
  6

  9
$DIMTXTDIRECTION
 70
     0
  9
$LUNITS
 70
     2
  9
$LUPREC
 70
     4
  9
$SKETCHINC
 40
0.1
  9
$FILLETRAD
 40
0.0
  9
$AUNITS
 70
     0
  9
$AUPREC
 70
     0
  9
$MENU
  1
.
  9
$ELEVATION
 40
0.0
  9
$PELEVATION
 40
0.0
  9
$THICKNESS
 40
0.0
  9
$LIMCHECK
 70
     0
  9
$CHAMFERA
 40
0.0
  9
$CHAMFERB
 40
0.0
  9
$CHAMFERC
 40
0.0
  9
$CHAMFERD
 40
0.0
  9
$SKPOLY
 70
     0
  9
$TDCREATE
 40
2459634.463842593
  9
$TDUCREATE
 40
2459634.422175926
  9
$TDUPDATE
 40
2459634.463842593
  9
$TDUUPDATE
 40
2459634.422175926
  9
$TDINDWG
 40
0.0000000000
  9
$TDUSRTIMER
 40
0.0000000000
  9
$USRTIMER
 70
     1
  9
$ANGBASE
 50
0.0
  9
$ANGDIR
 70
     0
  9
$PDMODE
 70
     0
  9
$PDSIZE
 40
0.0
  9
$PLINEWID
 40
0.0
  9
$SPLFRAME
 70
     0
  9
$SPLINETYPE
 70
     6
  9
$SPLINESEGS
 70
     8
  9
$HANDSEED
  5
107
  9
$SURFTAB1
 70
     6
  9
$SURFTAB2
 70
     6
  9
$SURFTYPE
 70
     6
  9
$SURFU
 70
     6
  9
$SURFV
 70
     6
  9
$UCSBASE
  2

  9
$UCSNAME
  2

  9
$UCSORG
 10
0.0
 20
0.0
 30
0.0
  9
$UCSXDIR
 10
1.0
 20
0.0
 30
0.0
  9
$UCSYDIR
 10
0.0
 20
1.0
 30
0.0
  9
$UCSORTHOREF
  2

  9
$UCSORTHOVIEW
 70
     0
  9
$UCSORGTOP
 10
0.0
 20
0.0
 30
0.0
  9
$UCSORGBOTTOM
 10
0.0
 20
0.0
 30
0.0
  9
$UCSORGLEFT
 10
0.0
 20
0.0
 30
0.0
  9
$UCSORGRIGHT
 10
0.0
 20
0.0
 30
0.0
  9
$UCSORGFRONT
 10
0.0
 20
0.0
 30
0.0
  9
$UCSORGBACK
 10
0.0
 20
0.0
 30
0.0
  9
$PUCSBASE
  2

  9
$PUCSNAME
  2

  9
$PUCSORG
 10
0.0
 20
0.0
 30
0.0
  9
$PUCSXDIR
 10
1.0
 20
0.0
 30
0.0
  9
$PUCSYDIR
 10
0.0
 20
1.0
 30
0.0
  9
$PUCSORTHOREF
  2

  9
$PUCSORTHOVIEW
 70
     0
  9
$PUCSORGTOP
 10
0.0
 20
0.0
 30
0.0
  9
$PUCSORGBOTTOM
 10
0.0
 20
0.0
 30
0.0
  9
$PUCSORGLEFT
 10
0.0
 20
0.0
 30
0.0
  9
$PUCSORGRIGHT
 10
0.0
 20
0.0
 30
0.0
  9
$PUCSORGFRONT
 10
0.0
 20
0.0
 30
0.0
  9
$PUCSORGBACK
 10
0.0
 20
0.0
 30
0.0
  9
$USERI1
 70
     0
  9
$USERI2
 70
     0
  9
$USERI3
 70
     0
  9
$USERI4
 70
     0
  9
$USERI5
 70
     0
  9
$USERR1
 40
0.0
  9
$USERR2
 40
0.0
  9
$USERR3
 40
0.0
  9
$USERR4
 40
0.0
  9
$USERR5
 40
0.0
  9
$WORLDVIEW
 70
     1
  9
$SHADEDGE
 70
     3
  9
$SHADEDIF
 70
    70
  9
$TILEMODE
 70
     1
  9
$MAXACTVP
 70
    64
  9
$PINSBASE
 10
0.0
 20
0.0
 30
0.0
  9
$PLIMCHECK
 70
     0
  9
$PEXTMIN
 10
1.000000000000000E+20
 20
1.000000000000000E+20
 30
1.000000000000000E+20
  9
$PEXTMAX
 10
-1.000000000000000E+20
 20
-1.000000000000000E+20
 30
-1.000000000000000E+20
  9
$PLIMMIN
 10
0.0
 20
0.0
  9
$PLIMMAX
 10
12.0
 20
9.0
  9
$UNITMODE
 70
     0
  9
$VISRETAIN
 70
     1
  9
$PLINEGEN
 70
     0
  9
$PSLTSCALE
 70
     1
  9
$TREEDEPTH
 70
  3020
  9
$CMLSTYLE
  2
Standard
  9
$CMLJUST
 70
     0
  9
$CMLSCALE
 40
1.0
  9
$PROXYGRAPHICS
 70
     1
  9
$MEASUREMENT
 70
     0
  9
$CELWEIGHT
370
    -1
  9
$ENDCAPS
280
     0
  9
$JOINSTYLE
280
     0
  9
$LWDISPLAY
290
     1
  9
$INSUNITS
 70
     4
  9
$HYPERLINKBASE
  1

  9
$STYLESHEET
  1

  9
$XEDIT
290
     1
  9
$CEPSNTYPE
380
     0
  9
$PSTYLEMODE
290
     1
  9
$FINGERPRINTGUID
  2
{6A66B26B-16BC-484A-A71C-27C73713B4FF}
  9
$VERSIONGUID
  2
{65A6FC20-9CCC-BE41-84D4-37D76193A242}
  9
$EXTNAMES
290
     1
  9
$PSVPSCALE
 40
0.0
  9
$OLESTARTUP
290
     0
  9
$SORTENTS
280
   127
  9
$INDEXCTL
280
     0
  9
$HIDETEXT
280
     1
  9
$XCLIPFRAME
280
     2
  9
$HALOGAP
280
     0
  9
$OBSCOLOR
 70
   257
  9
$OBSLTYPE
280
     0
  9
$INTERSECTIONDISPLAY
280
     0
  9
$INTERSECTIONCOLOR
 70
   257
  9
$DIMASSOC
280
     2
  9
$PROJECTNAME
  1

  9
$CAMERADISPLAY
290
     0
  9
$LENSLENGTH
 40
50.0
  9
$CAMERAHEIGHT
 40
0.0
  9
$STEPSPERSEC
 40
2.0
  9
$STEPSIZE
 40
6.0
  9
$3DDWFPREC
 40
2.0
  9
$PSOLWIDTH
 40
0.25
  9
$PSOLHEIGHT
 40
4.0
  9
$LOFTANG1
 40
1.570796326794896
  9
$LOFTANG2
 40
1.570796326794896
  9
$LOFTMAG1
 40
0.0
  9
$LOFTMAG2
 40
0.0
  9
$LOFTPARAM
 70
     7
  9
$LOFTNORMALS
280
     1
  9
$LATITUDE
 40
37.795
  9
$LONGITUDE
 40
-122.394
  9
$NORTHDIRECTION
 40
0.0
  9
$TIMEZONE
 70
 -8000
  9
$LIGHTGLYPHDISPLAY
280
     1
  9
$TILEMODELIGHTSYNCH
280
     1
  9
$CMATERIAL
347
11
  9
$SOLIDHIST
280
     0
  9
$SHOWHIST
280
     1
  9
$DWFFRAME
280
     2
  9
$DGNFRAME
280
     0
  9
$REALWORLDSCALE
290
     1
  9
$INTERFERECOLOR
 62
     1
  9
$INTERFEREOBJVS
345
33
  9
$INTERFEREVPVS
346
30
  9
$CSHADOW
280
     0
  9
$SHADOWPLANELOCATION
 40
0.0
  0
ENDSEC
  0
SECTION
  2
CLASSES
  0
CLASS
  1
ACDBDICTIONARYWDFLT
  2
AcDbDictionaryWithDefault
  3
ObjectDBX Classes
 90
        0
 91
        1
280
     0
281
     0
  0
CLASS
  1
MATERIAL
  2
AcDbMaterial
  3
ObjectDBX Classes
 90
     1153
 91
        3
280
     0
281
     0
  0
CLASS
  1
VISUALSTYLE
  2
AcDbVisualStyle
  3
ObjectDBX Classes
 90
     4095
 91
       24
280
     0
281
     0
  0
CLASS
  1
SCALE
  2
AcDbScale
  3
ObjectDBX Classes
 90
     1153
 91
       17
280
     0
281
     0
  0
CLASS
  1
TABLESTYLE
  2
AcDbTableStyle
  3
ObjectDBX Classes
 90
     4095
 91
        1
280
     0
281
     0
  0
CLASS
  1
MLEADERSTYLE
  2
AcDbMLeaderStyle
  3
ACDB_MLEADERSTYLE_CLASS
 90
     4095
 91
        1
280
     0
281
     0
  0
CLASS
  1
ACDBSECTIONVIEWSTYLE
  2
AcDbSectionViewStyle
  3
ObjectDBX Classes
 90
     1025
 91
        1
280
     0
281
     0
  0
CLASS
  1
ACDBDETAILVIEWSTYLE
  2
AcDbDetailViewStyle
  3
ObjectDBX Classes
 90
     1025
 91
        1
280
     0
281
     0
  0
CLASS
  1
DICTIONARYVAR
  2
AcDbDictionaryVar
  3
ObjectDBX Classes
 90
        0
 91
        5
280
     0
281
     0
  0
CLASS
  1
CELLSTYLEMAP
  2
AcDbCellStyleMap
  3
ObjectDBX Classes
 90
     1152
 91
        1
280
     0
281
     0
  0
ENDSEC
  0
SECTION
  2
TABLES
  0
TABLE
  2
VPORT
  5
8
330
0
100
AcDbSymbolTable
 70
     1
1001
ACAD
1000
DbSaveVer
1071
      205
  0
VPORT
  5
57
330
8
100
AcDbSymbolTableRecord
100
AcDbViewportTableRecord
  2
*Active
 70
     0
 10
0.0
 20
0.0
 11
1.0
 21
1.0
 12
0.0
 22
0.0
 13
0.0
 23
0.0
 14
1.0
 24
1.0
 15
0.0
 25
0.0
 16
0.0
 26
0.0
 36
1.0
 17
62.19629331376602
 27
-42.19630823847071
 37
0.0
 40
86.08046880648027
 41
1.473974760120392
 42
50.0
 43
0.0
 44
0.0
 50
0.0
 51
0.0
 71
     0
 72
   100
 73
     1
 74
     0
 75
     1
 76
     0
 77
     0
 78
     0
281
     0
 65
     1
110
0.0
120
0.0
130
0.0
111
1.0
121
0.0
131
0.0
112
0.0
122
1.0
132
0.0
 79
     0
146
0.0
 60
     3
 61
     5
292
     1
282
     1
141
0.0
142
0.0
 63
   250
421
  3355443
  0
ENDTAB
  0
TABLE
  2
LTYPE
  5
5
330
0
100
AcDbSymbolTable
 70
     1
  0
LTYPE
  5
5B
330
5
100
AcDbSymbolTableRecord
100
AcDbLinetypeTableRecord
  2
ByBlock
 70
     0
  3

 72
    65
 73
     0
 40
0.0
  0
LTYPE
  5
5C
330
5
100
AcDbSymbolTableRecord
100
AcDbLinetypeTableRecord
  2
ByLayer
 70
     0
  3

 72
    65
 73
     0
 40
0.0
  0
LTYPE
  5
5D
330
5
100
AcDbSymbolTableRecord
100
AcDbLinetypeTableRecord
  2
Continuous
 70
     0
  3
Solid line
 72
    65
 73
     0
 40
0.0
  0
ENDTAB
  0
TABLE
  2
LAYER
  5
2
330
0
100
AcDbSymbolTable
 70
     2
  0
LAYER
  5
54
330
2
100
AcDbSymbolTableRecord
100
AcDbLayerTableRecord
  2
0
 70
     0
 62
     7
  6
Continuous
370
    -3
390
F
347
21
348
0
  0
LAYER
  5
78
330
2
100
AcDbSymbolTableRecord
100
AcDbLayerTableRecord
  2
Capa 1
 70
     0
 62
     7
  6
Continuous
370
     0
390
F
347
21
348
0
  0
ENDTAB
  0
TABLE
  2
STYLE
  5
3
330
0
100
AcDbSymbolTable
 70
     2
  0
STYLE
  5
55
330
3
100
AcDbSymbolTableRecord
100
AcDbTextStyleTableRecord
  2
Standard
 70
     0
 40
0.0
 41
1.0
 50
0.0
 71
     0
 42
0.2
  3
txt
  4

  0
STYLE
  5
5A
330
3
100
AcDbSymbolTableRecord
100
AcDbTextStyleTableRecord
  2
Annotative
 70
     0
 40
0.0
 41
1.0
 50
0.0
 71
     0
 42
0.2
  3
txt
  4

1001
AcadAnnotative
1000
AnnotativeData
1002
{
1070
     1
1070
     1
1002
}
  0
ENDTAB
  0
TABLE
  2
VIEW
  5
6
330
0
100
AcDbSymbolTable
 70
     0
  0
ENDTAB
  0
TABLE
  2
UCS
  5
7
330
0
100
AcDbSymbolTable
 70
     0
  0
ENDTAB
  0
TABLE
  2
APPID
  5
9
330
0
100
AcDbSymbolTable
 70
     2
  0
APPID
  5
56
330
9
100
AcDbSymbolTableRecord
100
AcDbRegAppTableRecord
  2
ACAD
 70
     0
  0
APPID
  5
5E
330
9
100
AcDbSymbolTableRecord
100
AcDbRegAppTableRecord
  2
AcadAnnotative
 70
     0
  0
ENDTAB
  0
TABLE
  2
DIMSTYLE
  5
A
330
0
100
AcDbSymbolTable
 70
     2
100
AcDbDimStyleTable
 71
     0
  0
DIMSTYLE
105
58
330
A
100
AcDbSymbolTableRecord
100
AcDbDimStyleTableRecord
  2
Standard
 70
     0
340
55
  0
DIMSTYLE
105
59
330
A
100
AcDbSymbolTableRecord
100
AcDbDimStyleTableRecord
  2
Annotative
 70
     0
340
55
1001
AcadAnnotative
1000
AnnotativeData
1002
{
1070
     1
1070
     1
1002
}
  0
ENDTAB
  0
TABLE
  2
BLOCK_RECORD
  5
1
330
0
100
AcDbSymbolTable
 70
     3
  0
BLOCK_RECORD
  5
70
330
1
100
AcDbSymbolTableRecord
100
AcDbBlockTableRecord
  2
*Model_Space
340
73
 70
     0
280
     1
281
     0
  0
BLOCK_RECORD
  5
6C
330
1
100
AcDbSymbolTableRecord
100
AcDbBlockTableRecord
  2
*Paper_Space
340
6F
 70
     0
280
     1
281
     0
  0
BLOCK_RECORD
  5
74
330
1
100
AcDbSymbolTableRecord
100
AcDbBlockTableRecord
  2
*Paper_Space0
340
77
 70
     0
280
     1
281
     0
  0
BLOCK_RECORD
  5
A5
330
1
100
AcDbSymbolTableRecord
100
AcDbBlockTableRecord
  2
Block_0
340
0
102
{BLKREFS
331
A6
102
}
 70
     0
280
     1
281
     0
  0
BLOCK_RECORD
  5
C0
330
1
100
AcDbSymbolTableRecord
100
AcDbBlockTableRecord
  2
Block_1
340
0
102
{BLKREFS
331
C1
102
}
 70
     0
280
     1
281
     0
  0
ENDTAB
  0
ENDSEC
  0
SECTION
  2
BLOCKS
  0
BLOCK
  5
71
330
70
100
AcDbEntity
  8
0
100
AcDbBlockBegin
  2
*Model_Space
 70
     0
 10
0.0
 20
0.0
 30
0.0
  3
*Model_Space
  1

  0
ENDBLK
  5
72
330
70
100
AcDbEntity
  8
0
100
AcDbBlockEnd
  0
BLOCK
  5
6D
330
6C
100
AcDbEntity
 67
     1
  8
0
100
AcDbBlockBegin
  2
*Paper_Space
 70
     0
 10
0.0
 20
0.0
 30
0.0
  3
*Paper_Space
  1

  0
ENDBLK
  5
6E
330
6C
100
AcDbEntity
 67
     1
  8
0
100
AcDbBlockEnd
  0
BLOCK
  5
75
330
74
100
AcDbEntity
 67
     1
  8
0
100
AcDbBlockBegin
  2
*Paper_Space0
 70
     0
 10
0.0
 20
0.0
 30
0.0
  3
*Paper_Space0
  1

  0
ENDBLK
  5
76
330
74
100
AcDbEntity
 67
     1
  8
0
100
AcDbBlockEnd
  0
BLOCK
  5
A7
330
A5
100
AcDbEntity
  8
0
100
AcDbBlockBegin
  2
Block_0
 70
     0
 10
0.0
 20
0.0
 30
0.0
  3
Block_0
  1

  0
LWPOLYLINE
  5
A9
330
A5
100
AcDbEntity
  8
Capa 1
 62
   250
420
  1907996
370
     9
100
AcDbPolyline
 90
        4
 70
     1
 43
0.0
 10
68.40115606865483
 20
-30.0005774147216
 10
75.71303977100201
 20
-30.00025567007312
 10
75.71303977100201
 20
-33.54902787974864
 10
68.40115606865483
 20
-33.54938065751742
  0
LINE
  5
AA
330
A5
100
AcDbEntity
  8
Capa 1
 62
   250
420
  1907996
370
     9
100
AcDbLine
 10
75.35094866912863
 20
-33.54938065751742
 30
0.0
 11
75.35059589135984
 21
-30.0005774147216
 31
0.0
  0
LINE
  5
AB
330
A5
100
AcDbEntity
  8
Capa 1
 62
   250
420
  1907996
370
     9
100
AcDbLine
 10
68.76324717052821
 20
-33.54938065751742
 30
0.0
 11
68.76289439275945
 21
-30.0005774147216
 31
0.0
  0
ENDBLK
  5
A8
330
A5
100
AcDbEntity
  8
0
100
AcDbBlockEnd
  0
BLOCK
  5
C2
330
C0
100
AcDbEntity
  8
0
100
AcDbBlockBegin
  2
Block_1
 70
     0
 10
0.0
 20
0.0
 30
0.0
  3
Block_1
  1

  0
LINE
  5
C4
330
C0
100
AcDbEntity
  8
Capa 1
 62
     7
420
 16777215
370
   158
100
AcDbLine
 10
78.99178369573326
 20
-47.23038475293037
 30
0.0
 11
78.99178369573326
 21
-42.72936375665019
 31
0.0
  0
LINE
  5
C5
330
C0
100
AcDbEntity
  8
Capa 1
 62
     7
420
 16777215
370
   158
100
AcDbLine
 10
87.39163403699079
 20
-47.23038475293037
 30
0.0
 11
87.39163403699079
 21
-42.72936375665019
 31
0.0
  0
LINE
  5
C6
330
C0
100
AcDbEntity
  8
Capa 1
 62
     7
420
 16777215
370
   158
100
AcDbLine
 10
94.99185108951705
 20
-47.23038475293037
 30
0.0
 11
94.99185108951705
 21
-42.72936375665019
 31
0.0
  0
LINE
  5
C7
330
C0
100
AcDbEntity
  8
Capa 1
 62
     7
420
 16777215
370
   158
100
AcDbLine
 10
99.89249066251181
 20
-47.23038475293037
 30
0.0
 11
99.89249066251181
 21
-42.72936375665019
 31
0.0
  0
LWPOLYLINE
  5
C8
330
C0
100
AcDbEntity
  8
Capa 1
100
AcDbPolyline
 90
        4
 70
     1
 43
0.0
 10
62.01678773991259
 20
-68.08251422094823
 10
111.9727303543192
 20
-68.08251422094823
 10
111.9727303543192
 20
-39.90749438419732
 10
62.01678773991259
 20
-39.90749438419732
  0
ENDBLK
  5
C3
330
C0
100
AcDbEntity
  8
0
100
AcDbBlockEnd
  0
ENDSEC
  0
SECTION
  2
ENTITIES
  0
CIRCLE
  5
79
330
70
100
AcDbEntity
  8
Capa 1
 62
   250
420
  1907996
370
    35
100
AcDbCircle
 10
72.05709791982842
 20
-26.76736813965451
 30
0.0
 40
9.082651200616941
  0
SPLINE
  5
7A
330
70
100
AcDbEntity
  8
Capa 1
 62
   250
420
  1907996
370
     9
100
AcDbSpline
210
0.0
220
0.0
230
1.0
 70
     9
 71
     3
 72
    17
 73
    13
 74
     0
 42
0.0000000001
 43
0.0000000001
 40
0.0
 40
0.0
 40
0.0
 40
0.0
 40
1.0
 40
1.0
 40
1.0
 40
2.0
 40
2.0
 40
2.0
 40
3.0
 40
3.0
 40
3.0
 40
4.0
 40
4.0
 40
4.0
 40
4.0
 10
80.7979785301633
 20
-26.76736916387428
 30
0.0
 10
80.7979785301633
 20
-21.93992289814349
 30
0.0
 10
76.88472057444328
 20
-18.02648855353939
 30
0.0
 10
72.05709791982842
 20
-18.02648855353939
 30
0.0
 10
67.22947526521356
 20
-18.02648855353939
 30
0.0
 10
63.31621730949353
 20
-21.93992289814349
 30
0.0
 10
63.31621730949353
 20
-26.76736916387428
 30
0.0
 10
63.31621730949353
 20
-31.59499181848915
 30
0.0
 10
67.22947526521356
 20
-35.50793227421728
 30
0.0
 10
72.05709791982842
 20
-35.50793227421728
 30
0.0
 10
76.88472057444328
 20
-35.50793227421728
 30
0.0
 10
80.7979785301633
 20
-31.59499181848915
 30
0.0
 10
80.7979785301633
 20
-26.76736916387428
 30
0.0
  0
CIRCLE
  5
7B
330
70
100
AcDbEntity
  8
Capa 1
 62
   250
420
  1907996
370
     9
100
AcDbCircle
 10
72.05709791982842
 20
-26.76736916387428
 30
0.0
 40
8.312326176823779
  0
MTEXT
  5
7C
330
70
100
AcDbEntity
  8
Capa 1
100
AcDbMText
 10
38.20386961935528
 20
-79.10353183888026
 30
0.0
 40
0.2
 41
0.0
 46
0.0
 71
     7
 72
     1
  1
\C18;\c65793;\FArial|b0|i0|c1;\H2.997200;\W1.000000;Ø d
 73
     1
 44
1.0
  0
LINE
  5
7D
330
70
100
AcDbEntity
  8
Capa 1
 62
   250
420
  1907996
370
     9
100
AcDbLine
 10
35.55147801783105
 20
-11.35729539035135
 30
0.0
 11
27.51477711175326
 21
-11.35729539035135
 31
0.0
  0
LINE
  5
7E
330
70
100
AcDbEntity
  8
Capa 1
 62
   250
420
  1907996
370
     9
100
AcDbLine
 10
31.41153176298056
 20
-17.60823067317098
 30
0.0
 11
27.51477711175326
 21
-17.60823067317098
 31
0.0
  0
LINE
  5
7F
330
70
100
AcDbEntity
  8
Capa 1
 62
   250
420
  1907996
370
     9
100
AcDbLine
 10
31.41153176298056
 20
-64.70441677250843
 30
0.0
 11
27.51477711175326
 21
-64.70441677250843
 31
0.0
  0
LINE
  5
80
330
70
100
AcDbEntity
  8
Capa 1
 62
   250
420
  1907996
370
     9
100
AcDbLine
 10
28.74053874714814
 20
-17.60823067317098
 30
0.0
 11
28.74053874714814
 21
-11.35729539035135
 31
0.0
  0
LINE
  5
81
330
70
100
AcDbEntity
  8
Capa 1
 62
   250
420
  1907996
370
     9
100
AcDbLine
 10
28.74053874714814
 20
-64.70371121695291
 30
0.0
 11
28.74053874714814
 21
-17.60823067317098
 31
0.0
  0
MTEXT
  5
82
330
70
100
AcDbEntity
  8
Capa 1
100
AcDbMText
 10
22.98653835145823
 20
-41.95575624052831
 30
0.0
 40
0.2
 41
0.0
 46
0.0
 71
     7
 72
     1
  1
\C18;\c65793;\FArial|b0|i0|c1;\H2.997200;\W1.000000;h
 73
     1
 44
1.0
  0
MTEXT
  5
83
330
70
100
AcDbEntity
  8
Capa 1
100
AcDbMText
 10
22.98653835145823
 20
-15.8770670533224
 30
0.0
 40
0.2
 41
0.0
 46
0.0
 71
     7
 72
     1
  1
\C18;\c65793;\FArial|b0|i0|c1;\H2.997200;\W1.000000;B
 73
     1
 44
1.0
  0
MTEXT
  5
84
330
70
100
AcDbEntity
  8
Capa 1
100
AcDbMText
 10
62.53916285328882
 20
-14.64010551934344
 30
0.0
 40
0.2
 41
0.0
 46
0.0
 71
     7
 72
     1
  1
\C18;\c65793;\FArial|b0|i0|c1;\H2.997200;\W1.000000;Ø A
 73
     1
 44
1.0
  0
LWPOLYLINE
  5
85
330
70
100
AcDbEntity
  8
Capa 1
 62
   250
420
  1907996
370
     9
100
AcDbPolyline
 90
        3
 70
     0
 43
0.0
 10
63.96800951508715
 20
-15.33447667777389
 10
69.13496910548925
 20
-15.33447667777389
 10
70.11337064219404
 20
-17.43442162419983
  0
LINE
  5
86
330
70
100
AcDbEntity
  8
Capa 1
 62
   250
420
  1907996
370
     9
100
AcDbLine
 10
77.78800805139851
 20
-34.28146508328484
 30
0.0
 11
80.07658327078987
 21
-39.35610273159782
 31
0.0
  0
LINE
  5
87
330
70
100
AcDbEntity
  8
Capa 1
 62
   250
420
  1907996
370
     9
100
AcDbLine
 10
32.53565142810452
 20
-75.41037875622105
 30
0.0
 11
49.58335488207026
 21
-75.41037875622105
 31
0.0
  0
LINE
  5
88
330
70
100
AcDbEntity
  8
Capa 1
 62
   250
420
  1907996
370
     9
100
AcDbLine
 10
32.53738003917153
 20
-66.12449177090154
 30
0.0
 11
32.53738003917153
 21
-76.46871206255406
 31
0.0
  0
LINE
  5
89
330
70
100
AcDbEntity
  8
Capa 1
 62
   250
420
  1907996
370
     9
100
AcDbLine
 10
49.58610654866673
 20
-66.12449177090154
 30
0.0
 11
49.58610654866673
 21
-76.46871206255406
 31
0.0
  0
MTEXT
  5
8A
330
70
100
AcDbEntity
  8
Capa 1
100
AcDbMText
 10
46.1225938469763
 20
-73.39225254343308
 30
0.0
 40
0.2
 41
0.0
 46
0.0
 71
     7
 72
     1
  1
\C18;\c65793;\FArial|b0|i0|c1;\H2.997200;\W1.000000;M10
 73
     1
 44
1.0
  0
LINE
  5
8B
330
70
100
AcDbEntity
  8
Capa 1
 62
   250
420
  1907996
370
     9
100
AcDbLine
 10
39.10613737158858
 20
-69.48000807418408
 30
0.0
 11
39.10613737158858
 21
-73.18830214624428
 31
0.0
  0
LINE
  5
8C
330
70
100
AcDbEntity
  8
Capa 1
 62
   250
420
  1907996
370
     9
100
AcDbLine
 10
43.01597338295145
 20
-69.48000807418408
 30
0.0
 11
43.01597338295145
 21
-73.18830214624428
 31
0.0
  0
LINE
  5
8D
330
70
100
AcDbEntity
  8
Capa 1
 62
   250
420
  1907996
370
     9
100
AcDbLine
 10
39.17778653642731
 20
-72.02798078695765
 30
0.0
 11
43.01597338295145
 21
-72.02798078695765
 31
0.0
  0
LINE
  5
8E
330
70
100
AcDbEntity
  8
Capa 1
 62
   250
420
  1907996
370
     9
100
AcDbLine
 10
43.01597338295145
 20
-72.02798078695765
 30
0.0
 11
46.19443052408448
 21
-72.02798078695765
 31
0.0
  0
LINE
  5
8F
330
70
100
AcDbEntity
  8
Capa 1
 62
   250
420
  1907996
370
     9
100
AcDbLine
 10
35.92768023045554
 20
-72.02798078695765
 30
0.0
 11
39.10613737158858
 21
-72.02798078695765
 31
0.0
  0
LWPOLYLINE
  5
90
330
70
100
AcDbEntity
  8
Capa 1
 62
   250
420
  1907996
370
     9
100
AcDbPolyline
 90
        4
 70
     1
 43
0.0
 10
47.63136493186967
 20
-15.87726055281521
 10
34.49039304490157
 20
-15.87726055281521
 10
34.49039304490157
 20
-12.81991201970356
 10
47.63136493186967
 20
-12.81991201970356
  0
SPLINE
  5
91
330
70
100
AcDbEntity
  8
Capa 1
 62
   250
420
  1907996
370
     9
100
AcDbSpline
210
0.0
220
0.0
230
1.0
 70
     9
 71
     3
 72
    29
 73
    25
 74
     0
 42
0.0000000001
 43
0.0000000001
 40
0.0
 40
0.0
 40
0.0
 40
0.0
 40
1.0
 40
1.0
 40
1.0
 40
2.0
 40
2.0
 40
2.0
 40
3.0
 40
3.0
 40
3.0
 40
4.0
 40
4.0
 40
4.0
 40
5.0
 40
5.0
 40
5.0
 40
6.0
 40
6.0
 40
6.0
 40
7.0
 40
7.0
 40
7.0
 40
8.0
 40
8.0
 40
8.0
 40
8.0
 10
49.29224266727493
 20
-16.75920497475938
 30
0.0
 10
49.29224266727493
 20
-16.9540088586784
 30
0.0
 10
49.13448044907756
 20
-17.11198274353704
 30
0.0
 10
48.93946489849726
 20
-17.11198274353704
 30
0.0
 10
48.93946489849726
 20
-17.11198274353704
 30
0.0
 10
33.18229307827399
 20
-17.11198274353704
 30
0.0
 10
33.18229307827399
 20
-17.11198274353704
 30
0.0
 10
32.98731280547057
 20
-17.11198274353704
 30
0.0
 10
32.82951530949631
 20
-16.9540088586784
 30
0.0
 10
32.82951530949631
 20
-16.75920497475938
 30
0.0
 10
32.82951530949631
 20
-16.75920497475938
 30
0.0
 10
32.82951530949631
 20
-16.23003832159288
 30
0.0
 10
32.82951530949631
 20
-16.23003832159288
 30
0.0
 10
32.82951530949631
 20
-16.03519456245319
 30
0.0
 10
32.98731280547057
 20
-15.87726055281521
 30
0.0
 10
33.18229307827399
 20
-15.87726055281521
 30
0.0
 10
33.18229307827399
 20
-15.87726055281521
 30
0.0
 10
48.93946489849726
 20
-15.87726055281521
 30
0.0
 10
48.93946489849726
 20
-15.87726055281521
 30
0.0
 10
49.13448044907756
 20
-15.87726055281521
 30
0.0
 10
49.29224266727493
 20
-16.03519456245319
 30
0.0
 10
49.29224266727493
 20
-16.23003832159288
 30
0.0
 10
49.29224266727493
 20
-16.23003832159288
 30
0.0
 10
49.29224266727493
 20
-16.75920497475938
 30
0.0
 10
49.29224266727493
 20
-16.75920497475938
 30
0.0
  0
SPLINE
  5
92
330
70
100
AcDbEntity
  8
Capa 1
 62
   250
420
  1907996
370
     9
100
AcDbSpline
210
0.0
220
0.0
230
1.0
 70
     9
 71
     3
 72
    29
 73
    25
 74
     0
 42
0.0000000001
 43
0.0000000001
 40
0.0
 40
0.0
 40
0.0
 40
0.0
 40
1.0
 40
1.0
 40
1.0
 40
2.0
 40
2.0
 40
2.0
 40
3.0
 40
3.0
 40
3.0
 40
4.0
 40
4.0
 40
4.0
 40
5.0
 40
5.0
 40
5.0
 40
6.0
 40
6.0
 40
6.0
 40
7.0
 40
7.0
 40
7.0
 40
8.0
 40
8.0
 40
8.0
 40
8.0
 10
49.58610654866673
 20
-21.63935623914523
 30
0.0
 10
49.58610654866673
 20
-21.8341556721146
 30
0.0
 10
49.42834433046936
 20
-21.9921340079229
 30
0.0
 10
49.23332877988906
 20
-21.9921340079229
 30
0.0
 10
49.23332877988906
 20
-21.9921340079229
 30
0.0
 10
32.8884291968822
 20
-21.9921340079229
 30
0.0
 10
32.8884291968822
 20
-21.9921340079229
 30
0.0
 10
32.69344892407878
 20
-21.9921340079229
 30
0.0
 10
32.53565142810452
 20
-21.8341556721146
 30
0.0
 10
32.53565142810452
 20
-21.63935623914523
 30
0.0
 10
32.53565142810452
 20
-21.63935623914523
 30
0.0
 10
32.53565142810452
 20
-17.46476051231471
 30
0.0
 10
32.53565142810452
 20
-17.46476051231471
 30
0.0
 10
32.53565142810452
 20
-17.26991678436673
 30
0.0
 10
32.69344892407878
 20
-17.11198274353704
 30
0.0
 10
32.8884291968822
 20
-17.11198274353704
 30
0.0
 10
32.8884291968822
 20
-17.11198274353704
 30
0.0
 10
49.23332877988906
 20
-17.11198274353704
 30
0.0
 10
49.23332877988906
 20
-17.11198274353704
 30
0.0
 10
49.42834433046936
 20
-17.11198274353704
 30
0.0
 10
49.58610654866673
 20
-17.26991678436673
 30
0.0
 10
49.58610654866673
 20
-17.46476051231471
 30
0.0
 10
49.58610654866673
 20
-17.46476051231471
 30
0.0
 10
49.58610654866673
 20
-21.63935623914523
 30
0.0
 10
49.58610654866673
 20
-21.63935623914523
 30
0.0
  0
SPLINE
  5
93
330
70
100
AcDbEntity
  8
Capa 1
 62
   250
420
  1907996
370
     9
100
AcDbSpline
210
0.0
220
0.0
230
1.0
 70
     9
 71
     3
 72
    29
 73
    25
 74
     0
 42
0.0000000001
 43
0.0000000001
 40
0.0
 40
0.0
 40
0.0
 40
0.0
 40
1.0
 40
1.0
 40
1.0
 40
2.0
 40
2.0
 40
2.0
 40
3.0
 40
3.0
 40
3.0
 40
4.0
 40
4.0
 40
4.0
 40
5.0
 40
5.0
 40
5.0
 40
6.0
 40
6.0
 40
6.0
 40
7.0
 40
7.0
 40
7.0
 40
8.0
 40
8.0
 40
8.0
 40
8.0
 10
49.58610654866673
 20
-64.49081320146905
 30
0.0
 10
49.58610654866673
 20
-64.68579347427246
 30
0.0
 10
49.42834433046936
 20
-64.84359097024671
 30
0.0
 10
49.23332877988906
 20
-64.84359097024671
 30
0.0
 10
49.23332877988906
 20
-64.84359097024671
 30
0.0
 10
32.8884291968822
 20
-64.84359097024671
 30
0.0
 10
32.8884291968822
 20
-64.84359097024671
 30
0.0
 10
32.69344892407878
 20
-64.84359097024671
 30
0.0
 10
32.53565142810452
 20
-64.68579347427246
 30
0.0
 10
32.53565142810452
 20
-64.49081320146905
 30
0.0
 10
32.53565142810452
 20
-64.49081320146905
 30
0.0
 10
32.53565142810452
 20
-22.34491177670057
 30
0.0
 10
32.53565142810452
 20
-22.34491177670057
 30
0.0
 10
32.53565142810452
 20
-22.15007261500467
 30
0.0
 10
32.69344892407878
 20
-21.9921340079229
 30
0.0
 10
32.8884291968822
 20
-21.9921340079229
 30
0.0
 10
32.8884291968822
 20
-21.9921340079229
 30
0.0
 10
49.23332877988906
 20
-21.9921340079229
 30
0.0
 10
49.23332877988906
 20
-21.9921340079229
 30
0.0
 10
49.42834433046936
 20
-21.9921340079229
 30
0.0
 10
49.58610654866673
 20
-22.15007261500467
 30
0.0
 10
49.58610654866673
 20
-22.34491177670057
 30
0.0
 10
49.58610654866673
 20
-22.34491177670057
 30
0.0
 10
49.58610654866673
 20
-64.49081320146905
 30
0.0
 10
49.58610654866673
 20
-64.49081320146905
 30
0.0
  0
SPLINE
  5
94
330
70
100
AcDbEntity
  8
Capa 1
 62
   250
420
  1907996
370
     9
100
AcDbSpline
210
0.0
220
0.0
230
1.0
 70
    11
 71
     3
 72
    23
 73
    19
 74
     0
 42
0.0000000001
 43
0.0000000001
 40
0.0
 40
0.0
 40
0.0
 40
0.0
 40
1.0
 40
1.0
 40
1.0
 40
2.0
 40
2.0
 40
2.0
 40
3.0
 40
3.0
 40
3.0
 40
4.0
 40
4.0
 40
4.0
 40
5.0
 40
5.0
 40
5.0
 40
6.0
 40
6.0
 40
6.0
 40
6.0
 10
43.01597338295145
 20
-64.84359097024671
 30
0.0
 10
43.01597338295145
 20
-64.84359097024671
 30
0.0
 10
43.01597338295145
 20
-68.52916615399763
 30
0.0
 10
43.01597338295145
 20
-68.52916615399763
 30
0.0
 10
43.01597338295145
 20
-68.72414642680105
 30
0.0
 10
42.8581758869772
 20
-68.8819439227753
 30
0.0
 10
42.66319561417378
 20
-68.8819439227753
 30
0.0
 10
42.66319561417378
 20
-68.8819439227753
 30
0.0
 10
39.45891514036624
 20
-68.8819439227753
 30
0.0
 10
39.45891514036624
 20
-68.8819439227753
 30
0.0
 10
39.26393486756282
 20
-68.8819439227753
 30
0.0
 10
39.10613737158858
 20
-68.72414642680105
 30
0.0
 10
39.10613737158858
 20
-68.52916615399763
 30
0.0
 10
39.10613737158858
 20
-68.52916615399763
 30
0.0
 10
39.10613737158858
 20
-64.84359097024671
 30
0.0
 10
39.10613737158858
 20
-64.84359097024671
 30
0.0
 10
39.10613737158858
 20
-64.84359097024671
 30
0.0
 10
43.01597338295145
 20
-64.84359097024671
 30
0.0
 10
43.01597338295145
 20
-64.84359097024671
 30
0.0
  0
SPLINE
  5
95
330
70
100
AcDbEntity
  8
Capa 1
 62
   250
420
  1907996
370
     9
100
AcDbSpline
210
0.0
220
0.0
230
1.0
 70
    11
 71
     3
 72
    23
 73
    19
 74
     0
 42
0.0000000001
 43
0.0000000001
 40
0.0
 40
0.0
 40
0.0
 40
0.0
 40
1.0
 40
1.0
 40
1.0
 40
2.0
 40
2.0
 40
2.0
 40
3.0
 40
3.0
 40
3.0
 40
4.0
 40
4.0
 40
4.0
 40
5.0
 40
5.0
 40
5.0
 40
6.0
 40
6.0
 40
6.0
 40
6.0
 10
36.73832826532975
 20
-12.81991201970356
 30
0.0
 10
36.73832826532975
 20
-12.81991201970356
 30
0.0
 10
36.73832826532975
 20
-11.71007315912902
 30
0.0
 10
36.73832826532975
 20
-11.71007315912902
 30
0.0
 10
36.73832826532975
 20
-11.51523399743311
 30
0.0
 10
36.896125761304
 20
-11.35729539035135
 30
0.0
 10
37.09110603410741
 20
-11.35729539035135
 30
0.0
 10
37.09110603410741
 20
-11.35729539035135
 30
0.0
 10
37.984762677975
 20
-11.35729539035135
 30
0.0
 10
37.984762677975
 20
-11.35729539035135
 30
0.0
 10
38.17974295077842
 20
-11.35729539035135
 30
0.0
 10
38.33754044675267
 20
-11.51523399743311
 30
0.0
 10
38.33754044675267
 20
-11.71007315912902
 30
0.0
 10
38.33754044675267
 20
-11.71007315912902
 30
0.0
 10
38.33754044675267
 20
-12.81991201970356
 30
0.0
 10
38.33754044675267
 20
-12.81991201970356
 30
0.0
 10
38.33754044675267
 20
-12.81991201970356
 30
0.0
 10
36.73832826532975
 20
-12.81991201970356
 30
0.0
 10
36.73832826532975
 20
-12.81991201970356
 30
0.0
  0
SPLINE
  5
96
330
70
100
AcDbEntity
  8
Capa 1
 62
   250
420
  1907996
370
     9
100
AcDbSpline
210
0.0
220
0.0
230
1.0
 70
    11
 71
     3
 72
    23
 73
    19
 74
     0
 42
0.0000000001
 43
0.0000000001
 40
0.0
 40
0.0
 40
0.0
 40
0.0
 40
1.0
 40
1.0
 40
1.0
 40
2.0
 40
2.0
 40
2.0
 40
3.0
 40
3.0
 40
3.0
 40
4.0
 40
4.0
 40
4.0
 40
5.0
 40
5.0
 40
5.0
 40
6.0
 40
6.0
 40
6.0
 40
6.0
 10
37.18550936503232
 20
-12.4107956412521
 30
0.0
 10
37.18550936503232
 20
-12.4107956412521
 30
0.0
 10
37.18550936503232
 20
-11.92177509817249
 30
0.0
 10
37.18550936503232
 20
-11.92177509817249
 30
0.0
 10
37.18550936503232
 20
-11.83597954480577
 30
0.0
 10
37.25507714103527
 20
-11.76637649102593
 30
0.0
 10
37.34122547217078
 20
-11.76637649102593
 30
0.0
 10
37.34122547217078
 20
-11.76637649102593
 30
0.0
 10
37.73464323991163
 20
-11.76637649102593
 30
0.0
 10
37.73464323991163
 20
-11.76637649102593
 30
0.0
 10
37.82075629327027
 20
-11.76637649102593
 30
0.0
 10
37.8903593470501
 20
-11.83597954480577
 30
0.0
 10
37.8903593470501
 20
-11.92177509817249
 30
0.0
 10
37.8903593470501
 20
-11.92177509817249
 30
0.0
 10
37.8903593470501
 20
-12.4107956412521
 30
0.0
 10
37.8903593470501
 20
-12.4107956412521
 30
0.0
 10
37.8903593470501
 20
-12.4107956412521
 30
0.0
 10
37.18550936503232
 20
-12.4107956412521
 30
0.0
 10
37.18550936503232
 20
-12.4107956412521
 30
0.0
  0
SPLINE
  5
97
330
70
100
AcDbEntity
  8
Capa 1
 62
   250
420
  1907996
370
     9
100
AcDbSpline
210
0.0
220
0.0
230
1.0
 70
    11
 71
     3
 72
    23
 73
    19
 74
     0
 42
0.0000000001
 43
0.0000000001
 40
0.0
 40
0.0
 40
0.0
 40
0.0
 40
1.0
 40
1.0
 40
1.0
 40
2.0
 40
2.0
 40
2.0
 40
3.0
 40
3.0
 40
3.0
 40
4.0
 40
4.0
 40
4.0
 40
5.0
 40
5.0
 40
5.0
 40
6.0
 40
6.0
 40
6.0
 40
6.0
 10
39.77483453866764
 20
-12.81991201970356
 30
0.0
 10
39.77483453866764
 20
-12.81991201970356
 30
0.0
 10
39.77483453866764
 20
-11.71007315912902
 30
0.0
 10
39.77483453866764
 20
-11.71007315912902
 30
0.0
 10
39.77483453866764
 20
-11.51523399743311
 30
0.0
 10
39.93262512828089
 20
-11.35729539035135
 30
0.0
 10
40.12761231635721
 20
-11.35729539035135
 30
0.0
 10
40.12761231635721
 20
-11.35729539035135
 30
0.0
 10
41.02126204495188
 20
-11.35729539035135
 30
0.0
 10
41.02126204495188
 20
-11.35729539035135
 30
0.0
 10
41.2162423177553
 20
-11.35729539035135
 30
0.0
 10
41.37403981372956
 20
-11.51523399743311
 30
0.0
 10
41.37403981372956
 20
-11.71007315912902
 30
0.0
 10
41.37403981372956
 20
-11.71007315912902
 30
0.0
 10
41.37403981372956
 20
-12.81991201970356
 30
0.0
 10
41.37403981372956
 20
-12.81991201970356
 30
0.0
 10
41.37403981372956
 20
-12.81991201970356
 30
0.0
 10
39.77483453866764
 20
-12.81991201970356
 30
0.0
 10
39.77483453866764
 20
-12.81991201970356
 30
0.0
  0
SPLINE
  5
98
330
70
100
AcDbEntity
  8
Capa 1
 62
   250
420
  1907996
370
     9
100
AcDbSpline
210
0.0
220
0.0
230
1.0
 70
    11
 71
     3
 72
    23
 73
    19
 74
     0
 42
0.0000000001
 43
0.0000000001
 40
0.0
 40
0.0
 40
0.0
 40
0.0
 40
1.0
 40
1.0
 40
1.0
 40
2.0
 40
2.0
 40
2.0
 40
3.0
 40
3.0
 40
3.0
 40
4.0
 40
4.0
 40
4.0
 40
5.0
 40
5.0
 40
5.0
 40
6.0
 40
6.0
 40
6.0
 40
6.0
 10
40.22200873200921
 20
-12.4107956412521
 30
0.0
 10
40.22200873200921
 20
-12.4107956412521
 30
0.0
 10
40.22200873200921
 20
-11.92177509817249
 30
0.0
 10
40.22200873200921
 20
-11.92177509817249
 30
0.0
 10
40.22200873200921
 20
-11.83597954480577
 30
0.0
 10
40.29161178578904
 20
-11.76637649102593
 30
0.0
 10
40.37773176073875
 20
-11.76637649102593
 30
0.0
 10
40.37773176073875
 20
-11.76637649102593
 30
0.0
 10
40.77114260688852
 20
-11.76637649102593
 30
0.0
 10
40.77114260688852
 20
-11.76637649102593
 30
0.0
 10
40.85729093802403
 20
-11.76637649102593
 30
0.0
 10
40.92685871402699
 20
-11.83597954480577
 30
0.0
 10
40.92685871402699
 20
-11.92177509817249
 30
0.0
 10
40.92685871402699
 20
-11.92177509817249
 30
0.0
 10
40.92685871402699
 20
-12.4107956412521
 30
0.0
 10
40.92685871402699
 20
-12.4107956412521
 30
0.0
 10
40.92685871402699
 20
-12.4107956412521
 30
0.0
 10
40.22200873200921
 20
-12.4107956412521
 30
0.0
 10
40.22200873200921
 20
-12.4107956412521
 30
0.0
  0
SPLINE
  5
99
330
70
100
AcDbEntity
  8
Capa 1
 62
   250
420
  1907996
370
     9
100
AcDbSpline
210
0.0
220
0.0
230
1.0
 70
    11
 71
     3
 72
    23
 73
    19
 74
     0
 42
0.0000000001
 43
0.0000000001
 40
0.0
 40
0.0
 40
0.0
 40
0.0
 40
1.0
 40
1.0
 40
1.0
 40
2.0
 40
2.0
 40
2.0
 40
3.0
 40
3.0
 40
3.0
 40
4.0
 40
4.0
 40
4.0
 40
5.0
 40
5.0
 40
5.0
 40
6.0
 40
6.0
 40
6.0
 40
6.0
 10
44.86357639137073
 20
-12.4107956412521
 30
0.0
 10
44.86357639137073
 20
-12.4107956412521
 30
0.0
 10
44.86357639137073
 20
-11.92177509817249
 30
0.0
 10
44.86357639137073
 20
-11.92177509817249
 30
0.0
 10
44.86357639137073
 20
-11.83597954480577
 30
0.0
 10
44.93317944515056
 20
-11.76637649102593
 30
0.0
 10
45.0192924985092
 20
-11.76637649102593
 30
0.0
 10
45.0192924985092
 20
-11.76637649102593
 30
0.0
 10
45.41274554402693
 20
-11.76637649102593
 30
0.0
 10
45.41274554402693
 20
-11.76637649102593
 30
0.0
 10
45.49885859738555
 20
-11.76637649102593
 30
0.0
 10
45.56846165116538
 20
-11.83597954480577
 30
0.0
 10
45.56846165116538
 20
-11.92177509817249
 30
0.0
 10
45.56846165116538
 20
-11.92177509817249
 30
0.0
 10
45.56846165116538
 20
-12.4107956412521
 30
0.0
 10
45.56846165116538
 20
-12.4107956412521
 30
0.0
 10
45.56846165116538
 20
-12.4107956412521
 30
0.0
 10
44.86357639137073
 20
-12.4107956412521
 30
0.0
 10
44.86357639137073
 20
-12.4107956412521
 30
0.0
  0
SPLINE
  5
9A
330
70
100
AcDbEntity
  8
Capa 1
 62
   250
420
  1907996
370
     9
100
AcDbSpline
210
0.0
220
0.0
230
1.0
 70
    11
 71
     3
 72
    23
 73
    19
 74
     0
 42
0.0000000001
 43
0.0000000001
 40
0.0
 40
0.0
 40
0.0
 40
0.0
 40
1.0
 40
1.0
 40
1.0
 40
2.0
 40
2.0
 40
2.0
 40
3.0
 40
3.0
 40
3.0
 40
4.0
 40
4.0
 40
4.0
 40
5.0
 40
5.0
 40
5.0
 40
6.0
 40
6.0
 40
6.0
 40
6.0
 10
44.0636175228905
 20
-12.81991201970356
 30
0.0
 10
44.0636175228905
 20
-12.81991201970356
 30
0.0
 10
44.0636175228905
 20
-11.71007315912902
 30
0.0
 10
44.0636175228905
 20
-11.71007315912902
 30
0.0
 10
44.0636175228905
 20
-11.51523399743311
 30
0.0
 10
44.22141501886474
 20
-11.35729539035135
 30
0.0
 10
44.41639529166816
 20
-11.35729539035135
 30
0.0
 10
44.41639529166816
 20
-11.35729539035135
 30
0.0
 10
46.01560747309108
 20
-11.35729539035135
 30
0.0
 10
46.01560747309108
 20
-11.35729539035135
 30
0.0
 10
46.21062302367137
 20
-11.35729539035135
 30
0.0
 10
46.36838524186875
 20
-11.51523399743311
 30
0.0
 10
46.36838524186875
 20
-11.71007315912902
 30
0.0
 10
46.36838524186875
 20
-11.71007315912902
 30
0.0
 10
46.36838524186875
 20
-12.81991201970356
 30
0.0
 10
46.36838524186875
 20
-12.81991201970356
 30
0.0
 10
46.36838524186875
 20
-12.81991201970356
 30
0.0
 10
44.0636175228905
 20
-12.81991201970356
 30
0.0
 10
44.0636175228905
 20
-12.81991201970356
 30
0.0
  0
SPLINE
  5
9B
330
70
100
AcDbEntity
  8
Capa 1
 62
   250
420
  1907996
370
    35
100
AcDbSpline
210
0.0
220
0.0
230
1.0
 70
     9
 71
     3
 72
   155
 73
   151
 74
     0
 42
0.0000000001
 43
0.0000000001
 40
0.0
 40
0.0
 40
0.0
 40
0.0
 40
1.0
 40
1.0
 40
1.0
 40
2.0
 40
2.0
 40
2.0
 40
3.0
 40
3.0
 40
3.0
 40
4.0
 40
4.0
 40
4.0
 40
5.0
 40
5.0
 40
5.0
 40
6.0
 40
6.0
 40
6.0
 40
7.0
 40
7.0
 40
7.0
 40
8.0
 40
8.0
 40
8.0
 40
9.0
 40
9.0
 40
9.0
 40
10.0
 40
10.0
 40
10.0
 40
11.0
 40
11.0
 40
11.0
 40
12.0
 40
12.0
 40
12.0
 40
13.0
 40
13.0
 40
13.0
 40
14.0
 40
14.0
 40
14.0
 40
15.0
 40
15.0
 40
15.0
 40
16.0
 40
16.0
 40
16.0
 40
17.0
 40
17.0
 40
17.0
 40
18.0
 40
18.0
 40
18.0
 40
19.0
 40
19.0
 40
19.0
 40
20.0
 40
20.0
 40
20.0
 40
21.0
 40
21.0
 40
21.0
 40
22.0
 40
22.0
 40
22.0
 40
23.0
 40
23.0
 40
23.0
 40
24.0
 40
24.0
 40
24.0
 40
25.0
 40
25.0
 40
25.0
 40
26.0
 40
26.0
 40
26.0
 40
27.0
 40
27.0
 40
27.0
 40
28.0
 40
28.0
 40
28.0
 40
29.0
 40
29.0
 40
29.0
 40
30.0
 40
30.0
 40
30.0
 40
31.0
 40
31.0
 40
31.0
 40
32.0
 40
32.0
 40
32.0
 40
33.0
 40
33.0
 40
33.0
 40
34.0
 40
34.0
 40
34.0
 40
35.0
 40
35.0
 40
35.0
 40
36.0
 40
36.0
 40
36.0
 40
37.0
 40
37.0
 40
37.0
 40
38.0
 40
38.0
 40
38.0
 40
39.0
 40
39.0
 40
39.0
 40
40.0
 40
40.0
 40
40.0
 40
41.0
 40
41.0
 40
41.0
 40
42.0
 40
42.0
 40
42.0
 40
43.0
 40
43.0
 40
43.0
 40
44.0
 40
44.0
 40
44.0
 40
45.0
 40
45.0
 40
45.0
 40
46.0
 40
46.0
 40
46.0
 40
47.0
 40
47.0
 40
47.0
 40
48.0
 40
48.0
 40
48.0
 40
49.0
 40
49.0
 40
49.0
 40
50.0
 40
50.0
 40
50.0
 40
50.0
 10
49.58610654866673
 20
-21.63935623914523
 30
0.0
 10
49.58610654866673
 20
-21.63935623914523
 30
0.0
 10
49.58610654866673
 20
-17.46476051231471
 30
0.0
 10
49.58610654866673
 20
-17.46476051231471
 30
0.0
 10
49.58610654866673
 20
-17.26991678436673
 30
0.0
 10
49.42834433046936
 20
-17.11198274353704
 30
0.0
 10
49.23332877988906
 20
-17.11198274353704
 30
0.0
 10
49.23332877988906
 20
-17.11198274353704
 30
0.0
 10
48.93946489849726
 20
-17.11198274353704
 30
0.0
 10
48.93946489849726
 20
-17.11198274353704
 30
0.0
 10
49.13448044907756
 20
-17.11198274353704
 30
0.0
 10
49.29224266727493
 20
-16.9540088586784
 30
0.0
 10
49.29224266727493
 20
-16.75920497475938
 30
0.0
 10
49.29224266727493
 20
-16.75920497475938
 30
0.0
 10
49.29224266727493
 20
-16.23003832159288
 30
0.0
 10
49.29224266727493
 20
-16.23003832159288
 30
0.0
 10
49.29224266727493
 20
-16.03519456245319
 30
0.0
 10
49.13448044907756
 20
-15.87726055281521
 30
0.0
 10
48.93946489849726
 20
-15.87726055281521
 30
0.0
 10
48.93946489849726
 20
-15.87726055281521
 30
0.0
 10
47.63136493186967
 20
-15.87726055281521
 30
0.0
 10
47.63136493186967
 20
-15.87726055281521
 30
0.0
 10
47.63136493186967
 20
-15.87726055281521
 30
0.0
 10
47.63136493186967
 20
-12.81991201970356
 30
0.0
 10
47.63136493186967
 20
-12.81991201970356
 30
0.0
 10
47.63136493186967
 20
-12.81991201970356
 30
0.0
 10
46.36838524186875
 20
-12.81991201970356
 30
0.0
 10
46.36838524186875
 20
-12.81991201970356
 30
0.0
 10
46.36838524186875
 20
-12.81991201970356
 30
0.0
 10
46.36838524186875
 20
-11.71007315912902
 30
0.0
 10
46.36838524186875
 20
-11.71007315912902
 30
0.0
 10
46.36838524186875
 20
-11.51523399743311
 30
0.0
 10
46.21062302367137
 20
-11.35729539035135
 30
0.0
 10
46.01560747309108
 20
-11.35729539035135
 30
0.0
 10
46.01560747309108
 20
-11.35729539035135
 30
0.0
 10
44.41639529166816
 20
-11.35729539035135
 30
0.0
 10
44.41639529166816
 20
-11.35729539035135
 30
0.0
 10
44.22141501886474
 20
-11.35729539035135
 30
0.0
 10
44.0636175228905
 20
-11.51523399743311
 30
0.0
 10
44.0636175228905
 20
-11.71007315912902
 30
0.0
 10
44.0636175228905
 20
-11.71007315912902
 30
0.0
 10
44.0636175228905
 20
-12.81991201970356
 30
0.0
 10
44.0636175228905
 20
-12.81991201970356
 30
0.0
 10
44.0636175228905
 20
-12.81991201970356
 30
0.0
 10
41.37403981372956
 20
-12.81991201970356
 30
0.0
 10
41.37403981372956
 20
-12.81991201970356
 30
0.0
 10
41.37403981372956
 20
-12.81991201970356
 30
0.0
 10
41.37403981372956
 20
-11.71007315912902
 30
0.0
 10
41.37403981372956
 20
-11.71007315912902
 30
0.0
 10
41.37403981372956
 20
-11.51523399743311
 30
0.0
 10
41.2162423177553
 20
-11.35729539035135
 30
0.0
 10
41.02126204495188
 20
-11.35729539035135
 30
0.0
 10
41.02126204495188
 20
-11.35729539035135
 30
0.0
 10
40.12761231635721
 20
-11.35729539035135
 30
0.0
 10
40.12761231635721
 20
-11.35729539035135
 30
0.0
 10
39.93262512828089
 20
-11.35729539035135
 30
0.0
 10
39.77483453866764
 20
-11.51523399743311
 30
0.0
 10
39.77483453866764
 20
-11.71007315912902
 30
0.0
 10
39.77483453866764
 20
-11.71007315912902
 30
0.0
 10
39.77483453866764
 20
-12.81991201970356
 30
0.0
 10
39.77483453866764
 20
-12.81991201970356
 30
0.0
 10
39.77483453866764
 20
-12.81991201970356
 30
0.0
 10
38.33754044675267
 20
-12.81991201970356
 30
0.0
 10
38.33754044675267
 20
-12.81991201970356
 30
0.0
 10
38.33754044675267
 20
-12.81991201970356
 30
0.0
 10
38.33754044675267
 20
-11.71007315912902
 30
0.0
 10
38.33754044675267
 20
-11.71007315912902
 30
0.0
 10
38.33754044675267
 20
-11.51523399743311
 30
0.0
 10
38.17974295077842
 20
-11.35729539035135
 30
0.0
 10
37.984762677975
 20
-11.35729539035135
 30
0.0
 10
37.984762677975
 20
-11.35729539035135
 30
0.0
 10
37.09110603410741
 20
-11.35729539035135
 30
0.0
 10
37.09110603410741
 20
-11.35729539035135
 30
0.0
 10
36.896125761304
 20
-11.35729539035135
 30
0.0
 10
36.73832826532975
 20
-11.51523399743311
 30
0.0
 10
36.73832826532975
 20
-11.71007315912902
 30
0.0
 10
36.73832826532975
 20
-11.71007315912902
 30
0.0
 10
36.73832826532975
 20
-12.81991201970356
 30
0.0
 10
36.73832826532975
 20
-12.81991201970356
 30
0.0
 10
36.73832826532975
 20
-12.81991201970356
 30
0.0
 10
34.49039304490157
 20
-12.81991201970356
 30
0.0
 10
34.49039304490157
 20
-12.81991201970356
 30
0.0
 10
34.49039304490157
 20
-12.81991201970356
 30
0.0
 10
34.49039304490157
 20
-15.87726055281521
 30
0.0
 10
34.49039304490157
 20
-15.87726055281521
 30
0.0
 10
34.49039304490157
 20
-15.87726055281521
 30
0.0
 10
33.18229307827399
 20
-15.87726055281521
 30
0.0
 10
33.18229307827399
 20
-15.87726055281521
 30
0.0
 10
32.98731280547057
 20
-15.87726055281521
 30
0.0
 10
32.82951530949631
 20
-16.03519456245319
 30
0.0
 10
32.82951530949631
 20
-16.23003832159288
 30
0.0
 10
32.82951530949631
 20
-16.23003832159288
 30
0.0
 10
32.82951530949631
 20
-16.75920497475938
 30
0.0
 10
32.82951530949631
 20
-16.75920497475938
 30
0.0
 10
32.82951530949631
 20
-16.9540088586784
 30
0.0
 10
32.98731280547057
 20
-17.11198274353704
 30
0.0
 10
33.18229307827399
 20
-17.11198274353704
 30
0.0
 10
33.18229307827399
 20
-17.11198274353704
 30
0.0
 10
32.8884291968822
 20
-17.11198274353704
 30
0.0
 10
32.8884291968822
 20
-17.11198274353704
 30
0.0
 10
32.69344892407878
 20
-17.11198274353704
 30
0.0
 10
32.53565142810452
 20
-17.26991678436673
 30
0.0
 10
32.53565142810452
 20
-17.46476051231471
 30
0.0
 10
32.53565142810452
 20
-17.46476051231471
 30
0.0
 10
32.53565142810452
 20
-21.63935623914523
 30
0.0
 10
32.53565142810452
 20
-21.63935623914523
 30
0.0
 10
32.53565142810452
 20
-21.8341556721146
 30
0.0
 10
32.69344892407878
 20
-21.9921340079229
 30
0.0
 10
32.8884291968822
 20
-21.9921340079229
 30
0.0
 10
32.69344892407878
 20
-21.9921340079229
 30
0.0
 10
32.53565142810452
 20
-22.15007261500467
 30
0.0
 10
32.53565142810452
 20
-22.34491177670057
 30
0.0
 10
32.53565142810452
 20
-22.34491177670057
 30
0.0
 10
32.53565142810452
 20
-64.49081320146905
 30
0.0
 10
32.53565142810452
 20
-64.49081320146905
 30
0.0
 10
32.53565142810452
 20
-64.68579347427246
 30
0.0
 10
32.69344892407878
 20
-64.84359097024671
 30
0.0
 10
32.8884291968822
 20
-64.84359097024671
 30
0.0
 10
32.8884291968822
 20
-64.84359097024671
 30
0.0
 10
39.10613737158858
 20
-64.84359097024671
 30
0.0
 10
39.10613737158858
 20
-64.84359097024671
 30
0.0
 10
39.10613737158858
 20
-64.84359097024671
 30
0.0
 10
39.10613737158858
 20
-68.52916615399763
 30
0.0
 10
39.10613737158858
 20
-68.52916615399763
 30
0.0
 10
39.10613737158858
 20
-68.72414642680105
 30
0.0
 10
39.26393486756282
 20
-68.8819439227753
 30
0.0
 10
39.45891514036624
 20
-68.8819439227753
 30
0.0
 10
39.45891514036624
 20
-68.8819439227753
 30
0.0
 10
42.66319561417378
 20
-68.8819439227753
 30
0.0
 10
42.66319561417378
 20
-68.8819439227753
 30
0.0
 10
42.8581758869772
 20
-68.8819439227753
 30
0.0
 10
43.01597338295145
 20
-68.72414642680105
 30
0.0
 10
43.01597338295145
 20
-68.52916615399763
 30
0.0
 10
43.01597338295145
 20
-68.52916615399763
 30
0.0
 10
43.01597338295145
 20
-64.84359097024671
 30
0.0
 10
43.01597338295145
 20
-64.84359097024671
 30
0.0
 10
43.01597338295145
 20
-64.84359097024671
 30
0.0
 10
49.23332877988906
 20
-64.84359097024671
 30
0.0
 10
49.23332877988906
 20
-64.84359097024671
 30
0.0
 10
49.42834433046936
 20
-64.84359097024671
 30
0.0
 10
49.58610654866673
 20
-64.68579347427246
 30
0.0
 10
49.58610654866673
 20
-64.49081320146905
 30
0.0
 10
49.58610654866673
 20
-64.49081320146905
 30
0.0
 10
49.58610654866673
 20
-22.34491177670057
 30
0.0
 10
49.58610654866673
 20
-22.34491177670057
 30
0.0
 10
49.58610654866673
 20
-22.15007261500467
 30
0.0
 10
49.42834433046936
 20
-21.9921340079229
 30
0.0
 10
49.23332877988906
 20
-21.9921340079229
 30
0.0
 10
49.42834433046936
 20
-21.9921340079229
 30
0.0
 10
49.58610654866673
 20
-21.8341556721146
 30
0.0
 10
49.58610654866673
 20
-21.63935623914523
 30
0.0
  0
LINE
  5
9C
330
70
100
AcDbEntity
  8
Capa 1
 62
   250
420
  1907996
370
     9
100
AcDbLine
 10
72.05709791982842
 20
-26.76736916387428
 30
0.0
 11
72.05709791982842
 21
-18.47744437536788
 31
0.0
  0
LINE
  5
9D
330
70
100
AcDbEntity
  8
Capa 1
 62
   250
420
  1907996
370
     9
100
AcDbLine
 10
72.05709791982842
 20
-26.76701638610551
 30
0.0
 11
64.87785865854163
 21
-30.91180239147432
 31
0.0
  0
LINE
  5
9E
330
70
100
AcDbEntity
  8
Capa 1
 62
   250
420
  1907996
370
     9
100
AcDbLine
 10
72.05674514205964
 20
-26.76701638610551
 30
0.0
 11
79.23598440334643
 21
-30.9121551692431
 31
0.0
  0
LWPOLYLINE
  5
9F
330
70
100
AcDbEntity
  8
Capa 1
 62
   250
420
  1907996
370
     9
100
AcDbPolyline
 90
        4
 70
     1
 43
0.0
 10
76.43235364153968
 20
-28.24702495945845
 10
72.77644706814296
 20
-21.91476984322996
 10
75.84981171195711
 20
-20.13987433295544
 10
79.50575356313072
 20
-26.47247789317729
  0
LINE
  5
A0
330
70
100
AcDbEntity
  8
Capa 1
 62
   250
420
  1907996
370
     9
100
AcDbLine
 10
76.03099837400133
 20
-20.45352904717599
 30
0.0
 11
72.95763373018717
 21
-22.22810705745828
 31
0.0
  0
LINE
  5
A1
330
70
100
AcDbEntity
  8
Capa 1
 62
   250
420
  1907996
370
     9
100
AcDbLine
 10
79.32488440107841
 20
-26.15861584607154
 30
0.0
 11
76.25148447948737
 21
-27.93319385635384
 31
0.0
  0
LWPOLYLINE
  5
A2
330
70
100
AcDbEntity
  8
Capa 1
 62
   250
420
  1907996
370
     9
100
AcDbPolyline
 90
        4
 70
     1
 43
0.0
 10
64.60844227652612
 20
-26.47230583806865
 10
68.26403134993094
 20
-20.13987433295544
 10
71.33774877151388
 20
-21.91409956546928
 10
67.68184219811717
 20
-28.24635468169777
  0
LINE
  5
A3
330
70
100
AcDbEntity
  8
Capa 1
 62
   250
420
  1907996
370
     9
100
AcDbLine
 10
71.15688730860002
 20
-22.22793066857358
 30
0.0
 11
68.08351496564741
 21
-20.45370543606038
 31
0.0
  0
LINE
  5
A4
330
70
100
AcDbEntity
  8
Capa 1
 62
   250
420
  1907996
370
     9
100
AcDbLine
 10
67.86302886016136
 20
-27.93284107858506
 30
0.0
 11
64.78966421634722
 21
-26.15879223495593
 31
0.0
  0
INSERT
  5
A6
330
70
100
AcDbEntity
  8
Capa 1
100
AcDbBlockReference
  2
Block_0
 10
0.0
 20
0.0
 30
0.0
  0
LINE
  5
AC
330
70
100
AcDbEntity
  8
Capa 1
 62
   250
420
  1907996
370
     9
100
AcDbLine
 10
70.11337064219404
 20
-17.43442162419983
 30
0.0
 11
77.78800805139851
 21
-34.28146508328484
 31
0.0
  0
LINE
  5
AD
330
70
100
AcDbEntity
  8
Capa 1
 62
   251
420
  4544096
370
    25
100
AcDbLine
 10
56.4236099853386
 20
-43.09470041399602
 30
0.0
 11
74.77908640708732
 21
-43.09470041399602
 31
0.0
  0
LINE
  5
AE
330
70
100
AcDbEntity
  8
Capa 1
 62
   251
420
  4544096
370
    25
100
AcDbLine
 10
105.4776716289545
 20
-42.96815902833611
 30
0.0
 11
112.3950876308406
 21
-42.96815902833611
 31
0.0
  0
LINE
  5
AF
330
70
100
AcDbEntity
  8
Capa 1
 62
   251
420
  4544096
370
    25
100
AcDbLine
 10
56.4236099853386
 20
-64.9362656901046
 30
0.0
 11
74.77908640708732
 21
-64.9362656901046
 31
0.0
  0
LINE
  5
B0
330
70
100
AcDbEntity
  8
Capa 1
 62
   251
420
  4544096
370
    25
100
AcDbLine
 10
78.58969209900324
 20
-64.89513180226513
 30
0.0
 11
85.35266278326176
 21
-64.89513180226513
 31
0.0
  0
LINE
  5
B1
330
70
100
AcDbEntity
  8
Capa 1
 62
   251
420
  4544096
370
    25
100
AcDbLine
 10
89.85282793663557
 20
-64.72414041773859
 30
0.0
 11
95.68880334521598
 21
-64.72414041773859
 31
0.0
  0
LINE
  5
B2
330
70
100
AcDbEntity
  8
Capa 1
 62
   251
420
  4544096
370
    25
100
AcDbLine
 10
98.64328722275581
 20
-64.70357347381886
 30
0.0
 11
101.7800379295824
 21
-64.70357347381886
 31
0.0
  0
LINE
  5
B3
330
70
100
AcDbEntity
  8
Capa 1
 62
   251
420
  4544096
370
    25
100
AcDbLine
 10
105.4776716289545
 20
-64.59759903207869
 30
0.0
 11
112.3950876308406
 21
-64.59759903207869
 31
0.0
  0
LINE
  5
B4
330
70
100
AcDbEntity
  8
Capa 1
 62
   251
420
  4544096
370
     9
100
AcDbLine
 10
78.58969209900324
 20
-51.81088658051648
 30
0.0
 11
85.22565359637242
 21
-51.81088658051648
 31
0.0
  0
LINE
  5
B5
330
70
100
AcDbEntity
  8
Capa 1
 62
   251
420
  4544096
370
     9
100
AcDbLine
 10
89.85282793663557
 20
-51.61932825207021
 30
0.0
 11
95.68880334521598
 21
-51.61932825207021
 31
0.0
  0
LINE
  5
B6
330
70
100
AcDbEntity
  8
Capa 1
 62
   251
420
  4544096
370
     9
100
AcDbLine
 10
98.64328722275581
 20
-51.59876130815047
 30
0.0
 11
101.7800379295824
 21
-51.59876130815047
 31
0.0
  0
LINE
  5
B7
330
70
100
AcDbEntity
  8
Capa 1
 62
   251
420
  4544096
370
     9
100
AcDbLine
 10
105.4776716289545
 20
-51.49278686641094
 30
0.0
 11
112.3950876308406
 21
-51.49278686641094
 31
0.0
  0
LINE
  5
B8
330
70
100
AcDbEntity
  8
Capa 1
 62
   251
420
  4544096
370
     9
100
AcDbLine
 10
78.58969209900324
 20
-56.17912202462907
 30
0.0
 11
85.22565359637242
 21
-56.17912202462907
 31
0.0
  0
LINE
  5
B9
330
70
100
AcDbEntity
  8
Capa 1
 62
   251
420
  4544096
370
     9
100
AcDbLine
 10
89.85282793663557
 20
-55.98756369618278
 30
0.0
 11
95.68880334521598
 21
-55.98756369618278
 31
0.0
  0
LINE
  5
BA
330
70
100
AcDbEntity
  8
Capa 1
 62
   251
420
  4544096
370
     9
100
AcDbLine
 10
98.64328722275581
 20
-55.96699675226306
 30
0.0
 11
101.7800379295824
 21
-55.96699675226306
 31
0.0
  0
LINE
  5
BB
330
70
100
AcDbEntity
  8
Capa 1
 62
   251
420
  4544096
370
     9
100
AcDbLine
 10
105.4776716289545
 20
-55.86102231052352
 30
0.0
 11
112.3950876308406
 21
-55.86102231052352
 31
0.0
  0
LINE
  5
BC
330
70
100
AcDbEntity
  8
Capa 1
 62
   251
420
  4544096
370
     9
100
AcDbLine
 10
89.85282793663557
 20
-60.3557638625185
 30
0.0
 11
95.68880334521598
 21
-60.3557638625185
 31
0.0
  0
LINE
  5
BD
330
70
100
AcDbEntity
  8
Capa 1
 62
   251
420
  4544096
370
     9
100
AcDbLine
 10
105.4776716289545
 20
-60.22922247685859
 30
0.0
 11
112.3950876308406
 21
-60.22922247685859
 31
0.0
  0
LINE
  5
BE
330
70
100
AcDbEntity
  8
Capa 1
 62
   251
420
  4544096
370
    35
100
AcDbLine
 10
78.13136674752001
 20
-47.71531842284637
 30
0.0
 11
85.37276223873609
 21
-47.71531842284637
 31
0.0
  0
LINE
  5
BF
330
70
100
AcDbEntity
  8
Capa 1
 62
   251
420
  4544096
370
    35
100
AcDbLine
 10
105.4776716289545
 20
-47.71531842284637
 30
0.0
 11
112.3950876308406
 21
-47.71531842284637
 31
0.0
  0
INSERT
  5
C1
330
70
100
AcDbEntity
  8
Capa 1
100
AcDbBlockReference
  2
Block_1
 10
0.0
 20
0.0
 30
0.0
  0
LINE
  5
C9
330
70
100
AcDbEntity
  8
Capa 1
 62
     7
420
 16777215
370
   158
100
AcDbLine
 10
70.22360602216025
 20
-51.83145352443622
 30
0.0
 11
70.22360602216025
 21
-47.46275566570717
 31
0.0
  0
LINE
  5
CA
330
70
100
AcDbEntity
  8
Capa 1
 62
     7
420
 16777215
370
   158
100
AcDbLine
 10
86.1075980183166
 20
-51.81088658051648
 30
0.0
 11
86.1075980183166
 21
-47.44218872178744
 31
0.0
  0
LINE
  5
CB
330
70
100
AcDbEntity
  8
Capa 1
 62
     7
420
 16777215
370
   158
100
AcDbLine
 10
96.57110056721769
 20
-51.61932825207021
 30
0.0
 11
96.57110056721769
 21
-47.2506303933418
 31
0.0
  0
LINE
  5
CC
330
70
100
AcDbEntity
  8
Capa 1
 62
     7
420
 16777215
370
   158
100
AcDbLine
 10
102.6619823515266
 20
-51.59876130815047
 30
0.0
 11
102.6619823515266
 21
-47.23006344942207
 31
0.0
  0
LINE
  5
CD
330
70
100
AcDbEntity
  8
Capa 1
 62
     7
420
 16777215
370
   158
100
AcDbLine
 10
70.22360602216025
 20
-56.19968896854881
 30
0.0
 11
70.22360602216025
 21
-51.83145352443622
 31
0.0
  0
LINE
  5
CE
330
70
100
AcDbEntity
  8
Capa 1
 62
     7
420
 16777215
370
   158
100
AcDbLine
 10
86.1075980183166
 20
-56.17912202462907
 30
0.0
 11
86.1075980183166
 21
-51.81088658051648
 31
0.0
  0
LINE
  5
CF
330
70
100
AcDbEntity
  8
Capa 1
 62
     7
420
 16777215
370
   158
100
AcDbLine
 10
96.57110056721769
 20
-55.98756369618278
 30
0.0
 11
96.57110056721769
 21
-51.61932825207021
 31
0.0
  0
LINE
  5
D0
330
70
100
AcDbEntity
  8
Capa 1
 62
     7
420
 16777215
370
   158
100
AcDbLine
 10
102.6619823515266
 20
-55.96699675226306
 30
0.0
 11
102.6619823515266
 21
-51.59876130815047
 31
0.0
  0
LINE
  5
D1
330
70
100
AcDbEntity
  8
Capa 1
 62
     7
420
 16777215
370
   158
100
AcDbLine
 10
70.22360602216025
 20
-60.56788913488451
 30
0.0
 11
70.22360602216025
 21
-56.19968896854881
 31
0.0
  0
LINE
  5
D2
330
70
100
AcDbEntity
  8
Capa 1
 62
     7
420
 16777215
370
   158
100
AcDbLine
 10
96.57110056721769
 20
-60.3557638625185
 30
0.0
 11
96.57110056721769
 21
-55.98756369618278
 31
0.0
  0
LINE
  5
D3
330
70
100
AcDbEntity
  8
Capa 1
 62
     7
420
 16777215
370
   158
100
AcDbLine
 10
102.6619823515266
 20
-60.33519691859876
 30
0.0
 11
102.6619823515266
 21
-55.96699675226306
 31
0.0
  0
MTEXT
  5
D4
330
70
100
AcDbEntity
  8
Capa 1
100
AcDbMText
 10
55.71804604726841
 20
-46.54231413631364
 30
0.0
 40
0.2
 41
0.0
 46
0.0
 71
     7
 72
     1
  1
\C251;\c6313541;\FArial|b0|i0|c1;\H2.497667;\W1.000000; d x h (mm)
 73
     1
 44
1.0
  0
MTEXT
  5
D5
330
70
100
AcDbEntity
  8
Capa 1
100
AcDbMText
 10
78.70811562159902
 20
-46.45303233362871
 30
0.0
 40
0.2
 41
0.0
 46
0.0
 71
     7
 72
     1
  1
\C251;\c6313541;\FArial|b0|i0|c1;\H2.497667;\W1.000000;d Ø
 73
     1
 44
1.0
  0
MTEXT
  5
D6
330
70
100
AcDbEntity
  8
Capa 1
100
AcDbMText
 10
89.85110471386535
 20
-46.35085295472088
 30
0.0
 40
0.2
 41
0.0
 46
0.0
 71
     7
 72
     1
  1
\C251;\c6313541;\FArial|b0|i0|c1;\H2.497667;\W1.000000;h
 73
     1
 44
1.0
  0
MTEXT
  5
D7
330
70
100
AcDbEntity
  8
Capa 1
100
AcDbMText
 10
98.64018925214118
 20
-46.33029004104329
 30
0.0
 40
0.2
 41
0.0
 46
0.0
 71
     7
 72
     1
  1
\C251;\c6313541;\FArial|b0|i0|c1;\H2.497667;\W1.000000;B
 73
     1
 44
1.0
  0
MTEXT
  5
D8
330
70
100
AcDbEntity
  8
Capa 1
100
AcDbMText
 10
105.4739021885295
 20
-46.22431029117829
 30
0.0
 40
0.2
 41
0.0
 46
0.0
 71
     7
 72
     1
  1
\C251;\c6313541;\FArial|b0|i0|c1;\H2.497667;\W1.000000;A Ø
 73
     1
 44
1.0
  0
MTEXT
  5
D9
330
70
100
AcDbEntity
  8
Capa 1
100
AcDbMText
 10
56.82013209299983
 20
-50.93033225587635
 30
0.0
 40
0.2
 41
0.0
 46
0.0
 71
     7
 72
     1
  1
\C251;\c6313541;\FArial|b0|i0|c1;\H2.497667;\W1.000000;63,5x98
 73
     1
 44
1.0
  0
MTEXT
  5
DA
330
70
100
AcDbEntity
  8
Capa 1
100
AcDbMText
 10
78.58471660768673
 20
-50.90975857627539
 30
0.0
 40
0.2
 41
0.0
 46
0.0
 71
     7
 72
     1
  1
\C251;\c6313541;\FArial|b0|i0|c1;\H2.497667;\W1.000000;63,5
 73
     1
 44
1.0
  0
MTEXT
  5
DB
330
70
100
AcDbEntity
  8
Capa 1
100
AcDbMText
 10
89.84765961838011
 20
-50.7182005013721
 30
0.0
 40
0.2
 41
0.0
 46
0.0
 71
     7
 72
     1
  1
\C251;\c6313541;\FArial|b0|i0|c1;\H2.497667;\W1.000000;98
 73
     1
 44
1.0
  0
MTEXT
  5
DC
330
70
100
AcDbEntity
  8
Capa 1
100
AcDbMText
 10
98.63674415665592
 20
-50.69763758769451
 30
0.0
 40
0.2
 41
0.0
 46
0.0
 71
     7
 72
     1
  1
\C251;\c6313541;\FArial|b0|i0|c1;\H2.497667;\W1.000000;13
 73
     1
 44
1.0
  0
MTEXT
  5
DD
330
70
100
AcDbEntity
  8
Capa 1
100
AcDbMText
 10
105.4704570930443
 20
-50.59165783782951
 30
0.0
 40
0.2
 41
0.0
 46
0.0
 71
     7
 72
     1
  1
\C251;\c6313541;\FArial|b0|i0|c1;\H2.497667;\W1.000000;68,5
 73
     1
 44
1.0
  0
MTEXT
  5
DE
330
70
100
AcDbEntity
  8
Capa 1
100
AcDbMText
 10
56.81651474274032
 20
-55.29767980252758
 30
0.0
 40
0.2
 41
0.0
 46
0.0
 71
     7
 72
     1
  1
\C251;\c6313541;\FArial|b0|i0|c1;\H2.497667;\W1.000000;63,5x127
 73
     1
 44
1.0
  0
MTEXT
  5
DF
330
70
100
AcDbEntity
  8
Capa 1
100
AcDbMText
 10
78.58109925742721
 20
-55.2771061229266
 30
0.0
 40
0.2
 41
0.0
 46
0.0
 71
     7
 72
     1
  1
\C251;\c6313541;\FArial|b0|i0|c1;\H2.497667;\W1.000000;63,5
 73
     1
 44
1.0
  0
MTEXT
  5
E0
330
70
100
AcDbEntity
  8
Capa 1
100
AcDbMText
 10
89.84421452289486
 20
-55.08554804802332
 30
0.0
 40
0.2
 41
0.0
 46
0.0
 71
     7
 72
     1
  1
\C251;\c6313541;\FArial|b0|i0|c1;\H2.497667;\W1.000000;127
 73
     1
 44
1.0
  0
MTEXT
  5
E1
330
70
100
AcDbEntity
  8
Capa 1
100
AcDbMText
 10
98.63329906117067
 20
-55.06498513434573
 30
0.0
 40
0.2
 41
0.0
 46
0.0
 71
     7
 72
     1
  1
\C251;\c6313541;\FArial|b0|i0|c1;\H2.497667;\W1.000000;13
 73
     1
 44
1.0
  0
MTEXT
  5
E2
330
70
100
AcDbEntity
  8
Capa 1
100
AcDbMText
 10
105.467011997559
 20
-54.95900538448074
 30
0.0
 40
0.2
 41
0.0
 46
0.0
 71
     7
 72
     1
  1
\C251;\c6313541;\FArial|b0|i0|c1;\H2.497667;\W1.000000;68,5
 73
     1
 44
1.0
  0
MTEXT
  5
E3
330
70
100
AcDbEntity
  8
Capa 1
100
AcDbMText
 10
56.81306964725507
 20
-59.66519960395306
 30
0.0
 40
0.2
 41
0.0
 46
0.0
 71
     7
 72
     1
  1
\C251;\c6313541;\FArial|b0|i0|c1;\H2.497667;\W1.000000;63,5x175
 73
     1
 44
1.0
  0
MTEXT
  5
E4
330
70
100
AcDbEntity
  8
Capa 1
100
AcDbMText
 10
89.84042491786109
 20
-59.4530678494488
 30
0.0
 40
0.2
 41
0.0
 46
0.0
 71
     7
 72
     1
  1
\C251;\c6313541;\FArial|b0|i0|c1;\H2.497667;\W1.000000;175
 73
     1
 44
1.0
  0
MTEXT
  5
E5
330
70
100
AcDbEntity
  8
Capa 1
100
AcDbMText
 10
105.4635669020738
 20
-59.32652518590622
 30
0.0
 40
0.2
 41
0.0
 46
0.0
 71
     7
 72
     1
  1
\C251;\c6313541;\FArial|b0|i0|c1;\H2.497667;\W1.000000;68,5
 73
     1
 44
1.0
  0
MTEXT
  5
E6
330
70
100
AcDbEntity
  8
Capa 1
100
AcDbMText
 10
56.80945229699556
 20
-64.03254715060427
 30
0.0
 40
0.2
 41
0.0
 46
0.0
 71
     7
 72
     1
  1
\C251;\c6313541;\FArial|b0|i0|c1;\H2.497667;\W1.000000;63,5x202
 73
     1
 44
1.0
  0
MTEXT
  5
E7
330
70
100
AcDbEntity
  8
Capa 1
100
AcDbMText
 10
78.57403681168245
 20
-64.0119734710033
 30
0.0
 40
0.2
 41
0.0
 46
0.0
 71
     7
 72
     1
  1
\C251;\c6313541;\FArial|b0|i0|c1;\H2.497667;\W1.000000;63,5
 73
     1
 44
1.0
  0
MTEXT
  5
E8
330
70
100
AcDbEntity
  8
Capa 1
100
AcDbMText
 10
89.83697982237583
 20
-63.82041539610002
 30
0.0
 40
0.2
 41
0.0
 46
0.0
 71
     7
 72
     1
  1
\C251;\c6313541;\FArial|b0|i0|c1;\H2.497667;\W1.000000;202
 73
     1
 44
1.0
  0
MTEXT
  5
E9
330
70
100
AcDbEntity
  8
Capa 1
100
AcDbMText
 10
98.62606436065165
 20
-63.79985248242244
 30
0.0
 40
0.2
 41
0.0
 46
0.0
 71
     7
 72
     1
  1
\C251;\c6313541;\FArial|b0|i0|c1;\H2.497667;\W1.000000;13
 73
     1
 44
1.0
  0
MTEXT
  5
EA
330
70
100
AcDbEntity
  8
Capa 1
100
AcDbMText
 10
105.45977729704
 20
-63.69387273255743
 30
0.0
 40
0.2
 41
0.0
 46
0.0
 71
     7
 72
     1
  1
\C251;\c6313541;\FArial|b0|i0|c1;\H2.497667;\W1.000000;68,5
 73
     1
 44
1.0
  0
LINE
  5
EB
330
70
100
AcDbEntity
  8
Capa 1
 62
   251
420
  4544096
370
    25
100
AcDbLine
 10
78.01082885957395
 20
-43.09470041399602
 30
0.0
 11
85.80451683580173
 21
-43.09470041399602
 31
0.0
  0
LINE
  5
EC
330
70
100
AcDbEntity
  8
Capa 1
 62
   251
420
  4544096
370
    25
100
AcDbLine
 10
56.4236099853386
 20
-47.71531842284637
 30
0.0
 11
74.77908640708732
 21
-47.71531842284637
 31
0.0
  0
LINE
  5
ED
330
70
100
AcDbEntity
  8
Capa 1
 62
   251
420
  4544096
370
     9
100
AcDbLine
 10
56.4236099853386
 20
-51.83145352443622
 30
0.0
 11
74.77908640708732
 21
-51.83145352443622
 31
0.0
  0
LINE
  5
EE
330
70
100
AcDbEntity
  8
Capa 1
 62
   251
420
  4544096
370
     9
100
AcDbLine
 10
56.4236099853386
 20
-56.17912202462907
 30
0.0
 11
74.77908640708732
 21
-56.17912202462907
 31
0.0
  0
LINE
  5
EF
330
70
100
AcDbEntity
  8
Capa 1
 62
   251
420
  4544096
370
     9
100
AcDbLine
 10
56.4236099853386
 20
-60.99021553886919
 30
0.0
 11
74.77908640708732
 21
-60.99021553886919
 31
0.0
  0
LINE
  5
F0
330
70
100
AcDbEntity
  8
Capa 1
 62
   251
420
  4544096
370
     9
100
AcDbLine
 10
78.71670128589258
 20
-60.80674673612228
 30
0.0
 11
85.35266278326176
 21
-60.80674673612228
 31
0.0
  0
MTEXT
  5
F1
330
70
100
AcDbEntity
  8
Capa 1
100
AcDbMText
 10
78.70811562159902
 20
-59.90473601645014
 30
0.0
 40
0.2
 41
0.0
 46
0.0
 71
     7
 72
     1
  1
\C251;\c6313541;\FArial|b0|i0|c1;\H2.497667;\W1.000000;63,5
 73
     1
 44
1.0
  0
LINE
  5
F2
330
70
100
AcDbEntity
  8
Capa 1
 62
   251
420
  4544096
370
    35
100
AcDbLine
 10
89.85282793663557
 20
-47.71531842284637
 30
0.0
 11
95.54964129013173
 21
-47.71531842284637
 31
0.0
  0
LINE
  5
F3
330
70
100
AcDbEntity
  8
Capa 1
 62
   251
420
  4544096
370
    25
100
AcDbLine
 10
89.65368456533161
 20
-43.09470041399602
 30
0.0
 11
95.68880334521598
 21
-43.09470041399602
 31
0.0
  0
LINE
  5
F4
330
70
100
AcDbEntity
  8
Capa 1
 62
   251
420
  4544096
370
    25
100
AcDbLine
 10
98.64328722275581
 20
-43.09470041399602
 30
0.0
 11
102.2675344226753
 21
-43.09470041399602
 31
0.0
  0
LINE
  5
F5
330
70
100
AcDbEntity
  8
Capa 1
 62
   251
420
  4544096
370
    35
100
AcDbLine
 10
98.64328722275581
 20
-47.71531842284637
 30
0.0
 11
102.2778697091311
 21
-47.71531842284637
 31
0.0
  0
MTEXT
  5
F6
330
70
100
AcDbEntity
  8
Capa 1
100
AcDbMText
 10
98.64333290177146
 20
-59.32668667475709
 30
0.0
 40
0.2
 41
0.0
 46
0.0
 71
     7
 72
     1
  1
\C251;\c6313541;\FArial|b0|i0|c1;\H2.497667;\W1.000000;13
 73
     1
 44
1.0
  0
LINE
  5
F7
330
70
100
AcDbEntity
  8
Capa 1
 62
   251
420
  4544096
370
     9
100
AcDbLine
 10
98.64328722275581
 20
-60.33519691859876
 30
0.0
 11
102.6619823515266
 21
-60.33519691859876
 31
0.0
  0
ENDSEC
  0
SECTION
  2
OBJECTS
  0
DICTIONARY
  5
C
330
0
100
AcDbDictionary
281
     1
  3
ACAD_COLOR
350
63
  3
ACAD_DETAILVIEWSTYLE
350
6A
  3
ACAD_GROUP
350
D
  3
ACAD_LAYOUT
350
62
  3
ACAD_MATERIAL
350
10
  3
ACAD_MLEADERSTYLE
350
66
  3
ACAD_MLINESTYLE
350
5F
  3
ACAD_PLOTSETTINGS
350
61
  3
ACAD_PLOTSTYLENAME
350
E
  3
ACAD_SCALELIST
350
42
  3
ACAD_SECTIONVIEWSTYLE
350
68
  3
ACAD_TABLESTYLE
350
64
  3
ACAD_VISUALSTYLE
350
29
  3
ACDB_RECOMPOSE_DATA
350
102
  3
AcDbVariableDictionary
350
F8
  0
DICTIONARY
  5
63
102
{ACAD_REACTORS
330
C
102
}
330
C
100
AcDbDictionary
281
     1
  0
DICTIONARY
  5
6A
102
{ACAD_REACTORS
330
C
102
}
330
C
100
AcDbDictionary
281
     1
  3
Imperial24
350
6B
  0
DICTIONARY
  5
D
102
{ACAD_REACTORS
330
C
102
}
330
C
100
AcDbDictionary
281
     1
  0
DICTIONARY
  5
62
102
{ACAD_REACTORS
330
C
102
}
330
C
100
AcDbDictionary
281
     1
  3
Layout1
350
6F
  3
Layout2
350
77
  3
Model
350
73
  0
DICTIONARY
  5
10
102
{ACAD_REACTORS
330
C
102
}
330
C
100
AcDbDictionary
281
     1
  3
ByBlock
350
19
  3
ByLayer
350
11
  3
Global
350
21
  0
DICTIONARY
  5
66
102
{ACAD_REACTORS
330
C
102
}
330
C
100
AcDbDictionary
281
     1
  3
Standard
350
67
  0
DICTIONARY
  5
5F
102
{ACAD_REACTORS
330
C
102
}
330
C
100
AcDbDictionary
281
     1
  3
Standard
350
60
  0
DICTIONARY
  5
61
102
{ACAD_REACTORS
330
C
102
}
330
C
100
AcDbDictionary
281
     1
  0
ACDBDICTIONARYWDFLT
  5
E
102
{ACAD_REACTORS
330
C
102
}
330
C
100
AcDbDictionary
281
     1
  3
Normal
350
F
100
AcDbDictionaryWithDefault
340
F
  0
DICTIONARY
  5
42
102
{ACAD_REACTORS
330
C
102
}
330
C
100
AcDbDictionary
281
     1
  3
A0
350
43
  3
A1
350
44
  3
A2
350
45
  3
A3
350
46
  3
A4
350
47
  3
A5
350
48
  3
A6
350
49
  3
A7
350
4A
  3
A8
350
4B
  3
A9
350
4C
  3
B0
350
4D
  3
B1
350
4E
  3
B2
350
4F
  3
B3
350
50
  3
B4
350
51
  3
B5
350
52
  3
B6
350
53
  0
DICTIONARY
  5
68
102
{ACAD_REACTORS
330
C
102
}
330
C
100
AcDbDictionary
281
     1
  3
Imperial24
350
69
  0
DICTIONARY
  5
64
102
{ACAD_REACTORS
330
C
102
}
330
C
100
AcDbDictionary
281
     1
  3
Standard
350
65
  0
DICTIONARY
  5
29
102
{ACAD_REACTORS
330
C
102
}
330
C
100
AcDbDictionary
281
     1
  3
2dWireframe
350
2F
  3
Basic
350
2E
  3
Brighten
350
35
  3
ColorChange
350
39
  3
Conceptual
350
32
  3
Dim
350
34
  3
EdgeColorOff
350
41
  3
Facepattern
350
38
  3
Flat
350
2A
  3
FlatWithEdges
350
2B
  3
Gouraud
350
2C
  3
GouraudWithEdges
350
2D
  3
Hidden
350
31
  3
JitterOff
350
3F
  3
Linepattern
350
37
  3
OverhangOff
350
40
  3
Realistic
350
33
  3
Shaded
350
3E
  3
Shaded with edges
350
3D
  3
Shades of Gray
350
3A
  3
Sketchy
350
3B
  3
Thicken
350
36
  3
Wireframe
350
30
  3
X-Ray
350
3C
  0
XRECORD
  5
102
102
{ACAD_REACTORS
330
C
102
}
330
C
100
AcDbXrecord
280
     1
 90
        1
330
65
  0
DICTIONARY
  5
F8
102
{ACAD_REACTORS
330
C
102
}
330
C
100
AcDbDictionary
281
     1
  3
CANNOSCALE
350
FD
  3
CMLEADERSTYLE
350
FA
  3
CTABLESTYLE
350
F9
  3
CVIEWDETAILSTYLE
350
FB
  3
CVIEWSECTIONSTYLE
350
FC
  0
ACDBDETAILVIEWSTYLE
  5
6B
102
{ACAD_XDICTIONARY
360
105
102
}
102
{ACAD_REACTORS
330
6A
102
}
330
6A
100
AcDbModelDocViewStyle
 70
     0
  3
Imperial24
290
     0
100
AcDbDetailViewStyle
 70
     0
 71
     0
 90
        3
 71
     1
340
55
 62
   256
 40
0.24
340
0
 62
   256
 40
0.24
300

 40
0.36
280
     3
 71
     2
340
5D
 90
       25
 62
   256
 71
     3
340
55
 62
   256
 40
0.24
 90
        1
 40
0.75
 90
        1
300
%<\AcVar ViewType \f "%tc1">% %<\AcVar ViewDetailId>%\PSCALE %<\AcVar ViewScale \f "%sn">%
 71
     4
340
5D
 90
       25
 62
   256
340
5D
 90
       25
 62
   256
280
     0
  0
LAYOUT
  5
6F
102
{ACAD_REACTORS
330
62
102
}
330
62
100
AcDbPlotSettings
  1

  2

  4

  6

 40
0.0
 41
0.0
 42
0.0
 43
0.0
 44
0.0
 45
0.0
 46
0.0
 47
0.0
 48
0.0
 49
0.0
140
0.0
141
0.0
142
1.0
143
1.0
 70
   688
 72
     0
 73
     0
 74
     5
  7

 75
    16
147
1.0
 76
     0
 77
     2
 78
   300
148
0.0
149
0.0
100
AcDbLayout
  1
Layout1
 70
     1
 71
     1
 10
0.0
 20
0.0
 11
12.0
 21
9.0
 12
0.0
 22
0.0
 32
0.0
 14
0.0
 24
0.0
 34
0.0
 15
0.0
 25
0.0
 35
0.0
146
0.0
 13
0.0
 23
0.0
 33
0.0
 16
1.0
 26
0.0
 36
0.0
 17
0.0
 27
1.0
 37
0.0
 76
     0
330
6C
  0
LAYOUT
  5
77
102
{ACAD_REACTORS
330
62
102
}
330
62
100
AcDbPlotSettings
  1

  2

  4

  6

 40
0.0
 41
0.0
 42
0.0
 43
0.0
 44
0.0
 45
0.0
 46
0.0
 47
0.0
 48
0.0
 49
0.0
140
0.0
141
0.0
142
1.0
143
1.0
 70
   688
 72
     0
 73
     0
 74
     5
  7

 75
    16
147
1.0
 76
     0
 77
     2
 78
   300
148
0.0
149
0.0
100
AcDbLayout
  1
Layout2
 70
     1
 71
     2
 10
0.0
 20
0.0
 11
12.0
 21
9.0
 12
0.0
 22
0.0
 32
0.0
 14
0.0
 24
0.0
 34
0.0
 15
0.0
 25
0.0
 35
0.0
146
0.0
 13
0.0
 23
0.0
 33
0.0
 16
1.0
 26
0.0
 36
0.0
 17
0.0
 27
1.0
 37
0.0
 76
     0
330
74
  0
LAYOUT
  5
73
102
{ACAD_REACTORS
330
62
102
}
330
62
100
AcDbPlotSettings
  1

  2

  4

  6

 40
0.0
 41
0.0
 42
0.0
 43
0.0
 44
0.0
 45
0.0
 46
0.0
 47
0.0
 48
0.0
 49
0.0
140
0.0
141
0.0
142
1.0
143
1.0
 70
  1712
 72
     0
 73
     0
 74
     0
  7

 75
     0
147
1.0
 76
     0
 77
     2
 78
   300
148
0.0
149
0.0
100
AcDbLayout
  1
Model
 70
     1
 71
     0
 10
0.0
 20
0.0
 11
12.0
 21
9.0
 12
0.0
 22
0.0
 32
0.0
 14
0.0
 24
0.0
 34
0.0
 15
0.0
 25
0.0
 35
0.0
146
0.0
 13
0.0
 23
0.0
 33
0.0
 16
1.0
 26
0.0
 36
0.0
 17
0.0
 27
1.0
 37
0.0
 76
     0
330
70
  0
MATERIAL
  5
19
102
{ACAD_XDICTIONARY
360
1A
102
}
102
{ACAD_REACTORS
330
10
102
}
330
10
100
AcDbMaterial
  1
ByBlock
 72
     0
 43
0.0208333333333333
 43
0.0
 43
0.0
 43
0.0
 43
0.0
 43
0.0208333333333333
 43
0.0
 43
0.0
 43
0.0
 43
0.0
 43
1.0
 43
0.0
 43
0.0
 43
0.0
 43
0.0
 43
1.0
 77
     0
 47
0.0208333333333333
 47
0.0
 47
0.0
 47
0.0
 47
0.0
 47
0.0208333333333333
 47
0.0
 47
0.0
 47
0.0
 47
0.0
 47
1.0
 47
0.0
 47
0.0
 47
0.0
 47
0.0
 47
1.0
171
     0
 49
0.0208333333333333
 49
0.0
 49
0.0
 49
0.0
 49
0.0
 49
0.0208333333333333
 49
0.0
 49
0.0
 49
0.0
 49
0.0
 49
1.0
 49
0.0
 49
0.0
 49
0.0
 49
0.0
 49
1.0
175
     0
142
0.0208333333333333
142
0.0
142
0.0
142
0.0
142
0.0
142
0.0208333333333333
142
0.0
142
0.0
142
0.0
142
0.0
142
1.0
142
0.0
142
0.0
142
0.0
142
0.0
142
1.0
179
     0
144
0.0208333333333333
144
0.0
144
0.0
144
0.0
144
0.0
144
0.0208333333333333
144
0.0
144
0.0
144
0.0
144
0.0
144
1.0
144
0.0
144
0.0
144
0.0
144
0.0
144
1.0
147
0.0208333333333333
147
0.0
147
0.0
147
0.0
147
0.0
147
0.0208333333333333
147
0.0
147
0.0
147
0.0
147
0.0
147
1.0
147
0.0
147
0.0
147
0.0
147
0.0
147
1.0
  0
MATERIAL
  5
11
102
{ACAD_XDICTIONARY
360
12
102
}
102
{ACAD_REACTORS
330
10
102
}
330
10
100
AcDbMaterial
  1
ByLayer
 72
     0
 43
0.0208333333333333
 43
0.0
 43
0.0
 43
0.0
 43
0.0
 43
0.0208333333333333
 43
0.0
 43
0.0
 43
0.0
 43
0.0
 43
1.0
 43
0.0
 43
0.0
 43
0.0
 43
0.0
 43
1.0
 77
     0
 47
0.0208333333333333
 47
0.0
 47
0.0
 47
0.0
 47
0.0
 47
0.0208333333333333
 47
0.0
 47
0.0
 47
0.0
 47
0.0
 47
1.0
 47
0.0
 47
0.0
 47
0.0
 47
0.0
 47
1.0
171
     0
 49
0.0208333333333333
 49
0.0
 49
0.0
 49
0.0
 49
0.0
 49
0.0208333333333333
 49
0.0
 49
0.0
 49
0.0
 49
0.0
 49
1.0
 49
0.0
 49
0.0
 49
0.0
 49
0.0
 49
1.0
175
     0
142
0.0208333333333333
142
0.0
142
0.0
142
0.0
142
0.0
142
0.0208333333333333
142
0.0
142
0.0
142
0.0
142
0.0
142
1.0
142
0.0
142
0.0
142
0.0
142
0.0
142
1.0
179
     0
144
0.0208333333333333
144
0.0
144
0.0
144
0.0
144
0.0
144
0.0208333333333333
144
0.0
144
0.0
144
0.0
144
0.0
144
1.0
144
0.0
144
0.0
144
0.0
144
0.0
144
1.0
147
0.0208333333333333
147
0.0
147
0.0
147
0.0
147
0.0
147
0.0208333333333333
147
0.0
147
0.0
147
0.0
147
0.0
147
1.0
147
0.0
147
0.0
147
0.0
147
0.0
147
1.0
  0
MATERIAL
  5
21
102
{ACAD_XDICTIONARY
360
22
102
}
102
{ACAD_REACTORS
330
10
102
}
330
10
100
AcDbMaterial
  1
Global
 72
     0
 43
0.0208333333333333
 43
0.0
 43
0.0
 43
0.0
 43
0.0
 43
0.0208333333333333
 43
0.0
 43
0.0
 43
0.0
 43
0.0
 43
1.0
 43
0.0
 43
0.0
 43
0.0
 43
0.0
 43
1.0
 77
     0
 47
0.0208333333333333
 47
0.0
 47
0.0
 47
0.0
 47
0.0
 47
0.0208333333333333
 47
0.0
 47
0.0
 47
0.0
 47
0.0
 47
1.0
 47
0.0
 47
0.0
 47
0.0
 47
0.0
 47
1.0
171
     0
 49
0.0208333333333333
 49
0.0
 49
0.0
 49
0.0
 49
0.0
 49
0.0208333333333333
 49
0.0
 49
0.0
 49
0.0
 49
0.0
 49
1.0
 49
0.0
 49
0.0
 49
0.0
 49
0.0
 49
1.0
175
     0
142
0.0208333333333333
142
0.0
142
0.0
142
0.0
142
0.0
142
0.0208333333333333
142
0.0
142
0.0
142
0.0
142
0.0
142
1.0
142
0.0
142
0.0
142
0.0
142
0.0
142
1.0
179
     0
144
0.0208333333333333
144
0.0
144
0.0
144
0.0
144
0.0
144
0.0208333333333333
144
0.0
144
0.0
144
0.0
144
0.0
144
1.0
144
0.0
144
0.0
144
0.0
144
0.0
144
1.0
147
0.0208333333333333
147
0.0
147
0.0
147
0.0
147
0.0
147
0.0208333333333333
147
0.0
147
0.0
147
0.0
147
0.0
147
1.0
147
0.0
147
0.0
147
0.0
147
0.0
147
1.0
  0
MLEADERSTYLE
  5
67
102
{ACAD_REACTORS
330
66
102
}
330
66
100
AcDbMLeaderStyle
179
     2
170
     2
171
     1
172
     0
 90
        2
 40
0.0
 41
0.0
173
     1
 91
-1056964608
340
5B
 92
       -2
290
     1
 42
0.09
291
     1
 43
0.36
  3
Standard
 44
0.18
300

342
55
174
     1
178
     6
175
     1
176
     0
 93
-1056964608
 45
0.18
292
     0
297
     0
 46
0.18
 94
-1056964608
 47
1.0
 49
1.0
140
1.0
293
     1
141
0.0
294
     1
177
     0
142
1.0
295
     0
296
     0
143
0.125
271
     0
272
     9
273
     9
298
     1
  0
MLINESTYLE
  5
60
102
{ACAD_REACTORS
330
5F
102
}
330
5F
100
AcDbMlineStyle
  2
STANDARD
 70
     0
  3

 62
   256
 51
90.0
 52
90.0
 71
     2
 49
0.5
 62
   256
  6
BYLAYER
 49
-0.5
 62
   256
  6
BYLAYER
  0
ACDBPLACEHOLDER
  5
F
102
{ACAD_REACTORS
330
E
102
}
330
E
  0
SCALE
  5
43
102
{ACAD_REACTORS
330
42
102
}
330
42
100
AcDbScale
 70
     0
300
1:1
140
1.0
141
1.0
290
     1
  0
SCALE
  5
44
102
{ACAD_REACTORS
330
42
102
}
330
42
100
AcDbScale
 70
     0
300
1/128" = 1'-0"
140
0.0078125
141
12.0
290
     0
  0
SCALE
  5
45
102
{ACAD_REACTORS
330
42
102
}
330
42
100
AcDbScale
 70
     0
300
1/64" = 1'-0"
140
0.015625
141
12.0
290
     0
  0
SCALE
  5
46
102
{ACAD_REACTORS
330
42
102
}
330
42
100
AcDbScale
 70
     0
300
1/32" = 1'-0"
140
0.03125
141
12.0
290
     0
  0
SCALE
  5
47
102
{ACAD_REACTORS
330
42
102
}
330
42
100
AcDbScale
 70
     0
300
1/16" = 1'-0"
140
0.0625
141
12.0
290
     0
  0
SCALE
  5
48
102
{ACAD_REACTORS
330
42
102
}
330
42
100
AcDbScale
 70
     0
300
3/32" = 1'-0"
140
0.09375
141
12.0
290
     0
  0
SCALE
  5
49
102
{ACAD_REACTORS
330
42
102
}
330
42
100
AcDbScale
 70
     0
300
1/8" = 1'-0"
140
0.125
141
12.0
290
     0
  0
SCALE
  5
4A
102
{ACAD_REACTORS
330
42
102
}
330
42
100
AcDbScale
 70
     0
300
3/16" = 1'-0"
140
0.1875
141
12.0
290
     0
  0
SCALE
  5
4B
102
{ACAD_REACTORS
330
42
102
}
330
42
100
AcDbScale
 70
     0
300
1/4" = 1'-0"
140
0.25
141
12.0
290
     0
  0
SCALE
  5
4C
102
{ACAD_REACTORS
330
42
102
}
330
42
100
AcDbScale
 70
     0
300
3/8" = 1'-0"
140
0.375
141
12.0
290
     0
  0
SCALE
  5
4D
102
{ACAD_REACTORS
330
42
102
}
330
42
100
AcDbScale
 70
     0
300
1/2" = 1'-0"
140
0.5
141
12.0
290
     0
  0
SCALE
  5
4E
102
{ACAD_REACTORS
330
42
102
}
330
42
100
AcDbScale
 70
     0
300
3/4" = 1'-0"
140
0.75
141
12.0
290
     0
  0
SCALE
  5
4F
102
{ACAD_REACTORS
330
42
102
}
330
42
100
AcDbScale
 70
     0
300
1" = 1'-0"
140
1.0
141
12.0
290
     0
  0
SCALE
  5
50
102
{ACAD_REACTORS
330
42
102
}
330
42
100
AcDbScale
 70
     0
300
1-1/2" = 1'-0"
140
1.5
141
12.0
290
     0
  0
SCALE
  5
51
102
{ACAD_REACTORS
330
42
102
}
330
42
100
AcDbScale
 70
     0
300
3" = 1'-0"
140
3.0
141
12.0
290
     0
  0
SCALE
  5
52
102
{ACAD_REACTORS
330
42
102
}
330
42
100
AcDbScale
 70
     0
300
6" = 1'-0"
140
6.0
141
12.0
290
     0
  0
SCALE
  5
53
102
{ACAD_REACTORS
330
42
102
}
330
42
100
AcDbScale
 70
     0
300
1'-0" = 1'-0"
140
12.0
141
12.0
290
     0
  0
ACDBSECTIONVIEWSTYLE
  5
69
102
{ACAD_XDICTIONARY
360
103
102
}
102
{ACAD_REACTORS
330
68
102
}
330
68
100
AcDbModelDocViewStyle
 70
     0
  3
Imperial24
290
     0
100
AcDbSectionViewStyle
 70
     0
 71
     0
 90
       78
 71
     1
340
55
 62
   256
 40
0.24
340
0
340
0
 62
   256
 40
0.24
300
I, O, Q, S, X, Z
 40
0.48
 90
        3
 40
0.18
 90
        1
 71
     2
340
5D
 90
       25
 62
   256
340
5D
 90
       50
 62
   256
 40
0.24
 40
0.0
 40
0.24
 71
     3
340
55
 62
   256
 40
0.24
 90
        1
 40
0.75
 90
        1
300
%<\AcVar ViewType \f "%tc1">% %<\AcVar ViewSectionStartId>%-%<\AcVar ViewSectionEndId>%\PSCALE %<\AcVar ViewScale \f "%sn">%
 71
     4
 62
   256
 62
   257
300
ANSI31
 40
1.0
 90
        0
290
     0
290
     0
 90
        6
 40
0.0
 40
1.570796326794896
 40
0.2617993877991494
 40
1.308996938995747
 40
-0.2617993877991494
 40
1.832595714594046
  0
TABLESTYLE
  5
65
102
{ACAD_XDICTIONARY
360
FE
102
}
102
{ACAD_REACTORS
330
64
102
}
330
64
100
AcDbTableStyle
280
     0
  3
Standard
 70
     0
 71
     0
 40
0.06
 41
0.06
280
     0
281
     0
  7
Standard
140
0.18
170
     2
 62
     0
 63
     7
283
     0
 90
      512
 91
        0
  1

274
    -2
284
     1
 64
     0
275
    -2
285
     1
 65
     0
276
    -2
286
     1
 66
     0
277
    -2
287
     1
 67
     0
278
    -2
288
     1
 68
     0
279
    -2
289
     1
 69
     0
  7
Standard
140
0.25
170
     5
 62
     0
 63
     7
283
     0
 90
      512
 91
        0
  1

274
    -2
284
     1
 64
     0
275
    -2
285
     1
 65
     0
276
    -2
286
     1
 66
     0
277
    -2
287
     1
 67
     0
278
    -2
288
     1
 68
     0
279
    -2
289
     1
 69
     0
  7
Standard
140
0.18
170
     5
 62
     0
 63
     7
283
     0
 90
      512
 91
        0
  1

274
    -2
284
     1
 64
     0
275
    -2
285
     1
 65
     0
276
    -2
286
     1
 66
     0
277
    -2
287
     1
 67
     0
278
    -2
288
     1
 68
     0
279
    -2
289
     1
 69
     0
  0
VISUALSTYLE
  5
2F
102
{ACAD_REACTORS
330
29
102
}
330
29
100
AcDbVisualStyle
  2
2dWireframe
 70
     4
177
     3
291
     0
 70
    58
 90
        0
176
     1
 90
        2
176
     1
 90
        0
176
     1
 90
        0
176
     1
 40
0.6
176
     1
 40
30.0
176
     1
 62
     7
420
 16777215
176
     1
 90
        1
176
     1
 90
        4
176
     1
 62
     7
176
     1
 62
   257
176
     1
 90
        1
176
     1
 90
        1
176
     1
 40
1.0
176
     1
 90
        0
176
     1
 62
   257
176
     1
 40
1.0
176
     1
 90
        1
176
     1
 90
        6
176
     1
 90
        2
176
     1
 62
     7
176
     1
 90
        5
176
     1
 90
        0
176
     1
 90
        0
176
     1
290
     0
176
     1
 90
        1
176
     1
 40
0.0
176
     1
 90
        0
176
     1
290
     1
176
     1
290
     1
176
     1
290
     0
176
     1
290
     0
176
     1
290
     0
176
     1
290
     0
176
     1
290
     0
176
     1
290
     0
176
     1
290
     0
176
     1
 90
       50
176
     1
 40
0.0
176
     1
 40
1.0
176
     1
 90
        0
176
     1
 62
    18
420
        0
176
     1
 90
       50
176
     1
 90
        3
176
     1
 62
     5
420
      255
176
     1
290
     0
176
     1
 90
       50
176
     1
 90
       50
176
     1
 90
       50
176
     1
290
     0
176
     1
 90
       50
176
     1
 62
   256
176
     0
 40
1.0
176
     0
 90
        2
176
     1
  1
strokes_ogs.tif
176
     1
290
     0
176
     1
 40
1.0
176
     1
 40
1.0
176
     1
1001
ACAD
1000
AcDbSavedByObjectVersion
1070
     0
  0
VISUALSTYLE
  5
2E
102
{ACAD_REACTORS
330
29
102
}
330
29
100
AcDbVisualStyle
  2
Basic
 70
     7
177
     3
291
     1
 70
    58
 90
        1
176
     1
 90
        0
176
     1
 90
        1
176
     1
 90
        0
176
     1
 40
0.6
176
     1
 40
30.0
176
     1
 62
     7
420
 16777215
176
     1
 90
        0
176
     1
 90
        4
176
     1
 62
     7
176
     1
 62
   257
176
     1
 90
        1
176
     1
 90
        1
176
     1
 40
1.0
176
     1
 90
        8
176
     1
 62
     7
176
     1
 40
1.0
176
     1
 90
        1
176
     1
 90
        6
176
     1
 90
        2
176
     1
 62
     7
176
     1
 90
        5
176
     1
 90
        0
176
     1
 90
        0
176
     1
290
     0
176
     1
 90
        1
176
     1
 40
0.0
176
     1
 90
        0
176
     1
290
     0
176
     1
290
     1
176
     1
290
     1
176
     1
290
     0
176
     1
290
     0
176
     1
290
     0
176
     1
290
     0
176
     1
290
     0
176
     1
290
     0
176
     1
 90
       50
176
     1
 40
0.0
176
     1
 40
1.0
176
     1
 90
        0
176
     1
 62
    18
420
        0
176
     1
 90
       50
176
     1
 90
        3
176
     1
 62
     5
420
      255
176
     1
290
     0
176
     1
 90
       50
176
     1
 90
       50
176
     1
 90
       50
176
     1
290
     0
176
     1
 90
       50
176
     1
 62
   256
176
     0
 40
1.0
176
     0
 90
        2
176
     1
  1
strokes_ogs.tif
176
     1
290
     0
176
     1
 40
1.0
176
     1
 40
1.0
176
     1
1001
ACAD
1000
AcDbSavedByObjectVersion
1070
     0
  0
VISUALSTYLE
  5
35
102
{ACAD_REACTORS
330
29
102
}
330
29
100
AcDbVisualStyle
  2
Brighten
 70
    12
177
     3
291
     1
 70
    58
 90
        2
176
     1
 90
        2
176
     1
 90
        0
176
     1
 90
        0
176
     1
 40
0.6
176
     1
 40
30.0
176
     1
 62
     7
420
 16777215
176
     1
 90
        1
176
     1
 90
        4
176
     1
 62
     7
176
     1
 62
   257
176
     1
 90
        1
176
     1
 90
        1
176
     1
 40
1.0
176
     1
 90
        8
176
     1
 62
     7
176
     1
 40
1.0
176
     1
 90
        1
176
     1
 90
        6
176
     1
 90
        2
176
     1
 62
     7
176
     1
 90
        5
176
     1
 90
        0
176
     1
 90
        0
176
     1
290
     0
176
     1
 90
        1
176
     1
 40
50.0
176
     1
 90
        0
176
     1
290
     0
176
     1
290
     1
176
     1
290
     1
176
     1
290
     0
176
     1
290
     0
176
     1
290
     0
176
     1
290
     0
176
     1
290
     0
176
     1
290
     0
176
     1
 90
       50
176
     1
 40
0.0
176
     1
 40
1.0
176
     1
 90
        0
176
     1
 62
    18
420
        0
176
     1
 90
       50
176
     1
 90
        3
176
     1
 62
     5
420
      255
176
     1
290
     0
176
     1
 90
       50
176
     1
 90
       50
176
     1
 90
       50
176
     1
290
     0
176
     1
 90
       50
176
     1
 62
   256
176
     0
 40
1.0
176
     0
 90
        2
176
     1
  1
strokes_ogs.tif
176
     1
290
     0
176
     1
 40
1.0
176
     1
 40
1.0
176
     1
1001
ACAD
1000
AcDbSavedByObjectVersion
1070
     0
  0
VISUALSTYLE
  5
39
102
{ACAD_REACTORS
330
29
102
}
330
29
100
AcDbVisualStyle
  2
ColorChange
 70
    16
177
     3
291
     1
 70
    58
 90
        2
176
     1
 90
        2
176
     1
 90
        3
176
     1
 90
        0
176
     1
 40
0.6
176
     1
 40
30.0
176
     1
 62
     8
420
  8421504
176
     1
 90
        1
176
     1
 90
        4
176
     1
 62
     7
176
     1
 62
   257
176
     1
 90
        1
176
     1
 90
        1
176
     1
 40
1.0
176
     1
 90
        8
176
     1
 62
     8
420
  8421504
176
     1
 40
1.0
176
     1
 90
        1
176
     1
 90
        6
176
     1
 90
        2
176
     1
 62
     7
176
     1
 90
        5
176
     1
 90
        0
176
     1
 90
        0
176
     1
290
     0
176
     1
 90
        1
176
     1
 40
0.0
176
     1
 90
        0
176
     1
290
     0
176
     1
290
     1
176
     1
290
     1
176
     1
290
     0
176
     1
290
     0
176
     1
290
     0
176
     1
290
     0
176
     1
290
     0
176
     1
290
     0
176
     1
 90
       50
176
     1
 40
0.0
176
     1
 40
1.0
176
     1
 90
        0
176
     1
 62
    18
420
        0
176
     1
 90
       50
176
     1
 90
        3
176
     1
 62
     5
420
      255
176
     1
290
     0
176
     1
 90
       50
176
     1
 90
       50
176
     1
 90
       50
176
     1
290
     0
176
     1
 90
       50
176
     1
 62
   256
176
     0
 40
1.0
176
     0
 90
        2
176
     1
  1
strokes_ogs.tif
176
     1
290
     0
176
     1
 40
1.0
176
     1
 40
1.0
176
     1
1001
ACAD
1000
AcDbSavedByObjectVersion
1070
     0
  0
VISUALSTYLE
  5
32
102
{ACAD_REACTORS
330
29
102
}
330
29
100
AcDbVisualStyle
  2
Conceptual
 70
     9
177
     3
291
     0
 70
    58
 90
        3
176
     1
 90
        2
176
     1
 90
        0
176
     1
 90
        0
176
     1
 40
0.6
176
     1
 40
30.0
176
     1
 62
     7
420
 16777215
176
     1
 90
        2
176
     1
 90
        2
176
     1
 62
     7
176
     1
 62
   257
176
     1
 90
        1
176
     1
 90
        1
176
     1
 40
179.0
176
     1
 90
        8
176
     1
 62
     7
176
     1
 40
1.0
176
     1
 90
        1
176
     1
 90
        6
176
     1
 90
        2
176
     1
 62
     7
176
     1
 90
        3
176
     1
 90
        0
176
     1
 90
        0
176
     1
290
     0
176
     1
 90
        1
176
     1
 40
0.0
176
     1
 90
        0
176
     1
290
     0
176
     1
290
     1
176
     1
290
     1
176
     1
290
     0
176
     1
290
     0
176
     1
290
     0
176
     1
290
     0
176
     1
290
     0
176
     1
290
     0
176
     1
 90
       50
176
     1
 40
0.0
176
     1
 40
1.0
176
     1
 90
        0
176
     1
 62
    18
420
        0
176
     1
 90
       50
176
     1
 90
        3
176
     1
 62
     5
420
      255
176
     1
290
     0
176
     1
 90
       50
176
     1
 90
       50
176
     1
 90
       50
176
     1
290
     0
176
     1
 90
       50
176
     1
 62
   256
176
     0
 40
1.0
176
     0
 90
        2
176
     1
  1
strokes_ogs.tif
176
     1
290
     0
176
     1
 40
1.0
176
     1
 40
1.0
176
     1
1001
ACAD
1000
AcDbSavedByObjectVersion
1070
     0
  0
VISUALSTYLE
  5
34
102
{ACAD_REACTORS
330
29
102
}
330
29
100
AcDbVisualStyle
  2
Dim
 70
    11
177
     3
291
     1
 70
    58
 90
        2
176
     1
 90
        2
176
     1
 90
        0
176
     1
 90
        0
176
     1
 40
0.6
176
     1
 40
30.0
176
     1
 62
     7
420
 16777215
176
     1
 90
        1
176
     1
 90
        4
176
     1
 62
     7
176
     1
 62
   257
176
     1
 90
        1
176
     1
 90
        1
176
     1
 40
1.0
176
     1
 90
        8
176
     1
 62
     7
176
     1
 40
1.0
176
     1
 90
        1
176
     1
 90
        6
176
     1
 90
        2
176
     1
 62
     7
176
     1
 90
        5
176
     1
 90
        0
176
     1
 90
        0
176
     1
290
     0
176
     1
 90
        1
176
     1
 40
-50.0
176
     1
 90
        0
176
     1
290
     0
176
     1
290
     1
176
     1
290
     1
176
     1
290
     0
176
     1
290
     0
176
     1
290
     0
176
     1
290
     0
176
     1
290
     0
176
     1
290
     0
176
     1
 90
       50
176
     1
 40
0.0
176
     1
 40
1.0
176
     1
 90
        0
176
     1
 62
    18
420
        0
176
     1
 90
       50
176
     1
 90
        3
176
     1
 62
     5
420
      255
176
     1
290
     0
176
     1
 90
       50
176
     1
 90
       50
176
     1
 90
       50
176
     1
290
     0
176
     1
 90
       50
176
     1
 62
   256
176
     0
 40
1.0
176
     0
 90
        2
176
     1
  1
strokes_ogs.tif
176
     1
290
     0
176
     1
 40
1.0
176
     1
 40
1.0
176
     1
1001
ACAD
1000
AcDbSavedByObjectVersion
1070
     0
  0
VISUALSTYLE
  5
41
102
{ACAD_REACTORS
330
29
102
}
330
29
100
AcDbVisualStyle
  2
EdgeColorOff
 70
    22
177
     3
291
     1
 70
    58
 90
        2
176
     0
 90
        2
176
     0
 90
        0
176
     0
 90
        0
176
     0
 40
0.6
176
     0
 40
30.0
176
     0
 62
     7
420
 16777215
176
     0
 90
        1
176
     0
 90
        4
176
     0
 62
     7
176
     0
 62
   257
176
     0
 90
        1
176
     0
 90
        1
176
     0
 40
1.0
176
     0
 90
        8
176
     2
 62
     7
176
     0
 40
1.0
176
     0
 90
        1
176
     0
 90
        6
176
     0
 90
        2
176
     0
 62
     7
176
     0
 90
        5
176
     0
 90
        0
176
     0
 90
        0
176
     0
290
     0
176
     0
 90
        1
176
     0
 40
0.0
176
     0
 90
        0
176
     0
290
     0
176
     0
290
     1
176
     0
290
     1
176
     0
290
     0
176
     0
290
     0
176
     0
290
     0
176
     0
290
     0
176
     0
290
     0
176
     0
290
     0
176
     0
 90
       50
176
     0
 40
0.0
176
     0
 40
1.0
176
     0
 90
        0
176
     0
 62
    18
420
        0
176
     0
 90
       50
176
     0
 90
        3
176
     0
 62
     5
420
      255
176
     0
290
     0
176
     0
 90
       50
176
     0
 90
       50
176
     0
 90
       50
176
     0
290
     0
176
     0
 90
       50
176
     0
 62
   256
176
     0
 40
1.0
176
     0
 90
        2
176
     0
  1
strokes_ogs.tif
176
     0
290
     0
176
     0
 40
1.0
176
     0
 40
1.0
176
     0
1001
ACAD
1000
AcDbSavedByObjectVersion
1070
     0
  0
VISUALSTYLE
  5
38
102
{ACAD_REACTORS
330
29
102
}
330
29
100
AcDbVisualStyle
  2
Facepattern
 70
    15
177
     3
291
     1
 70
    58
 90
        2
176
     1
 90
        2
176
     1
 90
        0
176
     1
 90
        0
176
     1
 40
0.6
176
     1
 40
30.0
176
     1
 62
     7
420
 16777215
176
     1
 90
        1
176
     1
 90
        4
176
     1
 62
     7
176
     1
 62
   257
176
     1
 90
        1
176
     1
 90
        1
176
     1
 40
1.0
176
     1
 90
        8
176
     1
 62
     7
176
     1
 40
1.0
176
     1
 90
        1
176
     1
 90
        6
176
     1
 90
        2
176
     1
 62
     7
176
     1
 90
        5
176
     1
 90
        0
176
     1
 90
        0
176
     1
290
     0
176
     1
 90
        1
176
     1
 40
0.0
176
     1
 90
        0
176
     1
290
     0
176
     1
290
     1
176
     1
290
     1
176
     1
290
     0
176
     1
290
     0
176
     1
290
     0
176
     1
290
     0
176
     1
290
     0
176
     1
290
     0
176
     1
 90
       50
176
     1
 40
0.0
176
     1
 40
1.0
176
     1
 90
        0
176
     1
 62
    18
420
        0
176
     1
 90
       50
176
     1
 90
        3
176
     1
 62
     5
420
      255
176
     1
290
     0
176
     1
 90
       50
176
     1
 90
       50
176
     1
 90
       50
176
     1
290
     0
176
     1
 90
       50
176
     1
 62
   256
176
     0
 40
1.0
176
     0
 90
        2
176
     1
  1
strokes_ogs.tif
176
     1
290
     0
176
     1
 40
1.0
176
     1
 40
1.0
176
     1
1001
ACAD
1000
AcDbSavedByObjectVersion
1070
     0
  0
VISUALSTYLE
  5
2A
102
{ACAD_REACTORS
330
29
102
}
330
29
100
AcDbVisualStyle
  2
Flat
 70
     0
177
     3
291
     1
 70
    58
 90
        2
176
     1
 90
        1
176
     1
 90
        1
176
     1
 90
        2
176
     1
 40
0.6
176
     1
 40
30.0
176
     1
 62
     7
420
 16777215
176
     1
 90
        0
176
     1
 90
        0
176
     1
 62
     7
176
     1
 62
   257
176
     1
 90
        1
176
     1
 90
        1
176
     1
 40
1.0
176
     1
 90
        8
176
     1
 62
     7
176
     1
 40
1.0
176
     1
 90
        1
176
     1
 90
        6
176
     1
 90
        2
176
     1
 62
     7
176
     1
 90
        5
176
     1
 90
        0
176
     1
 90
        0
176
     1
290
     0
176
     1
 90
       13
176
     1
 40
0.0
176
     1
 90
        0
176
     1
290
     0
176
     1
290
     1
176
     1
290
     1
176
     1
290
     0
176
     1
290
     0
176
     1
290
     0
176
     1
290
     0
176
     1
290
     0
176
     1
290
     0
176
     1
 90
       50
176
     1
 40
0.0
176
     1
 40
1.0
176
     1
 90
        0
176
     1
 62
    18
420
        0
176
     1
 90
       50
176
     1
 90
        3
176
     1
 62
     5
420
      255
176
     1
290
     0
176
     1
 90
       50
176
     1
 90
       50
176
     1
 90
       50
176
     1
290
     0
176
     1
 90
       50
176
     1
 62
   256
176
     0
 40
1.0
176
     0
 90
        2
176
     1
  1
strokes_ogs.tif
176
     1
290
     0
176
     1
 40
1.0
176
     1
 40
1.0
176
     1
1001
ACAD
1000
AcDbSavedByObjectVersion
1070
     0
  0
VISUALSTYLE
  5
2B
102
{ACAD_REACTORS
330
29
102
}
330
29
100
AcDbVisualStyle
  2
FlatWithEdges
 70
     1
177
     3
291
     1
 70
    58
 90
        2
176
     1
 90
        1
176
     1
 90
        1
176
     1
 90
        2
176
     1
 40
0.6
176
     1
 40
30.0
176
     1
 62
     7
420
 16777215
176
     1
 90
        1
176
     1
 90
        0
176
     1
 62
     7
176
     1
 62
   257
176
     1
 90
        1
176
     1
 90
        1
176
     1
 40
1.0
176
     1
 90
        0
176
     1
 62
   257
176
     1
 40
1.0
176
     1
 90
        1
176
     1
 90
        6
176
     1
 90
        2
176
     1
 62
     7
176
     1
 90
        5
176
     1
 90
        0
176
     1
 90
        0
176
     1
290
     0
176
     1
 90
       13
176
     1
 40
0.0
176
     1
 90
        0
176
     1
290
     0
176
     1
290
     1
176
     1
290
     1
176
     1
290
     0
176
     1
290
     0
176
     1
290
     0
176
     1
290
     0
176
     1
290
     0
176
     1
290
     0
176
     1
 90
       50
176
     1
 40
0.0
176
     1
 40
1.0
176
     1
 90
        0
176
     1
 62
    18
420
        0
176
     1
 90
       50
176
     1
 90
        3
176
     1
 62
     5
420
      255
176
     1
290
     0
176
     1
 90
       50
176
     1
 90
       50
176
     1
 90
       50
176
     1
290
     0
176
     1
 90
       50
176
     1
 62
   256
176
     0
 40
1.0
176
     0
 90
        2
176
     1
  1
strokes_ogs.tif
176
     1
290
     0
176
     1
 40
1.0
176
     1
 40
1.0
176
     1
1001
ACAD
1000
AcDbSavedByObjectVersion
1070
     0
  0
VISUALSTYLE
  5
2C
102
{ACAD_REACTORS
330
29
102
}
330
29
100
AcDbVisualStyle
  2
Gouraud
 70
     2
177
     3
291
     1
 70
    58
 90
        2
176
     1
 90
        2
176
     1
 90
        1
176
     1
 90
        2
176
     1
 40
0.6
176
     1
 40
30.0
176
     1
 62
     7
420
 16777215
176
     1
 90
        0
176
     1
 90
        0
176
     1
 62
     7
176
     1
 62
   257
176
     1
 90
        1
176
     1
 90
        1
176
     1
 40
1.0
176
     1
 90
        0
176
     1
 62
     7
176
     1
 40
1.0
176
     1
 90
        1
176
     1
 90
        6
176
     1
 90
        2
176
     1
 62
     7
176
     1
 90
        5
176
     1
 90
        0
176
     1
 90
        0
176
     1
290
     0
176
     1
 90
       13
176
     1
 40
0.0
176
     1
 90
        0
176
     1
290
     0
176
     1
290
     1
176
     1
290
     1
176
     1
290
     0
176
     1
290
     0
176
     1
290
     0
176
     1
290
     0
176
     1
290
     0
176
     1
290
     0
176
     1
 90
       50
176
     1
 40
0.0
176
     1
 40
1.0
176
     1
 90
        0
176
     1
 62
    18
420
        0
176
     1
 90
       50
176
     1
 90
        3
176
     1
 62
     5
420
      255
176
     1
290
     0
176
     1
 90
       50
176
     1
 90
       50
176
     1
 90
       50
176
     1
290
     0
176
     1
 90
       50
176
     1
 62
   256
176
     0
 40
1.0
176
     0
 90
        2
176
     1
  1
strokes_ogs.tif
176
     1
290
     0
176
     1
 40
1.0
176
     1
 40
1.0
176
     1
1001
ACAD
1000
AcDbSavedByObjectVersion
1070
     0
  0
VISUALSTYLE
  5
2D
102
{ACAD_REACTORS
330
29
102
}
330
29
100
AcDbVisualStyle
  2
GouraudWithEdges
 70
     3
177
     3
291
     1
 70
    58
 90
        2
176
     1
 90
        2
176
     1
 90
        1
176
     1
 90
        2
176
     1
 40
0.6
176
     1
 40
30.0
176
     1
 62
     7
420
 16777215
176
     1
 90
        1
176
     1
 90
        0
176
     1
 62
     7
176
     1
 62
   257
176
     1
 90
        1
176
     1
 90
        1
176
     1
 40
1.0
176
     1
 90
        0
176
     1
 62
   257
176
     1
 40
1.0
176
     1
 90
        1
176
     1
 90
        6
176
     1
 90
        2
176
     1
 62
     7
176
     1
 90
        5
176
     1
 90
        0
176
     1
 90
        0
176
     1
290
     0
176
     1
 90
       13
176
     1
 40
0.0
176
     1
 90
        0
176
     1
290
     0
176
     1
290
     1
176
     1
290
     1
176
     1
290
     0
176
     1
290
     0
176
     1
290
     0
176
     1
290
     0
176
     1
290
     0
176
     1
290
     0
176
     1
 90
       50
176
     1
 40
0.0
176
     1
 40
1.0
176
     1
 90
        0
176
     1
 62
    18
420
        0
176
     1
 90
       50
176
     1
 90
        3
176
     1
 62
     5
420
      255
176
     1
290
     0
176
     1
 90
       50
176
     1
 90
       50
176
     1
 90
       50
176
     1
290
     0
176
     1
 90
       50
176
     1
 62
   256
176
     0
 40
1.0
176
     0
 90
        2
176
     1
  1
strokes_ogs.tif
176
     1
290
     0
176
     1
 40
1.0
176
     1
 40
1.0
176
     1
1001
ACAD
1000
AcDbSavedByObjectVersion
1070
     0
  0
VISUALSTYLE
  5
31
102
{ACAD_REACTORS
330
29
102
}
330
29
100
AcDbVisualStyle
  2
Hidden
 70
     6
177
     3
291
     0
 70
    58
 90
        1
176
     1
 90
        2
176
     1
 90
        2
176
     1
 90
        0
176
     1
 40
0.6
176
     1
 40
30.0
176
     1
 62
     7
420
 16777215
176
     1
 90
        2
176
     1
 90
        2
176
     1
 62
     7
176
     1
 62
   257
176
     1
 90
        2
176
     1
 90
        1
176
     1
 40
40.0
176
     1
 90
        0
176
     1
 62
   257
176
     1
 40
1.0
176
     1
 90
        1
176
     1
 90
        6
176
     1
 90
        2
176
     1
 62
     7
176
     1
 90
        3
176
     1
 90
        0
176
     1
 90
        0
176
     1
290
     0
176
     1
 90
        1
176
     1
 40
0.0
176
     1
 90
        0
176
     1
290
     0
176
     1
290
     1
176
     1
290
     1
176
     1
290
     0
176
     1
290
     0
176
     1
290
     0
176
     1
290
     0
176
     1
290
     0
176
     1
290
     0
176
     1
 90
       50
176
     1
 40
0.0
176
     1
 40
1.0
176
     1
 90
        0
176
     1
 62
    18
420
        0
176
     1
 90
       50
176
     1
 90
        3
176
     1
 62
     5
420
      255
176
     1
290
     0
176
     1
 90
       50
176
     1
 90
       50
176
     1
 90
       50
176
     1
290
     0
176
     1
 90
       50
176
     1
 62
   256
176
     0
 40
1.0
176
     0
 90
        2
176
     1
  1
strokes_ogs.tif
176
     1
290
     0
176
     1
 40
1.0
176
     1
 40
1.0
176
     1
1001
ACAD
1000
AcDbSavedByObjectVersion
1070
     0
  0
VISUALSTYLE
  5
3F
102
{ACAD_REACTORS
330
29
102
}
330
29
100
AcDbVisualStyle
  2
JitterOff
 70
    20
177
     3
291
     1
 70
    58
 90
        2
176
     0
 90
        2
176
     0
 90
        0
176
     0
 90
        0
176
     0
 40
0.6
176
     0
 40
30.0
176
     0
 62
     7
420
 16777215
176
     0
 90
        1
176
     0
 90
        4
176
     0
 62
     7
176
     0
 62
   257
176
     0
 90
        1
176
     0
 90
        1
176
     0
 40
1.0
176
     0
 90
       10
176
     2
 62
     7
176
     0
 40
1.0
176
     0
 90
        1
176
     0
 90
        6
176
     0
 90
        2
176
     0
 62
     7
176
     0
 90
        5
176
     0
 90
        0
176
     0
 90
        0
176
     0
290
     0
176
     0
 90
        1
176
     0
 40
0.0
176
     0
 90
        0
176
     0
290
     0
176
     0
290
     1
176
     0
290
     1
176
     0
290
     0
176
     0
290
     0
176
     0
290
     0
176
     0
290
     0
176
     0
290
     0
176
     0
290
     0
176
     0
 90
       50
176
     0
 40
0.0
176
     0
 40
1.0
176
     0
 90
        0
176
     0
 62
    18
420
        0
176
     0
 90
       50
176
     0
 90
        3
176
     0
 62
     5
420
      255
176
     0
290
     0
176
     0
 90
       50
176
     0
 90
       50
176
     0
 90
       50
176
     0
290
     0
176
     0
 90
       50
176
     0
 62
   256
176
     0
 40
1.0
176
     0
 90
        2
176
     0
  1
strokes_ogs.tif
176
     0
290
     0
176
     0
 40
1.0
176
     0
 40
1.0
176
     0
1001
ACAD
1000
AcDbSavedByObjectVersion
1070
     0
  0
VISUALSTYLE
  5
37
102
{ACAD_REACTORS
330
29
102
}
330
29
100
AcDbVisualStyle
  2
Linepattern
 70
    14
177
     3
291
     1
 70
    58
 90
        2
176
     1
 90
        2
176
     1
 90
        0
176
     1
 90
        0
176
     1
 40
0.6
176
     1
 40
30.0
176
     1
 62
     7
420
 16777215
176
     1
 90
        1
176
     1
 90
        4
176
     1
 62
     7
176
     1
 62
   257
176
     1
 90
        7
176
     1
 90
        7
176
     1
 40
1.0
176
     1
 90
        8
176
     1
 62
     7
176
     1
 40
1.0
176
     1
 90
        1
176
     1
 90
        6
176
     1
 90
        2
176
     1
 62
     7
176
     1
 90
        5
176
     1
 90
        0
176
     1
 90
        0
176
     1
290
     0
176
     1
 90
        1
176
     1
 40
0.0
176
     1
 90
        0
176
     1
290
     0
176
     1
290
     1
176
     1
290
     1
176
     1
290
     0
176
     1
290
     0
176
     1
290
     0
176
     1
290
     0
176
     1
290
     0
176
     1
290
     0
176
     1
 90
       50
176
     1
 40
0.0
176
     1
 40
1.0
176
     1
 90
        0
176
     1
 62
    18
420
        0
176
     1
 90
       50
176
     1
 90
        3
176
     1
 62
     5
420
      255
176
     1
290
     0
176
     1
 90
       50
176
     1
 90
       50
176
     1
 90
       50
176
     1
290
     0
176
     1
 90
       50
176
     1
 62
   256
176
     0
 40
1.0
176
     0
 90
        2
176
     1
  1
strokes_ogs.tif
176
     1
290
     0
176
     1
 40
1.0
176
     1
 40
1.0
176
     1
1001
ACAD
1000
AcDbSavedByObjectVersion
1070
     0
  0
VISUALSTYLE
  5
40
102
{ACAD_REACTORS
330
29
102
}
330
29
100
AcDbVisualStyle
  2
OverhangOff
 70
    21
177
     3
291
     1
 70
    58
 90
        2
176
     0
 90
        2
176
     0
 90
        0
176
     0
 90
        0
176
     0
 40
0.6
176
     0
 40
30.0
176
     0
 62
     7
420
 16777215
176
     0
 90
        1
176
     0
 90
        4
176
     0
 62
     7
176
     0
 62
   257
176
     0
 90
        1
176
     0
 90
        1
176
     0
 40
1.0
176
     0
 90
        9
176
     2
 62
     7
176
     0
 40
1.0
176
     0
 90
        1
176
     0
 90
        6
176
     0
 90
        2
176
     0
 62
     7
176
     0
 90
        5
176
     0
 90
        0
176
     0
 90
        0
176
     0
290
     0
176
     0
 90
        1
176
     0
 40
0.0
176
     0
 90
        0
176
     0
290
     0
176
     0
290
     1
176
     0
290
     1
176
     0
290
     0
176
     0
290
     0
176
     0
290
     0
176
     0
290
     0
176
     0
290
     0
176
     0
290
     0
176
     0
 90
       50
176
     0
 40
0.0
176
     0
 40
1.0
176
     0
 90
        0
176
     0
 62
    18
420
        0
176
     0
 90
       50
176
     0
 90
        3
176
     0
 62
     5
420
      255
176
     0
290
     0
176
     0
 90
       50
176
     0
 90
       50
176
     0
 90
       50
176
     0
290
     0
176
     0
 90
       50
176
     0
 62
   256
176
     0
 40
1.0
176
     0
 90
        2
176
     0
  1
strokes_ogs.tif
176
     0
290
     0
176
     0
 40
1.0
176
     0
 40
1.0
176
     0
1001
ACAD
1000
AcDbSavedByObjectVersion
1070
     0
  0
VISUALSTYLE
  5
33
102
{ACAD_REACTORS
330
29
102
}
330
29
100
AcDbVisualStyle
  2
Realistic
 70
     8
177
     3
291
     0
 70
    58
 90
        2
176
     1
 90
        3
176
     1
 90
        0
176
     1
 90
        2
176
     1
 40
0.6
176
     1
 40
30.0
176
     1
 62
     7
420
 16777215
176
     1
 90
        0
176
     1
 90
        0
176
     1
 62
     7
176
     1
 62
   257
176
     1
 90
        1
176
     1
 90
        1
176
     1
 40
1.0
176
     1
 90
        8
176
     1
 62
   257
176
     1
 40
1.0
176
     1
 90
        1
176
     1
 90
        6
176
     1
 90
        2
176
     1
 62
     7
176
     1
 90
        3
176
     1
 90
        0
176
     1
 90
        0
176
     1
290
     0
176
     1
 90
       13
176
     1
 40
0.0
176
     1
 90
        0
176
     1
290
     0
176
     1
290
     1
176
     1
290
     1
176
     1
290
     0
176
     1
290
     0
176
     1
290
     0
176
     1
290
     0
176
     1
290
     0
176
     1
290
     0
176
     1
 90
       50
176
     1
 40
0.0
176
     1
 40
1.0
176
     1
 90
        0
176
     1
 62
    18
420
        0
176
     1
 90
       50
176
     1
 90
        3
176
     1
 62
     5
420
      255
176
     1
290
     0
176
     1
 90
       50
176
     1
 90
       50
176
     1
 90
       50
176
     1
290
     0
176
     1
 90
       50
176
     1
 62
   256
176
     0
 40
1.0
176
     0
 90
        2
176
     1
  1
strokes_ogs.tif
176
     1
290
     0
176
     1
 40
1.0
176
     1
 40
1.0
176
     1
1001
ACAD
1000
AcDbSavedByObjectVersion
1070
     0
  0
VISUALSTYLE
  5
3E
102
{ACAD_REACTORS
330
29
102
}
330
29
100
AcDbVisualStyle
  2
Shaded
 70
    27
177
     3
291
     0
 70
    58
 90
        2
176
     1
 90
        2
176
     1
 90
        1
176
     1
 90
        2
176
     1
 40
0.6
176
     1
 40
30.0
176
     1
 62
     7
420
 16777215
176
     1
 90
        0
176
     1
 90
        4
176
     1
 62
     7
176
     1
 62
   257
176
     1
 90
        1
176
     1
 90
        1
176
     1
 40
1.0
176
     1
 90
        8
176
     1
 62
   257
176
     1
 40
1.0
176
     1
 90
        1
176
     1
 90
        6
176
     1
 90
        2
176
     1
 62
     8
420
  7895160
176
     1
 90
        3
176
     1
 90
        0
176
     1
 90
        0
176
     1
290
     0
176
     1
 90
        5
176
     1
 40
0.0
176
     1
 90
        0
176
     1
290
     0
176
     1
290
     1
176
     1
290
     1
176
     1
290
     0
176
     1
290
     0
176
     1
290
     0
176
     1
290
     0
176
     1
290
     0
176
     1
290
     0
176
     1
 90
       50
176
     1
 40
0.0
176
     1
 40
1.0
176
     1
 90
        0
176
     1
 62
    18
420
        0
176
     1
 90
       50
176
     1
 90
        3
176
     1
 62
     5
420
      255
176
     1
290
     0
176
     1
 90
       50
176
     1
 90
       50
176
     1
 90
       50
176
     1
290
     0
176
     1
 90
       50
176
     1
 62
   256
176
     0
 40
1.0
176
     0
 90
        2
176
     1
  1
strokes_ogs.tif
176
     1
290
     0
176
     1
 40
1.0
176
     1
 40
1.0
176
     1
1001
ACAD
1000
AcDbSavedByObjectVersion
1070
     0
  0
VISUALSTYLE
  5
3D
102
{ACAD_REACTORS
330
29
102
}
330
29
100
AcDbVisualStyle
  2
Shaded with edges
 70
    26
177
     3
291
     0
 70
    58
 90
        2
176
     1
 90
        2
176
     1
 90
        1
176
     1
 90
        2
176
     1
 40
0.6
176
     1
 40
30.0
176
     1
 62
     7
420
 16777215
176
     1
 90
        1
176
     1
 90
        2
176
     1
 62
     7
176
     1
 62
   257
176
     1
 90
        2
176
     1
 90
        1
176
     1
 40
1.0
176
     1
 90
        8
176
     1
 62
   257
176
     1
 40
1.0
176
     1
 90
        1
176
     1
 90
        6
176
     1
 90
        2
176
     1
 62
     7
176
     1
 90
        3
176
     1
 90
        0
176
     1
 90
        0
176
     1
290
     0
176
     1
 90
        5
176
     1
 40
0.0
176
     1
 90
        0
176
     1
290
     0
176
     1
290
     1
176
     1
290
     1
176
     1
290
     0
176
     1
290
     0
176
     1
290
     0
176
     1
290
     0
176
     1
290
     0
176
     1
290
     0
176
     1
 90
       50
176
     1
 40
0.0
176
     1
 40
1.0
176
     1
 90
        0
176
     1
 62
    18
420
        0
176
     1
 90
       50
176
     1
 90
        3
176
     1
 62
     5
420
      255
176
     1
290
     0
176
     1
 90
       50
176
     1
 90
       50
176
     1
 90
       50
176
     1
290
     0
176
     1
 90
       50
176
     1
 62
   256
176
     0
 40
1.0
176
     0
 90
        2
176
     1
  1
strokes_ogs.tif
176
     1
290
     0
176
     1
 40
1.0
176
     1
 40
1.0
176
     1
1001
ACAD
1000
AcDbSavedByObjectVersion
1070
     0
  0
VISUALSTYLE
  5
3A
102
{ACAD_REACTORS
330
29
102
}
330
29
100
AcDbVisualStyle
  2
Shades of Gray
 70
    23
177
     3
291
     0
 70
    58
 90
        2
176
     1
 90
        2
176
     1
 90
        3
176
     1
 90
        0
176
     1
 40
0.6
176
     1
 40
30.0
176
     1
 62
     7
420
 16777215
176
     1
 90
        2
176
     1
 90
        2
176
     1
 62
     7
176
     1
 62
     7
176
     1
 90
        1
176
     1
 90
        1
176
     1
 40
40.0
176
     1
 90
        8
176
     1
 62
     7
176
     1
 40
1.0
176
     1
 90
        1
176
     1
 90
        6
176
     1
 90
        2
176
     1
 62
     7
176
     1
 90
        3
176
     1
 90
        0
176
     1
 90
        0
176
     1
290
     0
176
     1
 90
        1
176
     1
 40
0.0
176
     1
 90
        0
176
     1
290
     0
176
     1
290
     1
176
     1
290
     1
176
     1
290
     0
176
     1
290
     0
176
     1
290
     0
176
     1
290
     0
176
     1
290
     0
176
     1
290
     0
176
     1
 90
       50
176
     1
 40
0.0
176
     1
 40
1.0
176
     1
 90
        0
176
     1
 62
    18
420
        0
176
     1
 90
       50
176
     1
 90
        3
176
     1
 62
     5
420
      255
176
     1
290
     0
176
     1
 90
       50
176
     1
 90
       50
176
     1
 90
       50
176
     1
290
     0
176
     1
 90
       50
176
     1
 62
   256
176
     0
 40
1.0
176
     0
 90
        2
176
     1
  1
strokes_ogs.tif
176
     1
290
     0
176
     1
 40
1.0
176
     1
 40
1.0
176
     1
1001
ACAD
1000
AcDbSavedByObjectVersion
1070
     0
  0
VISUALSTYLE
  5
3B
102
{ACAD_REACTORS
330
29
102
}
330
29
100
AcDbVisualStyle
  2
Sketchy
 70
    24
177
     3
291
     0
 70
    58
 90
        1
176
     1
 90
        2
176
     1
 90
        2
176
     1
 90
        0
176
     1
 40
0.6
176
     1
 40
30.0
176
     1
 62
     7
420
 16777215
176
     1
 90
        2
176
     1
 90
        2
176
     1
 62
     7
176
     1
 62
     7
176
     1
 90
        1
176
     1
 90
        1
176
     1
 40
40.0
176
     1
 90
       11
176
     1
 62
     7
176
     1
 40
1.0
176
     1
 90
        1
176
     1
 90
        6
176
     1
 90
        2
176
     1
 62
     7
176
     1
 90
        6
176
     1
 90
        0
176
     1
 90
        0
176
     1
290
     0
176
     1
 90
        1
176
     1
 40
0.0
176
     1
 90
        0
176
     1
290
     0
176
     1
290
     1
176
     1
290
     1
176
     1
290
     0
176
     1
290
     0
176
     1
290
     0
176
     1
290
     0
176
     1
290
     0
176
     1
290
     0
176
     1
 90
       50
176
     1
 40
0.0
176
     1
 40
1.0
176
     1
 90
        0
176
     1
 62
    18
420
        0
176
     1
 90
       50
176
     1
 90
        3
176
     1
 62
     5
420
      255
176
     1
290
     0
176
     1
 90
       50
176
     1
 90
       50
176
     1
 90
       50
176
     1
290
     0
176
     1
 90
       50
176
     1
 62
   256
176
     0
 40
1.0
176
     0
 90
        2
176
     1
  1
strokes_ogs.tif
176
     1
290
     0
176
     1
 40
1.0
176
     1
 40
1.0
176
     1
1001
ACAD
1000
AcDbSavedByObjectVersion
1070
     0
  0
VISUALSTYLE
  5
36
102
{ACAD_REACTORS
330
29
102
}
330
29
100
AcDbVisualStyle
  2
Thicken
 70
    13
177
     3
291
     1
 70
    58
 90
        2
176
     1
 90
        2
176
     1
 90
        0
176
     1
 90
        0
176
     1
 40
0.6
176
     1
 40
30.0
176
     1
 62
     7
420
 16777215
176
     1
 90
        1
176
     1
 90
        4
176
     1
 62
     7
176
     1
 62
   257
176
     1
 90
        1
176
     1
 90
        1
176
     1
 40
1.0
176
     1
 90
       12
176
     1
 62
     7
176
     1
 40
1.0
176
     1
 90
        1
176
     1
 90
        6
176
     1
 90
        2
176
     1
 62
     7
176
     1
 90
        5
176
     1
 90
        0
176
     1
 90
        0
176
     1
290
     0
176
     1
 90
        1
176
     1
 40
0.0
176
     1
 90
        0
176
     1
290
     0
176
     1
290
     1
176
     1
290
     1
176
     1
290
     0
176
     1
290
     0
176
     1
290
     0
176
     1
290
     0
176
     1
290
     0
176
     1
290
     0
176
     1
 90
       50
176
     1
 40
0.0
176
     1
 40
1.0
176
     1
 90
        0
176
     1
 62
    18
420
        0
176
     1
 90
       50
176
     1
 90
        3
176
     1
 62
     5
420
      255
176
     1
290
     0
176
     1
 90
       50
176
     1
 90
       50
176
     1
 90
       50
176
     1
290
     0
176
     1
 90
       50
176
     1
 62
   256
176
     0
 40
1.0
176
     0
 90
        2
176
     1
  1
strokes_ogs.tif
176
     1
290
     0
176
     1
 40
1.0
176
     1
 40
1.0
176
     1
1001
ACAD
1000
AcDbSavedByObjectVersion
1070
     0
  0
VISUALSTYLE
  5
30
102
{ACAD_REACTORS
330
29
102
}
330
29
100
AcDbVisualStyle
  2
Wireframe
 70
     5
177
     3
291
     0
 70
    58
 90
        0
176
     1
 90
        2
176
     1
 90
        0
176
     1
 90
        0
176
     1
 40
0.6
176
     1
 40
30.0
176
     1
 62
     7
420
 16777215
176
     1
 90
        1
176
     1
 90
        4
176
     1
 62
     7
176
     1
 62
   257
176
     1
 90
        1
176
     1
 90
        1
176
     1
 40
1.0
176
     1
 90
        0
176
     1
 62
   257
176
     1
 40
1.0
176
     1
 90
        1
176
     1
 90
        6
176
     1
 90
        2
176
     1
 62
     7
176
     1
 90
        3
176
     1
 90
        0
176
     1
 90
        0
176
     1
290
     0
176
     1
 90
        1
176
     1
 40
0.0
176
     1
 90
        0
176
     1
290
     0
176
     1
290
     1
176
     1
290
     1
176
     1
290
     0
176
     1
290
     0
176
     1
290
     0
176
     1
290
     0
176
     1
290
     0
176
     1
290
     0
176
     1
 90
       50
176
     1
 40
0.0
176
     1
 40
1.0
176
     1
 90
        0
176
     1
 62
    18
420
        0
176
     1
 90
       50
176
     1
 90
        3
176
     1
 62
     5
420
      255
176
     1
290
     0
176
     1
 90
       50
176
     1
 90
       50
176
     1
 90
       50
176
     1
290
     0
176
     1
 90
       50
176
     1
 62
   256
176
     0
 40
1.0
176
     0
 90
        2
176
     1
  1
strokes_ogs.tif
176
     1
290
     0
176
     1
 40
1.0
176
     1
 40
1.0
176
     1
1001
ACAD
1000
AcDbSavedByObjectVersion
1070
     0
  0
VISUALSTYLE
  5
3C
102
{ACAD_REACTORS
330
29
102
}
330
29
100
AcDbVisualStyle
  2
X-Ray
 70
    25
177
     3
291
     0
 70
    58
 90
        2
176
     1
 90
        2
176
     1
 90
        1
176
     1
 90
        1
176
     1
 40
0.5
176
     1
 40
30.0
176
     1
 62
     7
420
 16777215
176
     1
 90
        1
176
     1
 90
        0
176
     1
 62
     7
176
     1
 62
   257
176
     1
 90
        1
176
     1
 90
        1
176
     1
 40
1.0
176
     1
 90
        8
176
     1
 62
     7
176
     1
 40
1.0
176
     1
 90
        1
176
     1
 90
        6
176
     1
 90
        2
176
     1
 62
     7
176
     1
 90
        3
176
     1
 90
        0
176
     1
 90
        0
176
     1
290
     0
176
     1
 90
       13
176
     1
 40
0.0
176
     1
 90
        0
176
     1
290
     0
176
     1
290
     1
176
     1
290
     1
176
     1
290
     0
176
     1
290
     0
176
     1
290
     0
176
     1
290
     0
176
     1
290
     0
176
     1
290
     0
176
     1
 90
       50
176
     1
 40
0.0
176
     1
 40
1.0
176
     1
 90
        0
176
     1
 62
    18
420
        0
176
     1
 90
       50
176
     1
 90
        3
176
     1
 62
     5
420
      255
176
     1
290
     0
176
     1
 90
       50
176
     1
 90
       50
176
     1
 90
       50
176
     1
290
     0
176
     1
 90
       50
176
     1
 62
   256
176
     0
 40
1.0
176
     0
 90
        2
176
     1
  1
strokes_ogs.tif
176
     1
290
     0
176
     1
 40
1.0
176
     1
 40
1.0
176
     1
1001
ACAD
1000
AcDbSavedByObjectVersion
1070
     0
  0
DICTIONARYVAR
  5
FD
102
{ACAD_REACTORS
330
F8
102
}
330
F8
100
DictionaryVariables
280
     0
  1
1:1
  0
DICTIONARYVAR
  5
FA
102
{ACAD_REACTORS
330
F8
102
}
330
F8
100
DictionaryVariables
280
     0
  1
STANDARD
  0
DICTIONARYVAR
  5
F9
102
{ACAD_REACTORS
330
F8
102
}
330
F8
100
DictionaryVariables
280
     0
  1
STANDARD
  0
DICTIONARYVAR
  5
FB
102
{ACAD_REACTORS
330
F8
102
}
330
F8
100
DictionaryVariables
280
     0
  1
Imperial24
  0
DICTIONARYVAR
  5
FC
102
{ACAD_REACTORS
330
F8
102
}
330
F8
100
DictionaryVariables
280
     0
  1
Imperial24
  0
DICTIONARY
  5
105
330
6B
100
AcDbDictionary
280
     1
281
     1
  3
ACAD_XREC_ROUNDTRIP
360
106
  0
DICTIONARY
  5
1A
330
19
100
AcDbDictionary
280
     1
281
     1
  3
BUMPTILE
360
1C
  3
DIFFUSETILE
360
1B
  3
OPACITYTILE
360
1F
  3
REFLECTIONTILE
360
1E
  3
REFRACTIONTILE
360
20
  3
SPECULARTILE
360
1D
  0
DICTIONARY
  5
12
330
11
100
AcDbDictionary
280
     1
281
     1
  3
BUMPTILE
360
14
  3
DIFFUSETILE
360
13
  3
OPACITYTILE
360
17
  3
REFLECTIONTILE
360
16
  3
REFRACTIONTILE
360
18
  3
SPECULARTILE
360
15
  0
DICTIONARY
  5
22
330
21
100
AcDbDictionary
280
     1
281
     1
  3
BUMPTILE
360
24
  3
DIFFUSETILE
360
23
  3
OPACITYTILE
360
27
  3
REFLECTIONTILE
360
26
  3
REFRACTIONTILE
360
28
  3
SPECULARTILE
360
25
  0
DICTIONARY
  5
103
330
69
100
AcDbDictionary
280
     1
281
     1
  3
ACAD_XREC_ROUNDTRIP
360
104
  0
DICTIONARY
  5
FE
330
65
100
AcDbDictionary
280
     1
281
     1
  3
ACAD_ROUNDTRIP_2008_TABLESTYLE_CELLSTYLEMAP
360
FF
  0
XRECORD
  5
106
102
{ACAD_REACTORS
330
105
102
}
330
105
100
AcDbXrecord
280
     1
102
DISPLAYNAME
  1
Imperial24
102
FLAGS
 90
        0
  0
XRECORD
  5
1C
102
{ACAD_REACTORS
330
1A
102
}
330
1A
100
AcDbXrecord
280
     1
270
     1
271
     1
  0
XRECORD
  5
1B
102
{ACAD_REACTORS
330
1A
102
}
330
1A
100
AcDbXrecord
280
     1
270
     1
271
     1
  0
XRECORD
  5
1F
102
{ACAD_REACTORS
330
1A
102
}
330
1A
100
AcDbXrecord
280
     1
270
     1
271
     1
  0
XRECORD
  5
1E
102
{ACAD_REACTORS
330
1A
102
}
330
1A
100
AcDbXrecord
280
     1
270
     1
271
     1
  0
XRECORD
  5
20
102
{ACAD_REACTORS
330
1A
102
}
330
1A
100
AcDbXrecord
280
     1
270
     1
271
     1
  0
XRECORD
  5
1D
102
{ACAD_REACTORS
330
1A
102
}
330
1A
100
AcDbXrecord
280
     1
270
     1
271
     1
  0
XRECORD
  5
14
102
{ACAD_REACTORS
330
12
102
}
330
12
100
AcDbXrecord
280
     1
270
     1
271
     1
  0
XRECORD
  5
13
102
{ACAD_REACTORS
330
12
102
}
330
12
100
AcDbXrecord
280
     1
270
     1
271
     1
  0
XRECORD
  5
17
102
{ACAD_REACTORS
330
12
102
}
330
12
100
AcDbXrecord
280
     1
270
     1
271
     1
  0
XRECORD
  5
16
102
{ACAD_REACTORS
330
12
102
}
330
12
100
AcDbXrecord
280
     1
270
     1
271
     1
  0
XRECORD
  5
18
102
{ACAD_REACTORS
330
12
102
}
330
12
100
AcDbXrecord
280
     1
270
     1
271
     1
  0
XRECORD
  5
15
102
{ACAD_REACTORS
330
12
102
}
330
12
100
AcDbXrecord
280
     1
270
     1
271
     1
  0
XRECORD
  5
24
102
{ACAD_REACTORS
330
22
102
}
330
22
100
AcDbXrecord
280
     1
270
     1
271
     1
  0
XRECORD
  5
23
102
{ACAD_REACTORS
330
22
102
}
330
22
100
AcDbXrecord
280
     1
270
     1
271
     1
  0
XRECORD
  5
27
102
{ACAD_REACTORS
330
22
102
}
330
22
100
AcDbXrecord
280
     1
270
     1
271
     1
  0
XRECORD
  5
26
102
{ACAD_REACTORS
330
22
102
}
330
22
100
AcDbXrecord
280
     1
270
     1
271
     1
  0
XRECORD
  5
28
102
{ACAD_REACTORS
330
22
102
}
330
22
100
AcDbXrecord
280
     1
270
     1
271
     1
  0
XRECORD
  5
25
102
{ACAD_REACTORS
330
22
102
}
330
22
100
AcDbXrecord
280
     1
270
     1
271
     1
  0
XRECORD
  5
104
102
{ACAD_REACTORS
330
103
102
}
330
103
100
AcDbXrecord
280
     1
102
DISPLAYNAME
  1
Imperial24
102
FLAGS
 90
        0
  0
CELLSTYLEMAP
  5
FF
102
{ACAD_REACTORS
330
FE
102
}
330
FE
100
AcDbCellStyleMap
 90
        3
300
CELLSTYLE
  1
TABLEFORMAT_BEGIN
 90
        5
170
     1
 91
        0
 92
    32768
 62
   257
 93
        1
300
CONTENTFORMAT
  1
CONTENTFORMAT_BEGIN
 90
        0
 91
        0
 92
      512
 93
        0
300

 40
0.0
140
1.0
 94
        5
 62
     0
340
55
144
0.25
309
CONTENTFORMAT_END
171
     0
 94
        0
309
TABLEFORMAT_END
  1
CELLSTYLE_BEGIN
 90
        1
 91
        1
300
_TITLE
309
CELLSTYLE_END
300
CELLSTYLE
  1
TABLEFORMAT_BEGIN
 90
        5
170
     1
 91
        0
 92
        0
 62
   257
 93
        1
300
CONTENTFORMAT
  1
CONTENTFORMAT_BEGIN
 90
        0
 91
        0
 92
      512
 93
        0
300

 40
0.0
140
1.0
 94
        5
 62
     0
340
55
144
0.18
309
CONTENTFORMAT_END
171
     0
 94
        0
309
TABLEFORMAT_END
  1
CELLSTYLE_BEGIN
 90
        2
 91
        1
300
_HEADER
309
CELLSTYLE_END
300
CELLSTYLE
  1
TABLEFORMAT_BEGIN
 90
        5
170
     1
 91
        0
 92
        0
 62
   257
 93
        1
300
CONTENTFORMAT
  1
CONTENTFORMAT_BEGIN
 90
        0
 91
        0
 92
      512
 93
        0
300

 40
0.0
140
1.0
 94
        2
 62
     0
340
55
144
0.18
309
CONTENTFORMAT_END
171
     0
 94
        0
309
TABLEFORMAT_END
  1
CELLSTYLE_BEGIN
 90
        3
 91
        2
300
_DATA
309
CELLSTYLE_END
  0
ENDSEC
  0
EOF
