  0
SECTION
  2
HEADER
  9
$ACADVER
  1
AC1027
  9
$ACADMAINTVER
 70
   125
  9
$DWGCODEPAGE
  3
ANSI_1252
  9
$REQUIREDVERSIONS
160
                 0
  9
$INSBASE
 10
0.0
 20
0.0
 30
0.0
  9
$EXTMIN
 10
1.000000000000000E+20
 20
1.000000000000000E+20
 30
1.000000000000000E+20
  9
$EXTMAX
 10
-1.000000000000000E+20
 20
-1.000000000000000E+20
 30
-1.000000000000000E+20
  9
$LIMMIN
 10
0.0
 20
0.0
  9
$LIMMAX
 10
12.0
 20
9.0
  9
$ORTHOMODE
 70
     0
  9
$REGENMODE
 70
     1
  9
$FILLMODE
 70
     1
  9
$QTEXTMODE
 70
     0
  9
$MIRRTEXT
 70
     0
  9
$LTSCALE
 40
1.0
  9
$ATTMODE
 70
     1
  9
$TEXTSIZE
 40
0.2
  9
$TRACEWID
 40
0.05
  9
$TEXTSTYLE
  7
Standard
  9
$CLAYER
  8
0
  9
$CELTYPE
  6
ByLayer
  9
$CECOLOR
 62
   256
  9
$CELTSCALE
 40
1.0
  9
$DISPSILH
 70
     0
  9
$DIMSCALE
 40
1.0
  9
$DIMASZ
 40
0.18
  9
$DIMEXO
 40
0.0625
  9
$DIMDLI
 40
0.38
  9
$DIMRND
 40
0.0
  9
$DIMDLE
 40
0.0
  9
$DIMEXE
 40
0.18
  9
$DIMTP
 40
0.0
  9
$DIMTM
 40
0.0
  9
$DIMTXT
 40
0.18
  9
$DIMCEN
 40
0.09
  9
$DIMTSZ
 40
0.0
  9
$DIMTOL
 70
     0
  9
$DIMLIM
 70
     0
  9
$DIMTIH
 70
     1
  9
$DIMTOH
 70
     1
  9
$DIMSE1
 70
     0
  9
$DIMSE2
 70
     0
  9
$DIMTAD
 70
     0
  9
$DIMZIN
 70
     0
  9
$DIMBLK
  1

  9
$DIMASO
 70
     1
  9
$DIMSHO
 70
     1
  9
$DIMPOST
  1

  9
$DIMAPOST
  1

  9
$DIMALT
 70
     0
  9
$DIMALTD
 70
     2
  9
$DIMALTF
 40
25.4
  9
$DIMLFAC
 40
1.0
  9
$DIMTOFL
 70
     0
  9
$DIMTVP
 40
0.0
  9
$DIMTIX
 70
     0
  9
$DIMSOXD
 70
     0
  9
$DIMSAH
 70
     0
  9
$DIMBLK1
  1

  9
$DIMBLK2
  1

  9
$DIMSTYLE
  2
Standard
  9
$DIMCLRD
 70
     0
  9
$DIMCLRE
 70
     0
  9
$DIMCLRT
 70
     0
  9
$DIMTFAC
 40
1.0
  9
$DIMGAP
 40
0.09
  9
$DIMJUST
 70
     0
  9
$DIMSD1
 70
     0
  9
$DIMSD2
 70
     0
  9
$DIMTOLJ
 70
     1
  9
$DIMTZIN
 70
     0
  9
$DIMALTZ
 70
     0
  9
$DIMALTTZ
 70
     0
  9
$DIMUPT
 70
     0
  9
$DIMDEC
 70
     4
  9
$DIMTDEC
 70
     4
  9
$DIMALTU
 70
     2
  9
$DIMALTTD
 70
     2
  9
$DIMTXSTY
  7
Standard
  9
$DIMAUNIT
 70
     0
  9
$DIMADEC
 70
     0
  9
$DIMALTRND
 40
0.0
  9
$DIMAZIN
 70
     0
  9
$DIMDSEP
 70
    46
  9
$DIMATFIT
 70
     3
  9
$DIMFRAC
 70
     0
  9
$DIMLDRBLK
  1

  9
$DIMLUNIT
 70
     2
  9
$DIMLWD
 70
    -2
  9
$DIMLWE
 70
    -2
  9
$DIMTMOVE
 70
     0
  9
$DIMFXL
 40
1.0
  9
$DIMFXLON
 70
     0
  9
$DIMJOGANG
 40
0.7853981633974483
  9
$DIMTFILL
 70
     0
  9
$DIMTFILLCLR
 70
     0
  9
$DIMARCSYM
 70
     0
  9
$DIMLTYPE
  6

  9
$DIMLTEX1
  6

  9
$DIMLTEX2
  6

  9
$DIMTXTDIRECTION
 70
     0
  9
$LUNITS
 70
     2
  9
$LUPREC
 70
     4
  9
$SKETCHINC
 40
0.1
  9
$FILLETRAD
 40
0.0
  9
$AUNITS
 70
     0
  9
$AUPREC
 70
     0
  9
$MENU
  1
.
  9
$ELEVATION
 40
0.0
  9
$PELEVATION
 40
0.0
  9
$THICKNESS
 40
0.0
  9
$LIMCHECK
 70
     0
  9
$CHAMFERA
 40
0.0
  9
$CHAMFERB
 40
0.0
  9
$CHAMFERC
 40
0.0
  9
$CHAMFERD
 40
0.0
  9
$SKPOLY
 70
     0
  9
$TDCREATE
 40
2459634.404652778
  9
$TDUCREATE
 40
2459634.362986111
  9
$TDUPDATE
 40
2459634.404652778
  9
$TDUUPDATE
 40
2459634.362986111
  9
$TDINDWG
 40
0.0000000000
  9
$TDUSRTIMER
 40
0.0000000000
  9
$USRTIMER
 70
     1
  9
$ANGBASE
 50
0.0
  9
$ANGDIR
 70
     0
  9
$PDMODE
 70
     0
  9
$PDSIZE
 40
0.0
  9
$PLINEWID
 40
0.0
  9
$SPLFRAME
 70
     0
  9
$SPLINETYPE
 70
     6
  9
$SPLINESEGS
 70
     8
  9
$HANDSEED
  5
158
  9
$SURFTAB1
 70
     6
  9
$SURFTAB2
 70
     6
  9
$SURFTYPE
 70
     6
  9
$SURFU
 70
     6
  9
$SURFV
 70
     6
  9
$UCSBASE
  2

  9
$UCSNAME
  2

  9
$UCSORG
 10
0.0
 20
0.0
 30
0.0
  9
$UCSXDIR
 10
1.0
 20
0.0
 30
0.0
  9
$UCSYDIR
 10
0.0
 20
1.0
 30
0.0
  9
$UCSORTHOREF
  2

  9
$UCSORTHOVIEW
 70
     0
  9
$UCSORGTOP
 10
0.0
 20
0.0
 30
0.0
  9
$UCSORGBOTTOM
 10
0.0
 20
0.0
 30
0.0
  9
$UCSORGLEFT
 10
0.0
 20
0.0
 30
0.0
  9
$UCSORGRIGHT
 10
0.0
 20
0.0
 30
0.0
  9
$UCSORGFRONT
 10
0.0
 20
0.0
 30
0.0
  9
$UCSORGBACK
 10
0.0
 20
0.0
 30
0.0
  9
$PUCSBASE
  2

  9
$PUCSNAME
  2

  9
$PUCSORG
 10
0.0
 20
0.0
 30
0.0
  9
$PUCSXDIR
 10
1.0
 20
0.0
 30
0.0
  9
$PUCSYDIR
 10
0.0
 20
1.0
 30
0.0
  9
$PUCSORTHOREF
  2

  9
$PUCSORTHOVIEW
 70
     0
  9
$PUCSORGTOP
 10
0.0
 20
0.0
 30
0.0
  9
$PUCSORGBOTTOM
 10
0.0
 20
0.0
 30
0.0
  9
$PUCSORGLEFT
 10
0.0
 20
0.0
 30
0.0
  9
$PUCSORGRIGHT
 10
0.0
 20
0.0
 30
0.0
  9
$PUCSORGFRONT
 10
0.0
 20
0.0
 30
0.0
  9
$PUCSORGBACK
 10
0.0
 20
0.0
 30
0.0
  9
$USERI1
 70
     0
  9
$USERI2
 70
     0
  9
$USERI3
 70
     0
  9
$USERI4
 70
     0
  9
$USERI5
 70
     0
  9
$USERR1
 40
0.0
  9
$USERR2
 40
0.0
  9
$USERR3
 40
0.0
  9
$USERR4
 40
0.0
  9
$USERR5
 40
0.0
  9
$WORLDVIEW
 70
     1
  9
$SHADEDGE
 70
     3
  9
$SHADEDIF
 70
    70
  9
$TILEMODE
 70
     1
  9
$MAXACTVP
 70
    64
  9
$PINSBASE
 10
0.0
 20
0.0
 30
0.0
  9
$PLIMCHECK
 70
     0
  9
$PEXTMIN
 10
1.000000000000000E+20
 20
1.000000000000000E+20
 30
1.000000000000000E+20
  9
$PEXTMAX
 10
-1.000000000000000E+20
 20
-1.000000000000000E+20
 30
-1.000000000000000E+20
  9
$PLIMMIN
 10
0.0
 20
0.0
  9
$PLIMMAX
 10
12.0
 20
9.0
  9
$UNITMODE
 70
     0
  9
$VISRETAIN
 70
     1
  9
$PLINEGEN
 70
     0
  9
$PSLTSCALE
 70
     1
  9
$TREEDEPTH
 70
  3020
  9
$CMLSTYLE
  2
Standard
  9
$CMLJUST
 70
     0
  9
$CMLSCALE
 40
1.0
  9
$PROXYGRAPHICS
 70
     1
  9
$MEASUREMENT
 70
     0
  9
$CELWEIGHT
370
    -1
  9
$ENDCAPS
280
     0
  9
$JOINSTYLE
280
     0
  9
$LWDISPLAY
290
     1
  9
$INSUNITS
 70
     4
  9
$HYPERLINKBASE
  1

  9
$STYLESHEET
  1

  9
$XEDIT
290
     1
  9
$CEPSNTYPE
380
     0
  9
$PSTYLEMODE
290
     1
  9
$FINGERPRINTGUID
  2
{8A39BD3F-3872-C64B-968B-2D5D8AB202BD}
  9
$VERSIONGUID
  2
{EF28A37B-E4C1-D540-909A-BC0E9227256E}
  9
$EXTNAMES
290
     1
  9
$PSVPSCALE
 40
0.0
  9
$OLESTARTUP
290
     0
  9
$SORTENTS
280
   127
  9
$INDEXCTL
280
     0
  9
$HIDETEXT
280
     1
  9
$XCLIPFRAME
280
     2
  9
$HALOGAP
280
     0
  9
$OBSCOLOR
 70
   257
  9
$OBSLTYPE
280
     0
  9
$INTERSECTIONDISPLAY
280
     0
  9
$INTERSECTIONCOLOR
 70
   257
  9
$DIMASSOC
280
     2
  9
$PROJECTNAME
  1

  9
$CAMERADISPLAY
290
     0
  9
$LENSLENGTH
 40
50.0
  9
$CAMERAHEIGHT
 40
0.0
  9
$STEPSPERSEC
 40
2.0
  9
$STEPSIZE
 40
6.0
  9
$3DDWFPREC
 40
2.0
  9
$PSOLWIDTH
 40
0.25
  9
$PSOLHEIGHT
 40
4.0
  9
$LOFTANG1
 40
1.570796326794896
  9
$LOFTANG2
 40
1.570796326794896
  9
$LOFTMAG1
 40
0.0
  9
$LOFTMAG2
 40
0.0
  9
$LOFTPARAM
 70
     7
  9
$LOFTNORMALS
280
     1
  9
$LATITUDE
 40
37.795
  9
$LONGITUDE
 40
-122.394
  9
$NORTHDIRECTION
 40
0.0
  9
$TIMEZONE
 70
 -8000
  9
$LIGHTGLYPHDISPLAY
280
     1
  9
$TILEMODELIGHTSYNCH
280
     1
  9
$CMATERIAL
347
11
  9
$SOLIDHIST
280
     0
  9
$SHOWHIST
280
     1
  9
$DWFFRAME
280
     2
  9
$DGNFRAME
280
     0
  9
$REALWORLDSCALE
290
     1
  9
$INTERFERECOLOR
 62
     1
  9
$INTERFEREOBJVS
345
33
  9
$INTERFEREVPVS
346
30
  9
$CSHADOW
280
     0
  9
$SHADOWPLANELOCATION
 40
0.0
  0
ENDSEC
  0
SECTION
  2
CLASSES
  0
CLASS
  1
ACDBDICTIONARYWDFLT
  2
AcDbDictionaryWithDefault
  3
ObjectDBX Classes
 90
        0
 91
        1
280
     0
281
     0
  0
CLASS
  1
MATERIAL
  2
AcDbMaterial
  3
ObjectDBX Classes
 90
     1153
 91
        3
280
     0
281
     0
  0
CLASS
  1
VISUALSTYLE
  2
AcDbVisualStyle
  3
ObjectDBX Classes
 90
     4095
 91
       24
280
     0
281
     0
  0
CLASS
  1
SCALE
  2
AcDbScale
  3
ObjectDBX Classes
 90
     1153
 91
       17
280
     0
281
     0
  0
CLASS
  1
TABLESTYLE
  2
AcDbTableStyle
  3
ObjectDBX Classes
 90
     4095
 91
        1
280
     0
281
     0
  0
CLASS
  1
MLEADERSTYLE
  2
AcDbMLeaderStyle
  3
ACDB_MLEADERSTYLE_CLASS
 90
     4095
 91
        1
280
     0
281
     0
  0
CLASS
  1
ACDBSECTIONVIEWSTYLE
  2
AcDbSectionViewStyle
  3
ObjectDBX Classes
 90
     1025
 91
        1
280
     0
281
     0
  0
CLASS
  1
ACDBDETAILVIEWSTYLE
  2
AcDbDetailViewStyle
  3
ObjectDBX Classes
 90
     1025
 91
        1
280
     0
281
     0
  0
CLASS
  1
DICTIONARYVAR
  2
AcDbDictionaryVar
  3
ObjectDBX Classes
 90
        0
 91
        5
280
     0
281
     0
  0
CLASS
  1
CELLSTYLEMAP
  2
AcDbCellStyleMap
  3
ObjectDBX Classes
 90
     1152
 91
        1
280
     0
281
     0
  0
ENDSEC
  0
SECTION
  2
TABLES
  0
TABLE
  2
VPORT
  5
8
330
0
100
AcDbSymbolTable
 70
     1
1001
ACAD
1000
DbSaveVer
1071
      205
  0
VPORT
  5
57
330
8
100
AcDbSymbolTableRecord
100
AcDbViewportTableRecord
  2
*Active
 70
     0
 10
0.0
 20
0.0
 11
1.0
 21
1.0
 12
0.0
 22
0.0
 13
0.0
 23
0.0
 14
1.0
 24
1.0
 15
0.0
 25
0.0
 16
0.0
 26
0.0
 36
1.0
 17
66.19444146091453
 27
-56.6014008274621
 37
0.0
 40
115.4668576880226
 41
1.169484155748987
 42
50.0
 43
0.0
 44
0.0
 50
0.0
 51
0.0
 71
     0
 72
   100
 73
     1
 74
     0
 75
     1
 76
     0
 77
     0
 78
     0
281
     0
 65
     1
110
0.0
120
0.0
130
0.0
111
1.0
121
0.0
131
0.0
112
0.0
122
1.0
132
0.0
 79
     0
146
0.0
 60
     3
 61
     5
292
     1
282
     1
141
0.0
142
0.0
 63
   250
421
  3355443
  0
ENDTAB
  0
TABLE
  2
LTYPE
  5
5
330
0
100
AcDbSymbolTable
 70
     1
  0
LTYPE
  5
5B
330
5
100
AcDbSymbolTableRecord
100
AcDbLinetypeTableRecord
  2
ByBlock
 70
     0
  3

 72
    65
 73
     0
 40
0.0
  0
LTYPE
  5
5C
330
5
100
AcDbSymbolTableRecord
100
AcDbLinetypeTableRecord
  2
ByLayer
 70
     0
  3

 72
    65
 73
     0
 40
0.0
  0
LTYPE
  5
5D
330
5
100
AcDbSymbolTableRecord
100
AcDbLinetypeTableRecord
  2
Continuous
 70
     0
  3
Solid line
 72
    65
 73
     0
 40
0.0
  0
ENDTAB
  0
TABLE
  2
LAYER
  5
2
330
0
100
AcDbSymbolTable
 70
     2
  0
LAYER
  5
54
330
2
100
AcDbSymbolTableRecord
100
AcDbLayerTableRecord
  2
0
 70
     0
 62
     7
  6
Continuous
370
    -3
390
F
347
21
348
0
  0
LAYER
  5
78
330
2
100
AcDbSymbolTableRecord
100
AcDbLayerTableRecord
  2
Capa 1
 70
     0
 62
     7
  6
Continuous
370
     0
390
F
347
21
348
0
  0
ENDTAB
  0
TABLE
  2
STYLE
  5
3
330
0
100
AcDbSymbolTable
 70
     2
  0
STYLE
  5
55
330
3
100
AcDbSymbolTableRecord
100
AcDbTextStyleTableRecord
  2
Standard
 70
     0
 40
0.0
 41
1.0
 50
0.0
 71
     0
 42
0.2
  3
txt
  4

  0
STYLE
  5
5A
330
3
100
AcDbSymbolTableRecord
100
AcDbTextStyleTableRecord
  2
Annotative
 70
     0
 40
0.0
 41
1.0
 50
0.0
 71
     0
 42
0.2
  3
txt
  4

1001
AcadAnnotative
1000
AnnotativeData
1002
{
1070
     1
1070
     1
1002
}
  0
ENDTAB
  0
TABLE
  2
VIEW
  5
6
330
0
100
AcDbSymbolTable
 70
     0
  0
ENDTAB
  0
TABLE
  2
UCS
  5
7
330
0
100
AcDbSymbolTable
 70
     0
  0
ENDTAB
  0
TABLE
  2
APPID
  5
9
330
0
100
AcDbSymbolTable
 70
     2
  0
APPID
  5
56
330
9
100
AcDbSymbolTableRecord
100
AcDbRegAppTableRecord
  2
ACAD
 70
     0
  0
APPID
  5
5E
330
9
100
AcDbSymbolTableRecord
100
AcDbRegAppTableRecord
  2
AcadAnnotative
 70
     0
  0
ENDTAB
  0
TABLE
  2
DIMSTYLE
  5
A
330
0
100
AcDbSymbolTable
 70
     2
100
AcDbDimStyleTable
 71
     0
  0
DIMSTYLE
105
58
330
A
100
AcDbSymbolTableRecord
100
AcDbDimStyleTableRecord
  2
Standard
 70
     0
340
55
  0
DIMSTYLE
105
59
330
A
100
AcDbSymbolTableRecord
100
AcDbDimStyleTableRecord
  2
Annotative
 70
     0
340
55
1001
AcadAnnotative
1000
AnnotativeData
1002
{
1070
     1
1070
     1
1002
}
  0
ENDTAB
  0
TABLE
  2
BLOCK_RECORD
  5
1
330
0
100
AcDbSymbolTable
 70
     3
  0
BLOCK_RECORD
  5
70
330
1
100
AcDbSymbolTableRecord
100
AcDbBlockTableRecord
  2
*Model_Space
340
73
 70
     0
280
     1
281
     0
  0
BLOCK_RECORD
  5
6C
330
1
100
AcDbSymbolTableRecord
100
AcDbBlockTableRecord
  2
*Paper_Space
340
6F
 70
     0
280
     1
281
     0
  0
BLOCK_RECORD
  5
74
330
1
100
AcDbSymbolTableRecord
100
AcDbBlockTableRecord
  2
*Paper_Space0
340
77
 70
     0
280
     1
281
     0
  0
BLOCK_RECORD
  5
F2
330
1
100
AcDbSymbolTableRecord
100
AcDbBlockTableRecord
  2
Block_0
340
0
102
{BLKREFS
331
F3
102
}
 70
     0
280
     1
281
     0
  0
BLOCK_RECORD
  5
10F
330
1
100
AcDbSymbolTableRecord
100
AcDbBlockTableRecord
  2
Block_1
340
0
102
{BLKREFS
331
110
102
}
 70
     0
280
     1
281
     0
  0
ENDTAB
  0
ENDSEC
  0
SECTION
  2
BLOCKS
  0
BLOCK
  5
71
330
70
100
AcDbEntity
  8
0
100
AcDbBlockBegin
  2
*Model_Space
 70
     0
 10
0.0
 20
0.0
 30
0.0
  3
*Model_Space
  1

  0
ENDBLK
  5
72
330
70
100
AcDbEntity
  8
0
100
AcDbBlockEnd
  0
BLOCK
  5
6D
330
6C
100
AcDbEntity
 67
     1
  8
0
100
AcDbBlockBegin
  2
*Paper_Space
 70
     0
 10
0.0
 20
0.0
 30
0.0
  3
*Paper_Space
  1

  0
ENDBLK
  5
6E
330
6C
100
AcDbEntity
 67
     1
  8
0
100
AcDbBlockEnd
  0
BLOCK
  5
75
330
74
100
AcDbEntity
 67
     1
  8
0
100
AcDbBlockBegin
  2
*Paper_Space0
 70
     0
 10
0.0
 20
0.0
 30
0.0
  3
*Paper_Space0
  1

  0
ENDBLK
  5
76
330
74
100
AcDbEntity
 67
     1
  8
0
100
AcDbBlockEnd
  0
BLOCK
  5
F4
330
F2
100
AcDbEntity
  8
0
100
AcDbBlockBegin
  2
Block_0
 70
     0
 10
0.0
 20
0.0
 30
0.0
  3
Block_0
  1

  0
LINE
  5
F6
330
F2
100
AcDbEntity
  8
Capa 1
 62
     7
420
 16777215
370
   158
100
AcDbLine
 10
76.34365109202509
 20
-63.54893006927094
 30
0.0
 11
76.34365109202509
 21
-59.04826185075921
 31
0.0
  0
LINE
  5
F7
330
F2
100
AcDbEntity
  8
Capa 1
 62
     7
420
 16777215
370
   158
100
AcDbLine
 10
83.21301053475224
 20
-63.54893006927094
 30
0.0
 11
83.21301053475224
 21
-59.04826185075921
 31
0.0
  0
LINE
  5
F8
330
F2
100
AcDbEntity
  8
Capa 1
 62
     7
420
 16777215
370
   158
100
AcDbLine
 10
90.2051719218932
 20
-63.54893006927094
 30
0.0
 11
90.2051719218932
 21
-59.04826185075921
 31
0.0
  0
LWPOLYLINE
  5
F9
330
F2
100
AcDbEntity
  8
Capa 1
100
AcDbPolyline
 90
        4
 70
     1
 43
0.0
 10
60.28005609604099
 20
-99.80083219996343
 10
114.7800587961726
 20
-99.80083219996343
 10
114.7800587961726
 20
-56.22603970053788
 10
60.28005609604099
 20
-56.22603970053788
  0
ENDBLK
  5
F5
330
F2
100
AcDbEntity
  8
0
100
AcDbBlockEnd
  0
BLOCK
  5
111
330
10F
100
AcDbEntity
  8
0
100
AcDbBlockBegin
  2
Block_1
 70
     0
 10
0.0
 20
0.0
 30
0.0
  3
Block_1
  1

  0
LINE
  5
113
330
10F
100
AcDbEntity
  8
Capa 1
 62
     7
420
 16777215
370
   158
100
AcDbLine
 10
95.40518692059327
 20
-63.54893006927094
 30
0.0
 11
95.40518692059327
 21
-59.04826185075921
 31
0.0
  0
LWPOLYLINE
  5
114
330
10F
100
AcDbEntity
  8
Capa 1
100
AcDbPolyline
 90
        4
 70
     1
 43
0.0
 10
60.28005609604099
 20
-99.80083219996343
 10
114.7800587961726
 20
-99.80083219996343
 10
114.7800587961726
 20
-56.22603970053788
 10
60.28005609604099
 20
-56.22603970053788
  0
ENDBLK
  5
112
330
10F
100
AcDbEntity
  8
0
100
AcDbBlockEnd
  0
ENDSEC
  0
SECTION
  2
ENTITIES
  0
SPLINE
  5
79
330
70
100
AcDbEntity
  8
Capa 1
 62
   250
420
  1907996
370
     9
100
AcDbSpline
210
0.0
220
0.0
230
1.0
 70
     9
 71
     3
 72
    29
 73
    25
 74
     0
 42
0.0000000001
 43
0.0000000001
 40
0.0
 40
0.0
 40
0.0
 40
0.0
 40
1.0
 40
1.0
 40
1.0
 40
2.0
 40
2.0
 40
2.0
 40
3.0
 40
3.0
 40
3.0
 40
4.0
 40
4.0
 40
4.0
 40
5.0
 40
5.0
 40
5.0
 40
6.0
 40
6.0
 40
6.0
 40
7.0
 40
7.0
 40
7.0
 40
8.0
 40
8.0
 40
8.0
 40
8.0
 10
59.40086331848313
 20
-20.86436750592762
 30
0.0
 10
59.40086331848313
 20
-21.05921143105174
 30
0.0
 10
59.24288942963375
 20
-21.2171452836172
 30
0.0
 10
59.04808554079354
 20
-21.2171452836172
 30
0.0
 10
59.04808554079354
 20
-21.2171452836172
 30
0.0
 10
27.73182582640052
 20
-21.2171452836172
 30
0.0
 10
27.73182582640052
 20
-21.2171452836172
 30
0.0
 10
27.53698665978245
 20
-21.2171452836172
 30
0.0
 10
27.37904804871093
 20
-21.05921143105174
 30
0.0
 10
27.37904804871093
 20
-20.86436750592762
 30
0.0
 10
27.37904804871093
 20
-20.86436750592762
 30
0.0
 10
27.37904804871093
 20
-20.55311644396298
 30
0.0
 10
27.37904804871093
 20
-20.55311644396298
 30
0.0
 10
27.37904804871093
 20
-20.35831256004428
 30
0.0
 10
27.53698665978245
 20
-20.20033867518564
 30
0.0
 10
27.73182582640052
 20
-20.20033867518564
 30
0.0
 10
27.73182582640052
 20
-20.20033867518564
 30
0.0
 10
59.04808554079354
 20
-20.20033867518564
 30
0.0
 10
59.04808554079354
 20
-20.20033867518564
 30
0.0
 10
59.24288942963375
 20
-20.20033867518564
 30
0.0
 10
59.40086331848313
 20
-20.35831256004428
 30
0.0
 10
59.40086331848313
 20
-20.55311644396298
 30
0.0
 10
59.40086331848313
 20
-20.55311644396298
 30
0.0
 10
59.40086331848313
 20
-20.86436750592762
 30
0.0
 10
59.40086331848313
 20
-20.86436750592762
 30
0.0
  0
SPLINE
  5
7A
330
70
100
AcDbEntity
  8
Capa 1
 62
   250
420
  1907996
370
     9
100
AcDbSpline
210
0.0
220
0.0
230
1.0
 70
    11
 71
     3
 72
    23
 73
    19
 74
     0
 42
0.0000000001
 43
0.0000000001
 40
0.0
 40
0.0
 40
0.0
 40
0.0
 40
1.0
 40
1.0
 40
1.0
 40
2.0
 40
2.0
 40
2.0
 40
3.0
 40
3.0
 40
3.0
 40
4.0
 40
4.0
 40
4.0
 40
5.0
 40
5.0
 40
5.0
 40
6.0
 40
6.0
 40
6.0
 40
6.0
 10
58.78590109641468
 20
-21.2171452836172
 30
0.0
 10
58.78590109641468
 20
-21.2171452836172
 30
0.0
 10
58.78590109641468
 20
-79.21670800288595
 30
0.0
 10
58.78590109641468
 20
-79.21670800288595
 30
0.0
 10
58.78590109641468
 20
-79.41172026906833
 30
0.0
 10
58.62796248534316
 20
-79.56948577166362
 30
0.0
 10
58.43312331872509
 20
-79.56948577166362
 30
0.0
 10
58.43312331872509
 20
-79.56948577166362
 30
0.0
 10
28.34710554846888
 20
-79.56948577166362
 30
0.0
 10
28.34710554846888
 20
-79.56948577166362
 30
0.0
 10
28.15230165962866
 20
-79.56948577166362
 30
0.0
 10
27.99432777077929
 20
-79.41172026906833
 30
0.0
 10
27.99432777077929
 20
-79.21670800288595
 30
0.0
 10
27.99432777077929
 20
-79.21670800288595
 30
0.0
 10
27.99432777077929
 20
-21.2171452836172
 30
0.0
 10
27.99432777077929
 20
-21.2171452836172
 30
0.0
 10
27.99432777077929
 20
-21.2171452836172
 30
0.0
 10
58.78590109641468
 20
-21.2171452836172
 30
0.0
 10
58.78590109641468
 20
-21.2171452836172
 30
0.0
  0
LINE
  5
7B
330
70
100
AcDbEntity
  8
Capa 1
 62
   250
420
  1907996
370
     9
100
AcDbLine
 10
27.99432777077929
 20
-79.01897606348606
 30
0.0
 11
58.78590109641468
 21
-79.01897606348606
 31
0.0
  0
SPLINE
  5
7C
330
70
100
AcDbEntity
  8
Capa 1
 62
   250
420
  1907996
370
     9
100
AcDbSpline
210
0.0
220
0.0
230
1.0
 70
     8
 71
     3
 72
    26
 73
    22
 74
     0
 42
0.0000000001
 43
0.0000000001
 40
0.0
 40
0.0
 40
0.0
 40
0.0
 40
1.0
 40
1.0
 40
1.0
 40
2.0
 40
2.0
 40
2.0
 40
3.0
 40
3.0
 40
3.0
 40
4.0
 40
4.0
 40
4.0
 40
5.0
 40
5.0
 40
5.0
 40
6.0
 40
6.0
 40
6.0
 40
7.0
 40
7.0
 40
7.0
 40
7.0
 10
45.22893332202565
 20
-79.56948577166362
 30
0.0
 10
44.8174180443513
 20
-79.56948577166362
 30
0.0
 10
44.8246499887938
 20
-79.92226354044129
 30
0.0
 10
44.8246499887938
 20
-79.92226354044129
 30
0.0
 10
44.8246499887938
 20
-79.92226354044129
 30
0.0
 10
44.8246499887938
 20
-82.90986471263861
 30
0.0
 10
44.8246499887938
 20
-82.90986471263861
 30
0.0
 10
44.8246499887938
 20
-83.10484818146901
 30
0.0
 10
44.66671137772228
 20
-83.26264249032819
 30
0.0
 10
44.47187221110421
 20
-83.26264249032819
 30
0.0
 10
44.47187221110421
 20
-83.26264249032819
 30
0.0
 10
42.34779721163532
 20
-83.26264249032819
 30
0.0
 10
42.34779721163532
 20
-83.26264249032819
 30
0.0
 10
42.15299332279512
 20
-83.26264249032819
 30
0.0
 10
41.99501943394575
 20
-83.10484818146901
 30
0.0
 10
41.99501943394575
 20
-82.90986471263861
 30
0.0
 10
41.99501943394575
 20
-82.90986471263861
 30
0.0
 10
41.99501943394575
 20
-79.92226354044129
 30
0.0
 10
41.99501943394575
 20
-79.92226354044129
 30
0.0
 10
41.99501943394575
 20
-79.92226354044129
 30
0.0
 10
42.0098361006082
 20
-79.56948577166362
 30
0.0
 10
41.65705832291862
 20
-79.56948577166362
 30
0.0
  0
LINE
  5
7D
330
70
100
AcDbEntity
  8
Capa 1
 62
   250
420
  1907996
370
     9
100
AcDbLine
 10
41.99501943394575
 20
-79.92226354044129
 30
0.0
 11
44.8246499887938
 21
-79.92226354044129
 31
0.0
  0
LWPOLYLINE
  5
7E
330
70
100
AcDbEntity
  8
Capa 1
 62
   250
420
  1907996
370
     9
100
AcDbPolyline
 90
        7
 70
     1
 43
0.0
 10
35.54183193555888
 20
-20.20033867518564
 10
35.54183193555888
 20
-14.49232382080922
 10
37.61563610170735
 20
-12.88743191730899
 10
49.6825763764684
 20
-12.88743191730899
 10
49.6825763764684
 20
-17.14383680871905
 10
50.6303138762314
 20
-17.14383680871905
 10
50.6303138762314
 20
-20.20033867518564
  0
LWPOLYLINE
  5
7F
330
70
100
AcDbEntity
  8
Capa 1
 62
   250
420
  1907996
370
     9
100
AcDbPolyline
 90
        4
 70
     1
 43
0.0
 10
43.05698637812468
 20
-12.88743191730899
 10
41.20042276747763
 20
-12.88743191730899
 10
41.20042276747763
 20
-12.38874526336487
 10
43.05698637812468
 20
-12.38874526336487
  0
LWPOLYLINE
  5
80
330
70
100
AcDbEntity
  8
Capa 1
 62
   250
420
  1907996
370
     9
100
AcDbPolyline
 90
        4
 70
     1
 43
0.0
 10
45.70313721079647
 20
-12.88743191730899
 10
43.84660887792725
 20
-12.88743191730899
 10
43.84660887792725
 20
-12.38874526336487
 10
45.70313721079647
 20
-12.38874526336487
  0
LWPOLYLINE
  5
81
330
70
100
AcDbEntity
  8
Capa 1
 62
   250
420
  1907996
370
     9
100
AcDbPolyline
 90
        4
 70
     1
 43
0.0
 10
48.3493233212461
 20
-12.88743191730899
 10
46.49275971059906
 20
-12.88743191730899
 10
46.49275971059906
 20
-12.38874526336487
 10
48.3493233212461
 20
-12.38874526336487
  0
SPLINE
  5
82
330
70
100
AcDbEntity
  8
Capa 1
 62
   250
420
  1907996
370
    35
100
AcDbSpline
210
0.0
220
0.0
230
1.0
 70
     9
 71
     3
 72
   128
 73
   124
 74
     0
 42
0.0000000001
 43
0.0000000001
 40
0.0
 40
0.0
 40
0.0
 40
0.0
 40
1.0
 40
1.0
 40
1.0
 40
2.0
 40
2.0
 40
2.0
 40
3.0
 40
3.0
 40
3.0
 40
4.0
 40
4.0
 40
4.0
 40
5.0
 40
5.0
 40
5.0
 40
6.0
 40
6.0
 40
6.0
 40
7.0
 40
7.0
 40
7.0
 40
8.0
 40
8.0
 40
8.0
 40
9.0
 40
9.0
 40
9.0
 40
10.0
 40
10.0
 40
10.0
 40
11.0
 40
11.0
 40
11.0
 40
12.0
 40
12.0
 40
12.0
 40
13.0
 40
13.0
 40
13.0
 40
14.0
 40
14.0
 40
14.0
 40
15.0
 40
15.0
 40
15.0
 40
16.0
 40
16.0
 40
16.0
 40
17.0
 40
17.0
 40
17.0
 40
18.0
 40
18.0
 40
18.0
 40
19.0
 40
19.0
 40
19.0
 40
20.0
 40
20.0
 40
20.0
 40
21.0
 40
21.0
 40
21.0
 40
22.0
 40
22.0
 40
22.0
 40
23.0
 40
23.0
 40
23.0
 40
24.0
 40
24.0
 40
24.0
 40
25.0
 40
25.0
 40
25.0
 40
26.0
 40
26.0
 40
26.0
 40
27.0
 40
27.0
 40
27.0
 40
28.0
 40
28.0
 40
28.0
 40
29.0
 40
29.0
 40
29.0
 40
30.0
 40
30.0
 40
30.0
 40
31.0
 40
31.0
 40
31.0
 40
32.0
 40
32.0
 40
32.0
 40
33.0
 40
33.0
 40
33.0
 40
34.0
 40
34.0
 40
34.0
 40
35.0
 40
35.0
 40
35.0
 40
36.0
 40
36.0
 40
36.0
 40
37.0
 40
37.0
 40
37.0
 40
38.0
 40
38.0
 40
38.0
 40
39.0
 40
39.0
 40
39.0
 40
40.0
 40
40.0
 40
40.0
 40
41.0
 40
41.0
 40
41.0
 40
41.0
 10
59.04808554079354
 20
-20.20033867518564
 30
0.0
 10
59.04808554079354
 20
-20.20033867518564
 30
0.0
 10
50.6303138762314
 20
-20.20033867518564
 30
0.0
 10
50.6303138762314
 20
-20.20033867518564
 30
0.0
 10
50.6303138762314
 20
-20.20033867518564
 30
0.0
 10
50.6303138762314
 20
-17.14383680871905
 30
0.0
 10
50.6303138762314
 20
-17.14383680871905
 30
0.0
 10
50.6303138762314
 20
-17.14383680871905
 30
0.0
 10
49.6825763764684
 20
-17.14383680871905
 30
0.0
 10
49.6825763764684
 20
-17.14383680871905
 30
0.0
 10
49.6825763764684
 20
-17.14383680871905
 30
0.0
 10
49.6825763764684
 20
-12.88743191730899
 30
0.0
 10
49.6825763764684
 20
-12.88743191730899
 30
0.0
 10
49.6825763764684
 20
-12.88743191730899
 30
0.0
 10
48.3493233212461
 20
-12.88743191730899
 30
0.0
 10
48.3493233212461
 20
-12.88743191730899
 30
0.0
 10
48.3493233212461
 20
-12.88743191730899
 30
0.0
 10
48.3493233212461
 20
-12.38874526336487
 30
0.0
 10
48.3493233212461
 20
-12.38874526336487
 30
0.0
 10
48.3493233212461
 20
-12.38874526336487
 30
0.0
 10
46.49275971059906
 20
-12.38874526336487
 30
0.0
 10
46.49275971059906
 20
-12.38874526336487
 30
0.0
 10
46.49275971059906
 20
-12.38874526336487
 30
0.0
 10
46.49275971059906
 20
-12.88743191730899
 30
0.0
 10
46.49275971059906
 20
-12.88743191730899
 30
0.0
 10
46.49275971059906
 20
-12.88743191730899
 30
0.0
 10
45.70313721079647
 20
-12.88743191730899
 30
0.0
 10
45.70313721079647
 20
-12.88743191730899
 30
0.0
 10
45.70313721079647
 20
-12.88743191730899
 30
0.0
 10
45.70313721079647
 20
-12.38874526336487
 30
0.0
 10
45.70313721079647
 20
-12.38874526336487
 30
0.0
 10
45.70313721079647
 20
-12.38874526336487
 30
0.0
 10
43.84660887792725
 20
-12.38874526336487
 30
0.0
 10
43.84660887792725
 20
-12.38874526336487
 30
0.0
 10
43.84660887792725
 20
-12.38874526336487
 30
0.0
 10
43.84660887792725
 20
-12.88743191730899
 30
0.0
 10
43.84660887792725
 20
-12.88743191730899
 30
0.0
 10
43.84660887792725
 20
-12.88743191730899
 30
0.0
 10
43.05698637812468
 20
-12.88743191730899
 30
0.0
 10
43.05698637812468
 20
-12.88743191730899
 30
0.0
 10
43.05698637812468
 20
-12.88743191730899
 30
0.0
 10
43.05698637812468
 20
-12.38874526336487
 30
0.0
 10
43.05698637812468
 20
-12.38874526336487
 30
0.0
 10
43.05698637812468
 20
-12.38874526336487
 30
0.0
 10
41.20042276747763
 20
-12.38874526336487
 30
0.0
 10
41.20042276747763
 20
-12.38874526336487
 30
0.0
 10
41.20042276747763
 20
-12.38874526336487
 30
0.0
 10
41.20042276747763
 20
-12.88743191730899
 30
0.0
 10
41.20042276747763
 20
-12.88743191730899
 30
0.0
 10
41.20042276747763
 20
-12.88743191730899
 30
0.0
 10
37.61563610170735
 20
-12.88743191730899
 30
0.0
 10
37.61563610170735
 20
-12.88743191730899
 30
0.0
 10
37.61563610170735
 20
-12.88743191730899
 30
0.0
 10
35.54183193555888
 20
-14.49232382080922
 30
0.0
 10
35.54183193555888
 20
-14.49232382080922
 30
0.0
 10
35.54183193555888
 20
-14.49232382080922
 30
0.0
 10
35.54183193555888
 20
-20.20033867518564
 30
0.0
 10
35.54183193555888
 20
-20.20033867518564
 30
0.0
 10
35.54183193555888
 20
-20.20033867518564
 30
0.0
 10
27.73182582640052
 20
-20.20033867518564
 30
0.0
 10
27.73182582640052
 20
-20.20033867518564
 30
0.0
 10
27.53698665978245
 20
-20.20033867518564
 30
0.0
 10
27.37904804871093
 20
-20.35831256004428
 30
0.0
 10
27.37904804871093
 20
-20.55311644396298
 30
0.0
 10
27.37904804871093
 20
-20.55311644396298
 30
0.0
 10
27.37904804871093
 20
-20.86436750592762
 30
0.0
 10
27.37904804871093
 20
-20.86436750592762
 30
0.0
 10
27.37904804871093
 20
-21.05921143105174
 30
0.0
 10
27.53698665978245
 20
-21.2171452836172
 30
0.0
 10
27.73182582640052
 20
-21.2171452836172
 30
0.0
 10
27.73182582640052
 20
-21.2171452836172
 30
0.0
 10
27.99432777077929
 20
-21.2171452836172
 30
0.0
 10
27.99432777077929
 20
-21.2171452836172
 30
0.0
 10
27.99432777077929
 20
-21.2171452836172
 30
0.0
 10
27.99432777077929
 20
-79.21670800288595
 30
0.0
 10
27.99432777077929
 20
-79.21670800288595
 30
0.0
 10
27.99432777077929
 20
-79.41172026906833
 30
0.0
 10
28.15230165962866
 20
-79.56948577166362
 30
0.0
 10
28.34710554846888
 20
-79.56948577166362
 30
0.0
 10
28.34710554846888
 20
-79.56948577166362
 30
0.0
 10
41.65705832291862
 20
-79.56948577166362
 30
0.0
 10
41.65705832291862
 20
-79.56948577166362
 30
0.0
 10
42.0098361006082
 20
-79.56948577166362
 30
0.0
 10
41.99501943394575
 20
-79.92226354044129
 30
0.0
 10
41.99501943394575
 20
-79.92226354044129
 30
0.0
 10
41.99501943394575
 20
-79.92226354044129
 30
0.0
 10
41.99501943394575
 20
-82.90986471263861
 30
0.0
 10
41.99501943394575
 20
-82.90986471263861
 30
0.0
 10
41.99501943394575
 20
-83.10484818146901
 30
0.0
 10
42.15299332279512
 20
-83.26264249032819
 30
0.0
 10
42.34779721163532
 20
-83.26264249032819
 30
0.0
 10
42.34779721163532
 20
-83.26264249032819
 30
0.0
 10
44.47187221110421
 20
-83.26264249032819
 30
0.0
 10
44.47187221110421
 20
-83.26264249032819
 30
0.0
 10
44.66671137772228
 20
-83.26264249032819
 30
0.0
 10
44.8246499887938
 20
-83.10484818146901
 30
0.0
 10
44.8246499887938
 20
-82.90986471263861
 30
0.0
 10
44.8246499887938
 20
-82.90986471263861
 30
0.0
 10
44.8246499887938
 20
-79.92226354044129
 30
0.0
 10
44.8246499887938
 20
-79.92226354044129
 30
0.0
 10
44.8246499887938
 20
-79.92226354044129
 30
0.0
 10
44.8174180443513
 20
-79.56948577166362
 30
0.0
 10
45.22893332202565
 20
-79.56948577166362
 30
0.0
 10
45.22893332202565
 20
-79.56948577166362
 30
0.0
 10
58.43312331872509
 20
-79.56948577166362
 30
0.0
 10
58.43312331872509
 20
-79.56948577166362
 30
0.0
 10
58.62796248534316
 20
-79.56948577166362
 30
0.0
 10
58.78590109641468
 20
-79.41172026906833
 30
0.0
 10
58.78590109641468
 20
-79.21670800288595
 30
0.0
 10
58.78590109641468
 20
-79.21670800288595
 30
0.0
 10
58.78590109641468
 20
-21.2171452836172
 30
0.0
 10
58.78590109641468
 20
-21.2171452836172
 30
0.0
 10
58.78590109641468
 20
-21.2171452836172
 30
0.0
 10
59.04808554079354
 20
-21.2171452836172
 30
0.0
 10
59.04808554079354
 20
-21.2171452836172
 30
0.0
 10
59.24288942963375
 20
-21.2171452836172
 30
0.0
 10
59.40086331848313
 20
-21.05921143105174
 30
0.0
 10
59.40086331848313
 20
-20.86436750592762
 30
0.0
 10
59.40086331848313
 20
-20.86436750592762
 30
0.0
 10
59.40086331848313
 20
-20.55311644396298
 30
0.0
 10
59.40086331848313
 20
-20.55311644396298
 30
0.0
 10
59.40086331848313
 20
-20.35831256004428
 30
0.0
 10
59.24288942963375
 20
-20.20033867518564
 30
0.0
 10
59.04808554079354
 20
-20.20033867518564
 30
0.0
  0
LWPOLYLINE
  5
83
330
70
100
AcDbEntity
  8
Capa 1
 62
   250
420
  1907996
370
     9
100
AcDbPolyline
 90
        3
 70
     0
 43
0.0
 10
41.39039360076366
 20
-12.88743191730899
 10
41.39039360076366
 20
-17.14383680871905
 10
49.6825763764684
 20
-17.14383680871905
  0
LINE
  5
84
330
70
100
AcDbEntity
  8
Capa 1
 62
   250
420
  1907996
370
     9
100
AcDbLine
 10
42.32179748941963
 20
-17.14383680871905
 30
0.0
 11
42.32179748941963
 21
-20.20033867518564
 31
0.0
  0
LWPOLYLINE
  5
85
330
70
100
AcDbEntity
  8
Capa 1
 62
   250
420
  1907996
370
     9
100
AcDbPolyline
 90
        4
 70
     1
 43
0.0
 10
44.44809498888797
 20
-19.61896091224004
 10
42.83889915595701
 20
-19.61896091224004
 10
42.83889915595701
 20
-17.53072818773752
 10
44.44809498888797
 20
-17.53072818773752
  0
LINE
  5
86
330
70
100
AcDbEntity
  8
Capa 1
 62
   250
420
  1907996
370
     9
100
AcDbLine
 10
42.83889915595701
 20
-19.108420925265
 30
0.0
 11
44.44809498888797
 21
-19.108420925265
 31
0.0
  0
LINE
  5
87
330
70
100
AcDbEntity
  8
Capa 1
 62
   250
420
  1907996
370
     9
100
AcDbLine
 10
43.39011443359698
 20
-17.53072818773752
 30
0.0
 11
43.39011443359698
 21
-19.108420925265
 31
0.0
  0
LINE
  5
88
330
70
100
AcDbEntity
  8
Capa 1
 62
   250
420
  1907996
370
     9
100
AcDbLine
 10
43.64351471131125
 20
-19.108420925265
 30
0.0
 11
43.64351471131125
 21
-17.53072818773752
 31
0.0
  0
LWPOLYLINE
  5
89
330
70
100
AcDbEntity
  8
Capa 1
 62
   250
420
  1907996
370
     9
100
AcDbPolyline
 90
        4
 70
     1
 43
0.0
 10
47.29737526595298
 20
-19.61896091224004
 10
45.68817943302233
 20
-19.61896091224004
 10
45.68817943302233
 20
-17.53072818773752
 10
47.29737526595298
 20
-17.53072818773752
  0
LINE
  5
8A
330
70
100
AcDbEntity
  8
Capa 1
 62
   250
420
  1907996
370
     9
100
AcDbLine
 10
45.68817943302233
 20
-19.108420925265
 30
0.0
 11
47.29737526595298
 21
-19.108420925265
 31
0.0
  0
LINE
  5
8B
330
70
100
AcDbEntity
  8
Capa 1
 62
   250
420
  1907996
370
     9
100
AcDbLine
 10
46.23939471066231
 20
-17.53072818773752
 30
0.0
 11
46.23939471066231
 21
-19.108420925265
 31
0.0
  0
LINE
  5
8C
330
70
100
AcDbEntity
  8
Capa 1
 62
   250
420
  1907996
370
     9
100
AcDbLine
 10
46.49275971059906
 20
-19.108420925265
 30
0.0
 11
46.49275971059906
 21
-17.53072818773752
 31
0.0
  0
LWPOLYLINE
  5
8D
330
70
100
AcDbEntity
  8
Capa 1
 62
   250
420
  1907996
370
     9
100
AcDbPolyline
 90
        4
 70
     1
 43
0.0
 10
50.1466202652411
 20
-19.61896091224004
 10
48.53742443231014
 20
-19.61896091224004
 10
48.53742443231014
 20
-17.53072818773752
 10
50.1466202652411
 20
-17.53072818773752
  0
LINE
  5
8E
330
70
100
AcDbEntity
  8
Capa 1
 62
   250
420
  1907996
370
     9
100
AcDbLine
 10
48.53742443231014
 20
-19.108420925265
 30
0.0
 11
50.1466202652411
 21
-19.108420925265
 31
0.0
  0
LINE
  5
8F
330
70
100
AcDbEntity
  8
Capa 1
 62
   250
420
  1907996
370
     9
100
AcDbLine
 10
49.08863970995011
 20
-17.53072818773752
 30
0.0
 11
49.08863970995011
 21
-19.108420925265
 31
0.0
  0
LINE
  5
90
330
70
100
AcDbEntity
  8
Capa 1
 62
   250
420
  1907996
370
     9
100
AcDbLine
 10
49.34203998766438
 20
-19.108420925265
 30
0.0
 11
49.34203998766438
 21
-17.53072818773752
 31
0.0
  0
CIRCLE
  5
91
330
70
100
AcDbEntity
  8
Capa 1
 62
   250
420
  1907996
370
    35
100
AcDbCircle
 10
82.72759007654007
 20
-36.57420131300916
 30
0.0
 40
16.40278797621459
  0
CIRCLE
  5
92
330
70
100
AcDbEntity
  8
Capa 1
 62
   250
420
  1907996
370
     9
100
AcDbCircle
 10
82.72759007654007
 20
-36.57420131300916
 30
0.0
 40
15.78542687305575
  0
ELLIPSE
  5
93
330
70
100
AcDbEntity
  8
Capa 1
 62
   250
420
  1907996
370
     9
100
AcDbEllipse
 10
82.72759536820675
 20
-36.57419130711708
 30
0.0
 11
-4.238156470330439
 21
14.40098981509575
 31
0.0
210
0.0
220
0.0
230
1.0
 40
0.9999987694901403
 41
0.0
 42
6.283185307179586
  0
ELLIPSE
  5
94
330
70
100
AcDbEntity
  8
Capa 1
 62
   250
420
  1907996
370
     9
100
AcDbEllipse
 10
82.72759572098456
 20
-36.57419130906656
 30
0.0
 11
-3.940829413765163
 21
14.16502723547693
 31
0.0
210
0.0
220
0.0
230
0.9999999999999998
 40
0.9999986825281519
 41
0.0
 42
6.283185307179586
  0
ELLIPSE
  5
95
330
70
100
AcDbEntity
  8
Capa 1
 62
   250
420
  1907996
370
     9
100
AcDbEllipse
 10
82.72759572098456
 20
-36.57419131129453
 30
0.0
 11
-3.845183278301371
 21
13.82546090737344
 31
0.0
210
0.0
220
0.0
230
1.0
 40
0.9999986500874085
 41
0.0
 42
6.283185307179586
  0
CIRCLE
  5
96
330
70
100
AcDbEntity
  8
Capa 1
 62
   250
420
  1907996
370
     9
100
AcDbCircle
 10
82.72758831265122
 20
-36.57420131300916
 30
0.0
 40
7.519952125357153
  0
ELLIPSE
  5
97
330
70
100
AcDbEntity
  8
Capa 1
 62
   250
420
  1907996
370
     9
100
AcDbEllipse
 10
82.72758831265122
 20
-36.57419249356494
 30
0.0
 11
-5.899576254063049
 21
2.412479858556642
 31
0.0
210
0.0
220
0.0
230
1.0
 40
0.9999980251959209
 41
0.0
 42
6.283185307179586
  0
SPLINE
  5
98
330
70
100
AcDbEntity
  8
Capa 1
 62
   250
420
  1907996
370
     9
100
AcDbSpline
210
0.0
220
0.0
230
1.0
 70
     9
 71
     3
 72
    17
 73
    13
 74
     0
 42
0.0000000001
 43
0.0000000001
 40
0.0
 40
0.0
 40
0.0
 40
0.0
 40
1.0
 40
1.0
 40
1.0
 40
2.0
 40
2.0
 40
2.0
 40
3.0
 40
3.0
 40
3.0
 40
4.0
 40
4.0
 40
4.0
 40
4.0
 10
75.3537213700504
 20
-28.37815068877418
 30
0.0
 10
75.3537213700504
 20
-28.0279481977089
 30
0.0
 10
75.06984109234372
 20
-27.74406792717352
 30
0.0
 10
74.71981498131959
 20
-27.74406792717352
 30
0.0
 10
74.36943609251866
 20
-27.74406792717352
 30
0.0
 10
74.08555581481195
 20
-28.0279481977089
 30
0.0
 10
74.08555581481195
 20
-28.37815068877418
 30
0.0
 10
74.08555581481195
 20
-28.72831790206321
 30
0.0
 10
74.36943609251866
 20
-29.0121981725986
 30
0.0
 10
74.71981498131959
 20
-29.0121981725986
 30
0.0
 10
75.06984109234372
 20
-29.0121981725986
 30
0.0
 10
75.3537213700504
 20
-28.72831790206321
 30
0.0
 10
75.3537213700504
 20
-28.37815068877418
 30
0.0
  0
SPLINE
  5
99
330
70
100
AcDbEntity
  8
Capa 1
 62
   250
420
  1907996
370
     9
100
AcDbSpline
210
0.0
220
0.0
230
1.0
 70
     9
 71
     3
 72
    17
 73
    13
 74
     0
 42
0.0000000001
 43
0.0000000001
 40
0.0
 40
0.0
 40
0.0
 40
0.0
 40
1.0
 40
1.0
 40
1.0
 40
2.0
 40
2.0
 40
2.0
 40
3.0
 40
3.0
 40
3.0
 40
4.0
 40
4.0
 40
4.0
 40
4.0
 10
84.10320997897414
 20
-41.88220145536856
 30
0.0
 10
84.10320997897414
 20
-41.28674785944841
 30
0.0
 10
83.62057470131714
 20
-40.8040730564979
 30
0.0
 10
83.02526220146596
 20
-40.8040730564979
 30
0.0
 10
82.42959692383704
 20
-40.8040730564979
 30
0.0
 10
81.94692636840219
 20
-41.28674785944841
 30
0.0
 10
81.94692636840219
 20
-41.88220145536856
 30
0.0
 10
81.94692636840219
 20
-42.47769032906527
 30
0.0
 10
82.42959692383704
 20
-42.96036087230687
 30
0.0
 10
83.02526220146596
 20
-42.96036087230687
 30
0.0
 10
83.62057470131714
 20
-42.96036087230687
 30
0.0
 10
84.10320997897414
 20
-42.47769032906527
 30
0.0
 10
84.10320997897414
 20
-41.88220145536856
 30
0.0
  0
SPLINE
  5
9A
330
70
100
AcDbEntity
  8
Capa 1
 62
   250
420
  1907996
370
     9
100
AcDbSpline
210
0.0
220
0.0
230
1.0
 70
     9
 71
     3
 72
    17
 73
    13
 74
     0
 42
0.0000000001
 43
0.0000000001
 40
0.0
 40
0.0
 40
0.0
 40
0.0
 40
1.0
 40
1.0
 40
1.0
 40
2.0
 40
2.0
 40
2.0
 40
3.0
 40
3.0
 40
3.0
 40
4.0
 40
4.0
 40
4.0
 40
4.0
 10
83.7556180346165
 20
-41.88220145536856
 30
0.0
 10
83.7556180346165
 20
-41.4788000767713
 30
0.0
 10
83.42831081247629
 20
-41.15184564066784
 30
0.0
 10
83.02526220146596
 20
-41.15184564066784
 30
0.0
 10
82.62182553490005
 20
-41.15184564066784
 30
0.0
 10
82.29490636831512
 20
-41.4788000767713
 30
0.0
 10
82.29490636831512
 20
-41.88220145536856
 30
0.0
 10
82.29490636831512
 20
-42.28563811174271
 30
0.0
 10
82.62182553490005
 20
-42.61259254784585
 30
0.0
 10
83.02526220146596
 20
-42.61259254784585
 30
0.0
 10
83.42831081247629
 20
-42.61259254784585
 30
0.0
 10
83.7556180346165
 20
-42.28563811174271
 30
0.0
 10
83.7556180346165
 20
-41.88220145536856
 30
0.0
  0
LWPOLYLINE
  5
9B
330
70
100
AcDbEntity
  8
Capa 1
 62
   250
420
  1907996
370
     9
100
AcDbPolyline
 90
        4
 70
     1
 43
0.0
 10
84.1014813678635
 20
-45.90781913044428
 10
73.90193498152465
 20
-35.70844939065188
 10
82.06612997948301
 20
-27.54390182116907
 10
92.26567636582251
 20
-37.74327156096147
  0
LINE
  5
9C
330
70
100
AcDbEntity
  8
Capa 1
 62
   250
420
  1907996
370
     9
100
AcDbLine
 10
77.00701442519258
 20
-38.84227583476656
 30
0.0
 11
85.19636247870101
 21
-30.6963239629663
 31
0.0
  0
LINE
  5
9D
330
70
100
AcDbEntity
  8
Capa 1
 62
   250
420
  1907996
370
     9
100
AcDbLine
 10
82.62976303489807
 20
-44.51134833273789
 30
0.0
 11
90.81907581062868
 21
-36.36542305760809
 31
0.0
  0
LWPOLYLINE
  5
9E
330
70
100
AcDbEntity
  8
Capa 1
 62
   250
420
  1907996
370
     9
100
AcDbPolyline
 90
        4
 70
     1
 43
0.0
 10
79.18499386909269
 20
-38.65432014882947
 10
75.44018720336215
 20
-34.90950916908303
 10
75.86598998103361
 20
-34.48370639141159
 10
79.61047914676389
 20
-38.22851738191515
  0
LWPOLYLINE
  5
9F
330
70
100
AcDbEntity
  8
Capa 1
 62
   250
420
  1907996
370
     9
100
AcDbPolyline
 90
        4
 70
     1
 43
0.0
 10
80.0786505355359
 20
-37.76083989384659
 10
76.33384386980536
 20
-34.0160333227179
 10
76.75964664747681
 20
-33.59023055580326
 10
80.50413581320741
 20
-37.33503712693195
  0
LWPOLYLINE
  5
A0
330
70
100
AcDbEntity
  8
Capa 1
 62
   250
420
  1907996
370
     9
100
AcDbPolyline
 90
        4
 70
     1
 43
0.0
 10
80.97230720197909
 20
-36.8673596388634
 10
77.22750053624856
 20
-33.12255306773471
 10
77.65330331392
 20
-32.69675030082006
 10
81.39779247965062
 20
-36.44155687194875
  0
LWPOLYLINE
  5
A1
330
70
100
AcDbEntity
  8
Capa 1
 62
   250
420
  1907996
370
     9
100
AcDbPolyline
 90
        4
 70
     1
 43
0.0
 10
81.8659638684223
 20
-35.9738793838802
 10
78.12115720269209
 20
-32.2290728127515
 10
78.54695998036321
 20
-31.80323476805999
 10
82.29144914609381
 20
-35.54807661696556
  0
LWPOLYLINE
  5
A2
330
70
100
AcDbEntity
  8
Capa 1
 62
   250
420
  1907996
370
     9
100
AcDbPolyline
 90
        4
 70
     1
 43
0.0
 10
82.7596205348655
 20
-35.080399128897
 10
79.01481386913528
 20
-31.33559255776831
 10
79.4406166468064
 20
-30.90975451307679
 10
83.18510581253702
 20
-34.65459636198236
  0
LWPOLYLINE
  5
A3
330
70
100
AcDbEntity
  8
Capa 1
 62
   250
420
  1907996
370
     9
100
AcDbPolyline
 90
        4
 70
     1
 43
0.0
 10
83.65327720130901
 20
-34.18691887391381
 10
79.90847053557849
 20
-30.44207702500824
 10
80.33427331324961
 20
-30.01627425809359
 10
84.07876247898022
 20
-33.76108082922228
  0
LWPOLYLINE
  5
A4
330
70
100
AcDbEntity
  8
Capa 1
 62
   250
420
  1907996
370
     9
100
AcDbPolyline
 90
        4
 70
     1
 43
0.0
 10
84.54693386775222
 20
-33.29343416948669
 10
80.80212720202167
 20
-29.54859677002504
 10
81.22792997969312
 20
-29.12279400311039
 10
84.97241914542311
 20
-32.86760057423908
  0
LWPOLYLINE
  5
A5
330
70
100
AcDbEntity
  8
Capa 1
 62
   250
420
  1907996
370
     9
100
AcDbPolyline
 90
        4
 70
     1
 43
0.0
 10
83.60163053465507
 20
-42.3381667215137
 10
83.47896970135263
 20
-42.46065116283331
 10
82.449916923832
 20
-41.43159841130885
 10
82.57257775713474
 20
-41.30911396998924
  0
LWPOLYLINE
  5
A6
330
70
100
AcDbEntity
  8
Capa 1
 62
   250
420
  1907996
370
     9
100
AcDbPolyline
 90
        4
 70
     1
 43
0.0
 10
82.57257775713474
 20
-42.46082755171769
 10
82.449916923832
 20
-42.33834311039809
 10
83.47932247913007
 20
-41.30911396998924
 10
83.60163053465507
 20
-41.43159841130885
  0
SPLINE
  5
A7
330
70
100
AcDbEntity
  8
Capa 1
 62
   250
420
  1907996
370
     9
100
AcDbSpline
210
0.0
220
0.0
230
1.0
 70
    11
 71
     3
 72
    17
 73
    13
 74
     0
 42
0.0000000001
 43
0.0000000001
 40
0.0
 40
0.0
 40
0.0
 40
0.0
 40
1.0
 40
1.0
 40
1.0
 40
2.0
 40
2.0
 40
2.0
 40
3.0
 40
3.0
 40
3.0
 40
4.0
 40
4.0
 40
4.0
 40
4.0
 10
86.70321747832417
 20
-39.28218972354557
 30
0.0
 10
86.70321747832417
 20
-38.68670083480552
 30
0.0
 10
86.22058220066717
 20
-38.20406988253886
 30
0.0
 10
85.62526970081599
 20
-38.20406988253886
 30
0.0
 10
85.02960442318707
 20
-38.20406988253886
 30
0.0
 10
84.54693386775222
 20
-38.68670083480552
 30
0.0
 10
84.54693386775222
 20
-39.28218972354557
 30
0.0
 10
84.54693386775222
 20
-39.87767861228563
 30
0.0
 10
85.02960442318707
 20
-40.36035343863859
 30
0.0
 10
85.62526970081599
 20
-40.36035343863859
 30
0.0
 10
86.22058220066717
 20
-40.36035343863859
 30
0.0
 10
86.70321747832417
 20
-39.87767861228563
 30
0.0
 10
86.70321747832417
 20
-39.28218972354557
 30
0.0
  0
ELLIPSE
  5
A8
330
70
100
AcDbEntity
  8
Capa 1
 62
   250
420
  1907996
370
     9
100
AcDbEllipse
 10
85.62526970081592
 20
-39.28219187262293
 30
0.0
 11
0.6753571906982114
 21
0.2780520710698173
 31
0.0
210
0.0
220
0.0
230
1.0
 40
0.9999958207553076
 41
0.0
 42
6.283185307179586
  0
LWPOLYLINE
  5
A9
330
70
100
AcDbEntity
  8
Capa 1
 62
   250
420
  1907996
370
     9
100
AcDbPolyline
 90
        4
 70
     1
 43
0.0
 10
86.2016380340051
 20
-39.73815928784542
 10
86.07897720070202
 20
-39.86064372916503
 10
85.04992442318203
 20
-38.83159097764057
 10
85.17258525648477
 20
-38.70910653632096
  0
LWPOLYLINE
  5
AA
330
70
100
AcDbEntity
  8
Capa 1
 62
   250
420
  1907996
370
     9
100
AcDbPolyline
 90
        4
 70
     1
 43
0.0
 10
85.17258525648477
 20
-39.86082011804941
 10
85.04992442318203
 20
-39.73833139009808
 10
86.0793299784801
 20
-38.70910653632096
 10
86.2016380340051
 20
-38.83159097764057
  0
SPLINE
  5
AB
330
70
100
AcDbEntity
  8
Capa 1
 62
   250
420
  1907996
370
     9
100
AcDbSpline
210
0.0
220
0.0
230
1.0
 70
    11
 71
     3
 72
    17
 73
    13
 74
     0
 42
0.0000000001
 43
0.0000000001
 40
0.0
 40
0.0
 40
0.0
 40
0.0
 40
1.0
 40
1.0
 40
1.0
 40
2.0
 40
2.0
 40
2.0
 40
3.0
 40
3.0
 40
3.0
 40
4.0
 40
4.0
 40
4.0
 40
4.0
 10
89.33839692210979
 20
-36.64704992226174
 30
0.0
 10
89.33839692210979
 20
-36.05156104856504
 30
0.0
 10
88.85572636667493
 20
-35.56892578310031
 30
0.0
 10
88.26041386682375
 20
-35.56892578310031
 30
0.0
 10
87.66474858919481
 20
-35.56892578310031
 30
0.0
 10
87.18211331153781
 20
-36.05156104856504
 30
0.0
 10
87.18211331153781
 20
-36.64704992226174
 30
0.0
 10
87.18211331153781
 20
-37.24253879595845
 30
0.0
 10
87.66474858919481
 20
-37.72520933920005
 30
0.0
 10
88.26041386682375
 20
-37.72520933920005
 30
0.0
 10
88.85572636667493
 20
-37.72520933920005
 30
0.0
 10
89.33839692210979
 20
-37.24253879595845
 30
0.0
 10
89.33839692210979
 20
-36.64704992226174
 30
0.0
  0
ELLIPSE
  5
AC
330
70
100
AcDbEntity
  8
Capa 1
 62
   250
420
  1907996
370
     9
100
AcDbEllipse
 10
88.26041386682367
 20
-36.64704882646815
 30
0.0
 11
-0.1176003916461317
 21
0.7208291728610843
 31
0.0
210
0.0
220
0.0
230
1.0
 40
0.9999952794438673
 41
0.0
 42
6.283185307179586
  0
LWPOLYLINE
  5
AD
330
70
100
AcDbEntity
  8
Capa 1
 62
   250
420
  1907996
370
     9
100
AcDbPolyline
 90
        4
 70
     1
 43
0.0
 10
88.83678220001318
 20
-37.10301518840688
 10
88.71412136671041
 20
-37.22549527961533
 10
87.6851038669676
 20
-36.19644250209468
 10
87.80772942249253
 20
-36.07396243688242
  0
LWPOLYLINE
  5
AE
330
70
100
AcDbEntity
  8
Capa 1
 62
   250
420
  1907996
370
     9
100
AcDbPolyline
 90
        4
 70
     1
 43
0.0
 10
87.80772942249253
 20
-37.225640740834
 10
87.6851038669676
 20
-37.10319157729127
 10
88.71447414448818
 20
-36.07396243688242
 10
88.83678220001318
 20
-36.19644250209468
  0
LINE
  5
AF
330
70
100
AcDbEntity
  8
Capa 1
 62
   250
420
  1907996
370
     5
100
AcDbLine
 10
40.74756193425752
 20
-12.04736221651873
 30
0.0
 11
22.93933971648751
 21
-12.04736221651873
 31
0.0
  0
LINE
  5
B0
330
70
100
AcDbEntity
  8
Capa 1
 62
   250
420
  1907996
370
     5
100
AcDbLine
 10
26.83626415995715
 20
-20.00070173583436
 30
0.0
 11
22.93933971648751
 21
-20.00070173583436
 31
0.0
  0
LINE
  5
B1
330
70
100
AcDbEntity
  8
Capa 1
 62
   250
420
  1907996
370
     5
100
AcDbLine
 10
26.83626415995715
 20
-79.92226354044129
 30
0.0
 11
22.93933971648751
 21
-79.92226354044129
 31
0.0
  0
LINE
  5
B2
330
70
100
AcDbEntity
  8
Capa 1
 62
   250
420
  1907996
370
     5
100
AcDbLine
 10
41.55612860072218
 20
-83.54719622573933
 30
0.0
 11
22.93933971648751
 21
-83.54719622573933
 31
0.0
  0
LINE
  5
B3
330
70
100
AcDbEntity
  8
Capa 1
 62
   250
420
  1907996
370
     5
100
AcDbLine
 10
24.16510138284758
 20
-83.54684344797055
 30
0.0
 11
24.16510138284758
 21
-79.92469770704585
 31
0.0
  0
LINE
  5
B4
330
70
100
AcDbEntity
  8
Capa 1
 62
   250
420
  1907996
370
     5
100
AcDbLine
 10
27.7497116597293
 20
-89.57027690541108
 30
0.0
 11
59.00913887413675
 21
-89.57027690541108
 31
0.0
  0
LINE
  5
B5
330
70
100
AcDbEntity
  8
Capa 1
 62
   250
420
  1907996
370
     5
100
AcDbLine
 10
24.16510138284758
 20
-20.00070173583436
 30
0.0
 11
24.16510138284758
 21
-12.04736221651873
 31
0.0
  0
LINE
  5
B6
330
70
100
AcDbEntity
  8
Capa 1
 62
   250
420
  1907996
370
     5
100
AcDbLine
 10
24.16510138284758
 20
-79.92191076267251
 30
0.0
 11
24.16510138284758
 21
-20.00070173583436
 31
0.0
  0
MTEXT
  5
B7
330
70
100
AcDbEntity
  8
Capa 1
100
AcDbMText
 10
17.69883354592251
 20
-82.90985635168194
 30
0.0
 40
0.2
 41
0.0
 46
0.0
 71
     7
 72
     1
  1
\C18;\c65793;\FArial|b0|i0|c1;\H2.997200;\W1.000000;16
 73
     1
 44
1.0
  0
MTEXT
  5
B8
330
70
100
AcDbEntity
  8
Capa 1
100
AcDbMText
 10
40.52397455685848
 20
-94.32173514657202
 30
0.0
 40
0.2
 41
0.0
 46
0.0
 71
     7
 72
     1
  1
\C18;\c65793;\FArial|b0|i0|c1;\H2.997200;\W1.000000;Ø d
 73
     1
 44
1.0
  0
MTEXT
  5
B9
330
70
100
AcDbEntity
  8
Capa 1
100
AcDbMText
 10
48.60168994112378
 20
-87.90455578619715
 30
0.0
 40
0.2
 41
0.0
 46
0.0
 71
     7
 72
     1
  1
\C18;\c65793;\FArial|b0|i0|c1;\H2.997200;\W1.000000;M12
 73
     1
 44
1.0
  0
MTEXT
  5
BA
330
70
100
AcDbEntity
  8
Capa 1
100
AcDbMText
 10
18.41127929227218
 20
-51.8502534948635
 30
0.0
 40
0.2
 41
0.0
 46
0.0
 71
     7
 72
     1
  1
\C18;\c65793;\FArial|b0|i0|c1;\H2.997200;\W1.000000;h
 73
     1
 44
1.0
  0
MTEXT
  5
BB
330
70
100
AcDbEntity
  8
Capa 1
100
AcDbMText
 10
68.47989089101535
 20
-18.60869402950038
 30
0.0
 40
0.2
 41
0.0
 46
0.0
 71
     7
 72
     1
  1
\C18;\c65793;\FArial|b0|i0|c1;\H2.997200;\W1.000000;Ø A
 73
     1
 44
1.0
  0
MTEXT
  5
BC
330
70
100
AcDbEntity
  8
Capa 1
100
AcDbMText
 10
18.41127929227218
 20
-17.53089590693997
 30
0.0
 40
0.2
 41
0.0
 46
0.0
 71
     7
 72
     1
  1
\C18;\c65793;\FArial|b0|i0|c1;\H2.997200;\W1.000000;B
 73
     1
 44
1.0
  0
LWPOLYLINE
  5
BD
330
70
100
AcDbEntity
  8
Capa 1
 62
   250
420
  1907996
370
     5
100
AcDbPolyline
 90
        3
 70
     0
 43
0.0
 10
69.9087374825229
 20
-19.30340119806842
 10
75.07569720345333
 20
-19.30340119806842
 10
76.05409109209763
 20
-21.40338142227124
  0
LINE
  5
BE
330
70
100
AcDbEntity
  8
Capa 1
 62
   250
420
  1907996
370
     5
100
AcDbLine
 10
76.05409109209763
 20
-21.40338142227124
 30
0.0
 11
79.72724859117919
 21
-29.64987926744111
 31
0.0
  0
LINE
  5
BF
330
70
100
AcDbEntity
  8
Capa 1
 62
   250
420
  1907996
370
     5
100
AcDbLine
 10
86.2016380340051
 20
-43.89208223742556
 30
0.0
 11
89.67462942202594
 21
-51.5936089853877
 31
0.0
  0
LINE
  5
C0
330
70
100
AcDbEntity
  8
Capa 1
 62
   250
420
  1907996
370
     5
100
AcDbLine
 10
89.72835747756796
 20
-51.59378138713382
 30
0.0
 11
92.01693275477351
 21
-56.66838774480819
 31
0.0
  0
LINE
  5
C1
330
70
100
AcDbEntity
  8
Capa 1
 62
   250
420
  1907996
370
     5
100
AcDbLine
 10
27.75334527083947
 20
-80.28400186454589
 30
0.0
 11
27.75334527083947
 21
-90.6282574339753
 31
0.0
  0
LINE
  5
C2
330
70
100
AcDbEntity
  8
Capa 1
 62
   250
420
  1907996
370
     5
100
AcDbLine
 10
41.65705832291862
 20
-83.99264871437489
 30
0.0
 11
41.65705832291862
 21
-87.70093971144088
 31
0.0
  0
LINE
  5
C3
330
70
100
AcDbEntity
  8
Capa 1
 62
   250
420
  1907996
370
     5
100
AcDbLine
 10
45.08821026650586
 20
-83.99264871437489
 30
0.0
 11
45.08821026650586
 21
-87.70093971144088
 31
0.0
  0
LINE
  5
C4
330
70
100
AcDbEntity
  8
Capa 1
 62
   250
420
  1907996
370
     5
100
AcDbLine
 10
59.01397192969094
 20
-80.28400186454589
 30
0.0
 11
59.01397192969094
 21
-90.6282574339753
 31
0.0
  0
LINE
  5
C5
330
70
100
AcDbEntity
  8
Capa 1
 62
   250
420
  1907996
370
     5
100
AcDbLine
 10
41.65705832291862
 20
-86.54065360061961
 30
0.0
 11
45.08821026650586
 21
-86.54065360061961
 31
0.0
  0
LINE
  5
C6
330
70
100
AcDbEntity
  8
Capa 1
 62
   250
420
  1907996
370
     5
100
AcDbLine
 10
45.08821026650586
 20
-86.54065360061961
 30
0.0
 11
48.26680859904445
 21
-86.54065360061961
 31
0.0
  0
LINE
  5
C7
330
70
100
AcDbEntity
  8
Capa 1
 62
   250
420
  1907996
370
     5
100
AcDbLine
 10
38.47845999038036
 20
-86.54065360061961
 30
0.0
 11
41.65705832291862
 21
-86.54065360061961
 31
0.0
  0
SPLINE
  5
C8
330
70
100
AcDbEntity
  8
Capa 1
 62
   250
420
  1907996
370
     9
100
AcDbSpline
210
0.0
220
0.0
230
1.0
 70
     9
 71
     3
 72
    17
 73
    13
 74
     0
 42
0.0000000001
 43
0.0000000001
 40
0.0
 40
0.0
 40
0.0
 40
0.0
 40
1.0
 40
1.0
 40
1.0
 40
2.0
 40
2.0
 40
2.0
 40
3.0
 40
3.0
 40
3.0
 40
4.0
 40
4.0
 40
4.0
 40
4.0
 10
84.10320997897414
 20
-41.88220145536856
 30
0.0
 10
84.10320997897414
 20
-41.28674785944841
 30
0.0
 10
83.62057470131714
 20
-40.8040730564979
 30
0.0
 10
83.02526220146596
 20
-40.8040730564979
 30
0.0
 10
82.42959692383704
 20
-40.8040730564979
 30
0.0
 10
81.94692636840219
 20
-41.28674785944841
 30
0.0
 10
81.94692636840219
 20
-41.88220145536856
 30
0.0
 10
81.94692636840219
 20
-42.47769032906527
 30
0.0
 10
82.42959692383704
 20
-42.96036087230687
 30
0.0
 10
83.02526220146596
 20
-42.96036087230687
 30
0.0
 10
83.62057470131714
 20
-42.96036087230687
 30
0.0
 10
84.10320997897414
 20
-42.47769032906527
 30
0.0
 10
84.10320997897414
 20
-41.88220145536856
 30
0.0
  0
SPLINE
  5
C9
330
70
100
AcDbEntity
  8
Capa 1
 62
   250
420
  1907996
370
     9
100
AcDbSpline
210
0.0
220
0.0
230
1.0
 70
     9
 71
     3
 72
    17
 73
    13
 74
     0
 42
0.0000000001
 43
0.0000000001
 40
0.0
 40
0.0
 40
0.0
 40
0.0
 40
1.0
 40
1.0
 40
1.0
 40
2.0
 40
2.0
 40
2.0
 40
3.0
 40
3.0
 40
3.0
 40
4.0
 40
4.0
 40
4.0
 40
4.0
 10
83.7556180346165
 20
-41.88220145536856
 30
0.0
 10
83.7556180346165
 20
-41.4788000767713
 30
0.0
 10
83.42831081247629
 20
-41.15184564066784
 30
0.0
 10
83.02526220146596
 20
-41.15184564066784
 30
0.0
 10
82.62182553490005
 20
-41.15184564066784
 30
0.0
 10
82.29490636831512
 20
-41.4788000767713
 30
0.0
 10
82.29490636831512
 20
-41.88220145536856
 30
0.0
 10
82.29490636831512
 20
-42.28563811174271
 30
0.0
 10
82.62182553490005
 20
-42.61259254784585
 30
0.0
 10
83.02526220146596
 20
-42.61259254784585
 30
0.0
 10
83.42831081247629
 20
-42.61259254784585
 30
0.0
 10
83.7556180346165
 20
-42.28563811174271
 30
0.0
 10
83.7556180346165
 20
-41.88220145536856
 30
0.0
  0
LINE
  5
CA
330
70
100
AcDbEntity
  8
Capa 1
 62
   251
420
  4544096
370
    25
100
AcDbLine
 10
63.45505609524725
 20
-58.12222020771784
 30
0.0
 11
75.46188303669
 21
-58.12222020771784
 31
0.0
  0
LINE
  5
CB
330
70
100
AcDbEntity
  8
Capa 1
 62
   251
420
  4544096
370
    25
100
AcDbLine
 10
77.22559553624903
 20
-58.12222020771784
 30
0.0
 11
82.33106609052828
 21
-58.12222020771784
 31
0.0
  0
LINE
  5
CC
330
70
100
AcDbEntity
  8
Capa 1
 62
   251
420
  4544096
370
    25
100
AcDbLine
 10
84.09495497897619
 20
-58.12222020771784
 30
0.0
 11
89.32322747766923
 21
-58.12222020771784
 31
0.0
  0
LINE
  5
CD
330
70
100
AcDbEntity
  8
Capa 1
 62
   251
420
  4544096
370
    25
100
AcDbLine
 10
91.08711636611715
 20
-58.12222020771784
 30
0.0
 11
94.52292497636937
 21
-58.12222020771784
 31
0.0
  0
LINE
  5
CE
330
70
100
AcDbEntity
  8
Capa 1
 62
   251
420
  4544096
370
    25
100
AcDbLine
 10
96.28713136481721
 20
-58.12222020771784
 30
0.0
 11
103.8050365761687
 21
-58.12222020771784
 31
0.0
  0
LINE
  5
CF
330
70
100
AcDbEntity
  8
Capa 1
 62
   251
420
  4544096
370
    25
100
AcDbLine
 10
63.45505609524725
 20
-63.54893006927094
 30
0.0
 11
75.46188303669
 21
-63.54893006927094
 31
0.0
  0
LINE
  5
D0
330
70
100
AcDbEntity
  8
Capa 1
 62
   251
420
  4544096
370
    25
100
AcDbLine
 10
77.22559553624903
 20
-63.54893006927094
 30
0.0
 11
82.33106609052828
 21
-63.54893006927094
 31
0.0
  0
LINE
  5
D1
330
70
100
AcDbEntity
  8
Capa 1
 62
   251
420
  4544096
370
    25
100
AcDbLine
 10
84.09495497897619
 20
-63.54893006927094
 30
0.0
 11
89.32322747766923
 21
-63.54893006927094
 31
0.0
  0
LINE
  5
D2
330
70
100
AcDbEntity
  8
Capa 1
 62
   251
420
  4544096
370
    25
100
AcDbLine
 10
91.08711636611715
 20
-63.54893006927094
 30
0.0
 11
94.52292497636937
 21
-63.54893006927094
 31
0.0
  0
LINE
  5
D3
330
70
100
AcDbEntity
  8
Capa 1
 62
   251
420
  4544096
370
    25
100
AcDbLine
 10
96.28713136481721
 20
-63.54893006927094
 30
0.0
 11
103.8050365761687
 21
-63.54893006927094
 31
0.0
  0
LINE
  5
D4
330
70
100
AcDbEntity
  8
Capa 1
 62
   251
420
  4544096
370
     9
100
AcDbLine
 10
63.45505609524725
 20
-67.91730662449103
 30
0.0
 11
75.46188303669
 21
-67.91730662449103
 31
0.0
  0
LINE
  5
D5
330
70
100
AcDbEntity
  8
Capa 1
 62
   251
420
  4544096
370
     9
100
AcDbLine
 10
77.22559553624903
 20
-67.91730662449103
 30
0.0
 11
82.33106609052828
 21
-67.91730662449103
 31
0.0
  0
LINE
  5
D6
330
70
100
AcDbEntity
  8
Capa 1
 62
   251
420
  4544096
370
     9
100
AcDbLine
 10
84.09495497897619
 20
-67.91730662449103
 30
0.0
 11
89.32322747766923
 21
-67.91730662449103
 31
0.0
  0
LINE
  5
D7
330
70
100
AcDbEntity
  8
Capa 1
 62
   251
420
  4544096
370
     9
100
AcDbLine
 10
91.08711636611715
 20
-67.91730662449103
 30
0.0
 11
94.52292497636937
 21
-67.91730662449103
 31
0.0
  0
LINE
  5
D8
330
70
100
AcDbEntity
  8
Capa 1
 62
   251
420
  4544096
370
     9
100
AcDbLine
 10
96.28713136481721
 20
-67.91730662449103
 30
0.0
 11
103.8050365761687
 21
-67.91730662449103
 31
0.0
  0
LINE
  5
D9
330
70
100
AcDbEntity
  8
Capa 1
 62
   251
420
  4544096
370
     9
100
AcDbLine
 10
63.45505609524725
 20
-72.28554206860362
 30
0.0
 11
75.46188303669
 21
-72.28554206860362
 31
0.0
  0
LINE
  5
DA
330
70
100
AcDbEntity
  8
Capa 1
 62
   251
420
  4544096
370
     9
100
AcDbLine
 10
77.22559553624903
 20
-72.28554206860362
 30
0.0
 11
82.33106609052828
 21
-72.28554206860362
 31
0.0
  0
LINE
  5
DB
330
70
100
AcDbEntity
  8
Capa 1
 62
   251
420
  4544096
370
     9
100
AcDbLine
 10
84.09495497897619
 20
-72.28554206860362
 30
0.0
 11
89.32322747766923
 21
-72.28554206860362
 31
0.0
  0
LINE
  5
DC
330
70
100
AcDbEntity
  8
Capa 1
 62
   251
420
  4544096
370
     9
100
AcDbLine
 10
91.08711636611715
 20
-72.28554206860362
 30
0.0
 11
94.52292497636937
 21
-72.28554206860362
 31
0.0
  0
LINE
  5
DD
330
70
100
AcDbEntity
  8
Capa 1
 62
   251
420
  4544096
370
     9
100
AcDbLine
 10
96.28713136481721
 20
-72.28554206860362
 30
0.0
 11
103.8050365761687
 21
-72.28554206860362
 31
0.0
  0
LINE
  5
DE
330
70
100
AcDbEntity
  8
Capa 1
 62
   251
420
  4544096
370
     9
100
AcDbLine
 10
63.45505609524725
 20
-76.65391862382371
 30
0.0
 11
75.46188303669
 21
-76.65391862382371
 31
0.0
  0
LINE
  5
DF
330
70
100
AcDbEntity
  8
Capa 1
 62
   251
420
  4544096
370
     9
100
AcDbLine
 10
77.22559553624903
 20
-76.65391862382371
 30
0.0
 11
82.33106609052828
 21
-76.65391862382371
 31
0.0
  0
LINE
  5
E0
330
70
100
AcDbEntity
  8
Capa 1
 62
   251
420
  4544096
370
     9
100
AcDbLine
 10
84.09495497897619
 20
-76.65391862382371
 30
0.0
 11
89.32322747766923
 21
-76.65391862382371
 31
0.0
  0
LINE
  5
E1
330
70
100
AcDbEntity
  8
Capa 1
 62
   251
420
  4544096
370
     9
100
AcDbLine
 10
91.08711636611715
 20
-76.65391862382371
 30
0.0
 11
94.52292497636937
 21
-76.65391862382371
 31
0.0
  0
LINE
  5
E2
330
70
100
AcDbEntity
  8
Capa 1
 62
   251
420
  4544096
370
     9
100
AcDbLine
 10
96.28713136481721
 20
-76.65391862382371
 30
0.0
 11
103.8050365761687
 21
-76.65391862382371
 31
0.0
  0
LINE
  5
E3
330
70
100
AcDbEntity
  8
Capa 1
 62
   251
420
  4544096
370
     9
100
AcDbLine
 10
63.45505609524725
 20
-81.02229517904381
 30
0.0
 11
75.46188303669
 21
-81.02229517904381
 31
0.0
  0
LINE
  5
E4
330
70
100
AcDbEntity
  8
Capa 1
 62
   251
420
  4544096
370
     9
100
AcDbLine
 10
77.22559553624903
 20
-81.02229517904381
 30
0.0
 11
82.33106609052828
 21
-81.02229517904381
 31
0.0
  0
LINE
  5
E5
330
70
100
AcDbEntity
  8
Capa 1
 62
   251
420
  4544096
370
     9
100
AcDbLine
 10
84.09495497897619
 20
-81.02229517904381
 30
0.0
 11
89.32322747766923
 21
-81.02229517904381
 31
0.0
  0
LINE
  5
E6
330
70
100
AcDbEntity
  8
Capa 1
 62
   251
420
  4544096
370
     9
100
AcDbLine
 10
91.08711636611715
 20
-81.02229517904381
 30
0.0
 11
94.52292497636937
 21
-81.02229517904381
 31
0.0
  0
LINE
  5
E7
330
70
100
AcDbEntity
  8
Capa 1
 62
   251
420
  4544096
370
     9
100
AcDbLine
 10
96.28713136481721
 20
-81.02229517904381
 30
0.0
 11
103.8050365761687
 21
-81.02229517904381
 31
0.0
  0
LINE
  5
E8
330
70
100
AcDbEntity
  8
Capa 1
 62
   251
420
  4544096
370
     9
100
AcDbLine
 10
63.45505609524725
 20
-85.3906717342639
 30
0.0
 11
75.46188303669
 21
-85.3906717342639
 31
0.0
  0
LINE
  5
E9
330
70
100
AcDbEntity
  8
Capa 1
 62
   251
420
  4544096
370
     9
100
AcDbLine
 10
77.22559553624903
 20
-85.3906717342639
 30
0.0
 11
82.33106609052828
 21
-85.3906717342639
 31
0.0
  0
LINE
  5
EA
330
70
100
AcDbEntity
  8
Capa 1
 62
   251
420
  4544096
370
     9
100
AcDbLine
 10
84.09495497897619
 20
-85.3906717342639
 30
0.0
 11
89.32322747766923
 21
-85.3906717342639
 31
0.0
  0
LINE
  5
EB
330
70
100
AcDbEntity
  8
Capa 1
 62
   251
420
  4544096
370
     9
100
AcDbLine
 10
91.08711636611715
 20
-85.3906717342639
 30
0.0
 11
94.52292497636937
 21
-85.3906717342639
 31
0.0
  0
LINE
  5
EC
330
70
100
AcDbEntity
  8
Capa 1
 62
   251
420
  4544096
370
     9
100
AcDbLine
 10
96.28713136481721
 20
-85.3906717342639
 30
0.0
 11
103.8050365761687
 21
-85.3906717342639
 31
0.0
  0
LINE
  5
ED
330
70
100
AcDbEntity
  8
Capa 1
 62
   251
420
  4544096
370
     9
100
AcDbLine
 10
63.45505609524725
 20
-89.75904526648154
 30
0.0
 11
75.46188303669
 21
-89.75904526648154
 31
0.0
  0
LINE
  5
EE
330
70
100
AcDbEntity
  8
Capa 1
 62
   251
420
  4544096
370
     9
100
AcDbLine
 10
77.22559553624903
 20
-89.75904526648154
 30
0.0
 11
82.33106609052828
 21
-89.75904526648154
 31
0.0
  0
LINE
  5
EF
330
70
100
AcDbEntity
  8
Capa 1
 62
   251
420
  4544096
370
     9
100
AcDbLine
 10
84.09495497897619
 20
-89.75904526648154
 30
0.0
 11
89.32322747766923
 21
-89.75904526648154
 31
0.0
  0
LINE
  5
F0
330
70
100
AcDbEntity
  8
Capa 1
 62
   251
420
  4544096
370
     9
100
AcDbLine
 10
91.08711636611715
 20
-89.75904526648154
 30
0.0
 11
94.52292497636937
 21
-89.75904526648154
 31
0.0
  0
LINE
  5
F1
330
70
100
AcDbEntity
  8
Capa 1
 62
   251
420
  4544096
370
     9
100
AcDbLine
 10
96.28713136481721
 20
-89.75904526648154
 30
0.0
 11
103.8050365761687
 21
-89.75904526648154
 31
0.0
  0
INSERT
  5
F3
330
70
100
AcDbEntity
  8
Capa 1
100
AcDbBlockReference
  2
Block_0
 10
0.0
 20
0.0
 30
0.0
  0
LINE
  5
FA
330
70
100
AcDbEntity
  8
Capa 1
 62
     7
420
 16777215
370
   158
100
AcDbLine
 10
76.34365109202509
 20
-67.91730662449103
 30
0.0
 11
76.34365109202509
 21
-63.54893006927094
 31
0.0
  0
LINE
  5
FB
330
70
100
AcDbEntity
  8
Capa 1
 62
     7
420
 16777215
370
   158
100
AcDbLine
 10
83.21301053475224
 20
-67.91730662449103
 30
0.0
 11
83.21301053475224
 21
-63.54893006927094
 31
0.0
  0
LINE
  5
FC
330
70
100
AcDbEntity
  8
Capa 1
 62
     7
420
 16777215
370
   158
100
AcDbLine
 10
90.2051719218932
 20
-67.91730662449103
 30
0.0
 11
90.2051719218932
 21
-63.54893006927094
 31
0.0
  0
LINE
  5
FD
330
70
100
AcDbEntity
  8
Capa 1
 62
     7
420
 16777215
370
   158
100
AcDbLine
 10
76.34365109202509
 20
-72.28554206860362
 30
0.0
 11
76.34365109202509
 21
-67.91730662449103
 31
0.0
  0
LINE
  5
FE
330
70
100
AcDbEntity
  8
Capa 1
 62
     7
420
 16777215
370
   158
100
AcDbLine
 10
83.21301053475224
 20
-72.28554206860362
 30
0.0
 11
83.21301053475224
 21
-67.91730662449103
 31
0.0
  0
LINE
  5
FF
330
70
100
AcDbEntity
  8
Capa 1
 62
     7
420
 16777215
370
   158
100
AcDbLine
 10
90.2051719218932
 20
-72.28554206860362
 30
0.0
 11
90.2051719218932
 21
-67.91730662449103
 31
0.0
  0
LINE
  5
100
330
70
100
AcDbEntity
  8
Capa 1
 62
     7
420
 16777215
370
   158
100
AcDbLine
 10
76.34365109202509
 20
-76.65391862382371
 30
0.0
 11
76.34365109202509
 21
-72.28554206860362
 31
0.0
  0
LINE
  5
101
330
70
100
AcDbEntity
  8
Capa 1
 62
     7
420
 16777215
370
   158
100
AcDbLine
 10
83.21301053475224
 20
-76.65391862382371
 30
0.0
 11
83.21301053475224
 21
-72.28554206860362
 31
0.0
  0
LINE
  5
102
330
70
100
AcDbEntity
  8
Capa 1
 62
     7
420
 16777215
370
   158
100
AcDbLine
 10
90.2051719218932
 20
-76.65391862382371
 30
0.0
 11
90.2051719218932
 21
-72.28554206860362
 31
0.0
  0
LINE
  5
103
330
70
100
AcDbEntity
  8
Capa 1
 62
     7
420
 16777215
370
   158
100
AcDbLine
 10
76.34365109202509
 20
-81.02229517904381
 30
0.0
 11
76.34365109202509
 21
-76.65391862382371
 31
0.0
  0
LINE
  5
104
330
70
100
AcDbEntity
  8
Capa 1
 62
     7
420
 16777215
370
   158
100
AcDbLine
 10
83.21301053475224
 20
-81.02229517904381
 30
0.0
 11
83.21301053475224
 21
-76.65391862382371
 31
0.0
  0
LINE
  5
105
330
70
100
AcDbEntity
  8
Capa 1
 62
     7
420
 16777215
370
   158
100
AcDbLine
 10
90.2051719218932
 20
-81.02229517904381
 30
0.0
 11
90.2051719218932
 21
-76.65391862382371
 31
0.0
  0
LINE
  5
106
330
70
100
AcDbEntity
  8
Capa 1
 62
     7
420
 16777215
370
   158
100
AcDbLine
 10
76.34365109202509
 20
-85.3906717342639
 30
0.0
 11
76.34365109202509
 21
-81.02229517904381
 31
0.0
  0
LINE
  5
107
330
70
100
AcDbEntity
  8
Capa 1
 62
     7
420
 16777215
370
   158
100
AcDbLine
 10
83.21301053475224
 20
-85.3906717342639
 30
0.0
 11
83.21301053475224
 21
-81.02229517904381
 31
0.0
  0
LINE
  5
108
330
70
100
AcDbEntity
  8
Capa 1
 62
     7
420
 16777215
370
   158
100
AcDbLine
 10
90.2051719218932
 20
-85.3906717342639
 30
0.0
 11
90.2051719218932
 21
-81.02229517904381
 31
0.0
  0
LINE
  5
109
330
70
100
AcDbEntity
  8
Capa 1
 62
     7
420
 16777215
370
   158
100
AcDbLine
 10
76.34365109202509
 20
-89.75904526648154
 30
0.0
 11
76.34365109202509
 21
-85.3906717342639
 31
0.0
  0
LINE
  5
10A
330
70
100
AcDbEntity
  8
Capa 1
 62
     7
420
 16777215
370
   158
100
AcDbLine
 10
83.21301053475224
 20
-89.75904526648154
 30
0.0
 11
83.21301053475224
 21
-85.3906717342639
 31
0.0
  0
LINE
  5
10B
330
70
100
AcDbEntity
  8
Capa 1
 62
     7
420
 16777215
370
   158
100
AcDbLine
 10
90.2051719218932
 20
-89.75904526648154
 30
0.0
 11
90.2051719218932
 21
-85.3906717342639
 31
0.0
  0
LINE
  5
10C
330
70
100
AcDbEntity
  8
Capa 1
 62
     7
420
 16777215
370
   158
100
AcDbLine
 10
76.34365109202509
 20
-93.95036568255459
 30
0.0
 11
76.34365109202509
 21
-89.75837801172332
 31
0.0
  0
LINE
  5
10D
330
70
100
AcDbEntity
  8
Capa 1
 62
     7
420
 16777215
370
   158
100
AcDbLine
 10
83.21301053475224
 20
-93.95036568255459
 30
0.0
 11
83.21301053475224
 21
-89.75837801172332
 31
0.0
  0
LINE
  5
10E
330
70
100
AcDbEntity
  8
Capa 1
 62
     7
420
 16777215
370
   158
100
AcDbLine
 10
90.2051719218932
 20
-93.95036568255459
 30
0.0
 11
90.2051719218932
 21
-89.75837801172332
 31
0.0
  0
INSERT
  5
110
330
70
100
AcDbEntity
  8
Capa 1
100
AcDbBlockReference
  2
Block_1
 10
0.0
 20
0.0
 30
0.0
  0
LINE
  5
115
330
70
100
AcDbEntity
  8
Capa 1
 62
     7
420
 16777215
370
   158
100
AcDbLine
 10
95.40518692059327
 20
-67.91730662449103
 30
0.0
 11
95.40518692059327
 21
-63.54893006927094
 31
0.0
  0
LINE
  5
116
330
70
100
AcDbEntity
  8
Capa 1
 62
     7
420
 16777215
370
   158
100
AcDbLine
 10
95.40518692059327
 20
-72.28554206860362
 30
0.0
 11
95.40518692059327
 21
-67.91730662449103
 31
0.0
  0
LINE
  5
117
330
70
100
AcDbEntity
  8
Capa 1
 62
     7
420
 16777215
370
   158
100
AcDbLine
 10
95.40518692059327
 20
-76.65391862382371
 30
0.0
 11
95.40518692059327
 21
-72.28554206860362
 31
0.0
  0
LINE
  5
118
330
70
100
AcDbEntity
  8
Capa 1
 62
     7
420
 16777215
370
   158
100
AcDbLine
 10
95.40518692059327
 20
-81.02229517904381
 30
0.0
 11
95.40518692059327
 21
-76.65391862382371
 31
0.0
  0
LINE
  5
119
330
70
100
AcDbEntity
  8
Capa 1
 62
     7
420
 16777215
370
   158
100
AcDbLine
 10
95.40518692059327
 20
-85.3906717342639
 30
0.0
 11
95.40518692059327
 21
-81.02229517904381
 31
0.0
  0
LINE
  5
11A
330
70
100
AcDbEntity
  8
Capa 1
 62
     7
420
 16777215
370
   158
100
AcDbLine
 10
95.40518692059327
 20
-89.75904526648154
 30
0.0
 11
95.40518692059327
 21
-85.3906717342639
 31
0.0
  0
LINE
  5
11B
330
70
100
AcDbEntity
  8
Capa 1
 62
     7
420
 16777215
370
   158
100
AcDbLine
 10
95.40518692059327
 20
-93.95036568255459
 30
0.0
 11
95.40518692059327
 21
-89.75837801172332
 31
0.0
  0
LINE
  5
11C
330
70
100
AcDbEntity
  8
Capa 1
 62
   251
420
  4544096
370
    35
100
AcDbLine
 10
63.45505609524725
 20
-94.12675456694342
 30
0.0
 11
76.34382748091396
 21
-94.12675456694342
 31
0.0
  0
LINE
  5
11D
330
70
100
AcDbEntity
  8
Capa 1
 62
   251
420
  4544096
370
    35
100
AcDbLine
 10
76.34365109202509
 20
-94.12675456694342
 30
0.0
 11
83.21301053475224
 21
-94.12675456694342
 31
0.0
  0
LINE
  5
11E
330
70
100
AcDbEntity
  8
Capa 1
 62
   251
420
  4544096
370
    35
100
AcDbLine
 10
83.21301053475224
 20
-94.12675456694342
 30
0.0
 11
90.2051719218932
 21
-94.12675456694342
 31
0.0
  0
LINE
  5
11F
330
70
100
AcDbEntity
  8
Capa 1
 62
   251
420
  4544096
370
    35
100
AcDbLine
 10
90.2051719218932
 20
-94.12675456694342
 30
0.0
 11
95.40486942059335
 21
-94.12675456694342
 31
0.0
  0
LINE
  5
120
330
70
100
AcDbEntity
  8
Capa 1
 62
   251
420
  4544096
370
    35
100
AcDbLine
 10
95.40518692059327
 20
-94.12675456694342
 30
0.0
 11
103.8050365761687
 21
-94.12675456694342
 31
0.0
  0
MTEXT
  5
121
330
70
100
AcDbEntity
  8
Capa 1
100
AcDbMText
 10
63.85501707388
 20
-62.64896988891947
 30
0.0
 40
0.2
 41
0.0
 46
0.0
 71
     7
 72
     1
  1
\C251;\c6313541;\FArial|b0|i0|c1;\H2.497667;\W1.000000; mm
 73
     1
 44
1.0
  0
MTEXT
  5
122
330
70
100
AcDbEntity
  8
Capa 1
100
AcDbMText
 10
77.22526039736036
 20
-62.64896988891947
 30
0.0
 40
0.2
 41
0.0
 46
0.0
 71
     7
 72
     1
  1
\C251;\c6313541;\FArial|b0|i0|c1;\H2.497667;\W1.000000;d Ø
 73
     1
 44
1.0
  0
MTEXT
  5
123
330
70
100
AcDbEntity
  8
Capa 1
100
AcDbMText
 10
84.09391952107723
 20
-62.64896988891947
 30
0.0
 40
0.2
 41
0.0
 46
0.0
 71
     7
 72
     1
  1
\C251;\c6313541;\FArial|b0|i0|c1;\H2.497667;\W1.000000;h
 73
     1
 44
1.0
  0
MTEXT
  5
124
330
70
100
AcDbEntity
  8
Capa 1
100
AcDbMText
 10
91.08608531794029
 20
-62.64896988891947
 30
0.0
 40
0.2
 41
0.0
 46
0.0
 71
     7
 72
     1
  1
\C251;\c6313541;\FArial|b0|i0|c1;\H2.497667;\W1.000000;B
 73
     1
 44
1.0
  0
MTEXT
  5
125
330
70
100
AcDbEntity
  8
Capa 1
100
AcDbMText
 10
96.28576793382787
 20
-62.64896988891947
 30
0.0
 40
0.2
 41
0.0
 46
0.0
 71
     7
 72
     1
  1
\C251;\c6313541;\FArial|b0|i0|c1;\H2.497667;\W1.000000;A Ø
 73
     1
 44
1.0
  0
MTEXT
  5
126
330
70
100
AcDbEntity
  8
Capa 1
100
AcDbMText
 10
63.85501707388
 20
-67.01631743557069
 30
0.0
 40
0.2
 41
0.0
 46
0.0
 71
     7
 72
     1
  1
\C251;\c6313541;\FArial|b0|i0|c1;\H2.497667;\W1.000000;85x175
 73
     1
 44
1.0
  0
MTEXT
  5
127
330
70
100
AcDbEntity
  8
Capa 1
100
AcDbMText
 10
77.22526039736036
 20
-67.01631743557069
 30
0.0
 40
0.2
 41
0.0
 46
0.0
 71
     7
 72
     1
  1
\C251;\c6313541;\FArial|b0|i0|c1;\H2.497667;\W1.000000;85
 73
     1
 44
1.0
  0
MTEXT
  5
128
330
70
100
AcDbEntity
  8
Capa 1
100
AcDbMText
 10
84.09391952107723
 20
-67.01631743557069
 30
0.0
 40
0.2
 41
0.0
 46
0.0
 71
     7
 72
     1
  1
\C251;\c6313541;\FArial|b0|i0|c1;\H2.497667;\W1.000000;175
 73
     1
 44
1.0
  0
MTEXT
  5
129
330
70
100
AcDbEntity
  8
Capa 1
100
AcDbMText
 10
91.08608531794029
 20
-67.01631743557069
 30
0.0
 40
0.2
 41
0.0
 46
0.0
 71
     7
 72
     1
  1
\C251;\c6313541;\FArial|b0|i0|c1;\H2.497667;\W1.000000;31
 73
     1
 44
1.0
  0
MTEXT
  5
12A
330
70
100
AcDbEntity
  8
Capa 1
100
AcDbMText
 10
96.28576793382787
 20
-67.01631743557069
 30
0.0
 40
0.2
 41
0.0
 46
0.0
 71
     7
 72
     1
  1
\C251;\c6313541;\FArial|b0|i0|c1;\H2.497667;\W1.000000;90
 73
     1
 44
1.0
  0
MTEXT
  5
12B
330
70
100
AcDbEntity
  8
Capa 1
100
AcDbMText
 10
63.85501707388
 20
-71.3836649822219
 30
0.0
 40
0.2
 41
0.0
 46
0.0
 71
     7
 72
     1
  1
\C251;\c6313541;\FArial|b0|i0|c1;\H2.497667;\W1.000000;85x245
 73
     1
 44
1.0
  0
MTEXT
  5
12C
330
70
100
AcDbEntity
  8
Capa 1
100
AcDbMText
 10
77.22526039736036
 20
-71.3836649822219
 30
0.0
 40
0.2
 41
0.0
 46
0.0
 71
     7
 72
     1
  1
\C251;\c6313541;\FArial|b0|i0|c1;\H2.497667;\W1.000000;85
 73
     1
 44
1.0
  0
MTEXT
  5
12D
330
70
100
AcDbEntity
  8
Capa 1
100
AcDbMText
 10
84.09391952107723
 20
-71.3836649822219
 30
0.0
 40
0.2
 41
0.0
 46
0.0
 71
     7
 72
     1
  1
\C251;\c6313541;\FArial|b0|i0|c1;\H2.497667;\W1.000000;245
 73
     1
 44
1.0
  0
MTEXT
  5
12E
330
70
100
AcDbEntity
  8
Capa 1
100
AcDbMText
 10
91.08608531794029
 20
-71.3836649822219
 30
0.0
 40
0.2
 41
0.0
 46
0.0
 71
     7
 72
     1
  1
\C251;\c6313541;\FArial|b0|i0|c1;\H2.497667;\W1.000000;31
 73
     1
 44
1.0
  0
MTEXT
  5
12F
330
70
100
AcDbEntity
  8
Capa 1
100
AcDbMText
 10
96.28576793382787
 20
-71.3836649822219
 30
0.0
 40
0.2
 41
0.0
 46
0.0
 71
     7
 72
     1
  1
\C251;\c6313541;\FArial|b0|i0|c1;\H2.497667;\W1.000000;90
 73
     1
 44
1.0
  0
MTEXT
  5
130
330
70
100
AcDbEntity
  8
Capa 1
100
AcDbMText
 10
63.85501707388
 20
-75.75101252887312
 30
0.0
 40
0.2
 41
0.0
 46
0.0
 71
     7
 72
     1
  1
\C251;\c6313541;\FArial|b0|i0|c1;\H2.497667;\W1.000000;100x245
 73
     1
 44
1.0
  0
MTEXT
  5
131
330
70
100
AcDbEntity
  8
Capa 1
100
AcDbMText
 10
77.22526039736036
 20
-75.75101252887312
 30
0.0
 40
0.2
 41
0.0
 46
0.0
 71
     7
 72
     1
  1
\C251;\c6313541;\FArial|b0|i0|c1;\H2.497667;\W1.000000;100
 73
     1
 44
1.0
  0
MTEXT
  5
132
330
70
100
AcDbEntity
  8
Capa 1
100
AcDbMText
 10
84.09391952107723
 20
-75.75101252887312
 30
0.0
 40
0.2
 41
0.0
 46
0.0
 71
     7
 72
     1
  1
\C251;\c6313541;\FArial|b0|i0|c1;\H2.497667;\W1.000000;245
 73
     1
 44
1.0
  0
MTEXT
  5
133
330
70
100
AcDbEntity
  8
Capa 1
100
AcDbMText
 10
91.08608531794029
 20
-75.75101252887312
 30
0.0
 40
0.2
 41
0.0
 46
0.0
 71
     7
 72
     1
  1
\C251;\c6313541;\FArial|b0|i0|c1;\H2.497667;\W1.000000;31
 73
     1
 44
1.0
  0
MTEXT
  5
134
330
70
100
AcDbEntity
  8
Capa 1
100
AcDbMText
 10
96.28576793382787
 20
-75.75101252887312
 30
0.0
 40
0.2
 41
0.0
 46
0.0
 71
     7
 72
     1
  1
\C251;\c6313541;\FArial|b0|i0|c1;\H2.497667;\W1.000000;105
 73
     1
 44
1.0
  0
MTEXT
  5
135
330
70
100
AcDbEntity
  8
Capa 1
100
AcDbMText
 10
63.85501707388
 20
-80.1185323302986
 30
0.0
 40
0.2
 41
0.0
 46
0.0
 71
     7
 72
     1
  1
\C251;\c6313541;\FArial|b0|i0|c1;\H2.497667;\W1.000000;116x245
 73
     1
 44
1.0
  0
MTEXT
  5
136
330
70
100
AcDbEntity
  8
Capa 1
100
AcDbMText
 10
77.22526039736036
 20
-80.1185323302986
 30
0.0
 40
0.2
 41
0.0
 46
0.0
 71
     7
 72
     1
  1
\C251;\c6313541;\FArial|b0|i0|c1;\H2.497667;\W1.000000;116
 73
     1
 44
1.0
  0
MTEXT
  5
137
330
70
100
AcDbEntity
  8
Capa 1
100
AcDbMText
 10
84.09391952107723
 20
-80.1185323302986
 30
0.0
 40
0.2
 41
0.0
 46
0.0
 71
     7
 72
     1
  1
\C251;\c6313541;\FArial|b0|i0|c1;\H2.497667;\W1.000000;245
 73
     1
 44
1.0
  0
MTEXT
  5
138
330
70
100
AcDbEntity
  8
Capa 1
100
AcDbMText
 10
91.08608531794029
 20
-80.1185323302986
 30
0.0
 40
0.2
 41
0.0
 46
0.0
 71
     7
 72
     1
  1
\C251;\c6313541;\FArial|b0|i0|c1;\H2.497667;\W1.000000;35
 73
     1
 44
1.0
  0
MTEXT
  5
139
330
70
100
AcDbEntity
  8
Capa 1
100
AcDbMText
 10
96.28576793382787
 20
-80.1185323302986
 30
0.0
 40
0.2
 41
0.0
 46
0.0
 71
     7
 72
     1
  1
\C251;\c6313541;\FArial|b0|i0|c1;\H2.497667;\W1.000000;121
 73
     1
 44
1.0
  0
MTEXT
  5
13A
330
70
100
AcDbEntity
  8
Capa 1
100
AcDbMText
 10
63.85501707388
 20
-84.48587987694983
 30
0.0
 40
0.2
 41
0.0
 46
0.0
 71
     7
 72
     1
  1
\C251;\c6313541;\FArial|b0|i0|c1;\H2.497667;\W1.000000;136x220
 73
     1
 44
1.0
  0
MTEXT
  5
13B
330
70
100
AcDbEntity
  8
Capa 1
100
AcDbMText
 10
77.22526039736036
 20
-84.48587987694983
 30
0.0
 40
0.2
 41
0.0
 46
0.0
 71
     7
 72
     1
  1
\C251;\c6313541;\FArial|b0|i0|c1;\H2.497667;\W1.000000;136
 73
     1
 44
1.0
  0
MTEXT
  5
13C
330
70
100
AcDbEntity
  8
Capa 1
100
AcDbMText
 10
84.09391952107723
 20
-84.48587987694983
 30
0.0
 40
0.2
 41
0.0
 46
0.0
 71
     7
 72
     1
  1
\C251;\c6313541;\FArial|b0|i0|c1;\H2.497667;\W1.000000;220
 73
     1
 44
1.0
  0
MTEXT
  5
13D
330
70
100
AcDbEntity
  8
Capa 1
100
AcDbMText
 10
91.08608531794029
 20
-84.48587987694983
 30
0.0
 40
0.2
 41
0.0
 46
0.0
 71
     7
 72
     1
  1
\C251;\c6313541;\FArial|b0|i0|c1;\H2.497667;\W1.000000;35
 73
     1
 44
1.0
  0
MTEXT
  5
13E
330
70
100
AcDbEntity
  8
Capa 1
100
AcDbMText
 10
96.28576793382787
 20
-84.48587987694983
 30
0.0
 40
0.2
 41
0.0
 46
0.0
 71
     7
 72
     1
  1
\C251;\c6313541;\FArial|b0|i0|c1;\H2.497667;\W1.000000;141
 73
     1
 44
1.0
  0
MTEXT
  5
13F
330
70
100
AcDbEntity
  8
Capa 1
100
AcDbMText
 10
63.85501707388
 20
-88.85322742360104
 30
0.0
 40
0.2
 41
0.0
 46
0.0
 71
     7
 72
     1
  1
\C251;\c6313541;\FArial|b0|i0|c1;\H2.497667;\W1.000000;136x261
 73
     1
 44
1.0
  0
MTEXT
  5
140
330
70
100
AcDbEntity
  8
Capa 1
100
AcDbMText
 10
77.22526039736036
 20
-88.85322742360104
 30
0.0
 40
0.2
 41
0.0
 46
0.0
 71
     7
 72
     1
  1
\C251;\c6313541;\FArial|b0|i0|c1;\H2.497667;\W1.000000;136
 73
     1
 44
1.0
  0
MTEXT
  5
141
330
70
100
AcDbEntity
  8
Capa 1
100
AcDbMText
 10
84.09391952107723
 20
-88.85322742360104
 30
0.0
 40
0.2
 41
0.0
 46
0.0
 71
     7
 72
     1
  1
\C251;\c6313541;\FArial|b0|i0|c1;\H2.497667;\W1.000000;261
 73
     1
 44
1.0
  0
MTEXT
  5
142
330
70
100
AcDbEntity
  8
Capa 1
100
AcDbMText
 10
91.08608531794029
 20
-88.85322742360104
 30
0.0
 40
0.2
 41
0.0
 46
0.0
 71
     7
 72
     1
  1
\C251;\c6313541;\FArial|b0|i0|c1;\H2.497667;\W1.000000;35
 73
     1
 44
1.0
  0
MTEXT
  5
143
330
70
100
AcDbEntity
  8
Capa 1
100
AcDbMText
 10
96.28576793382787
 20
-88.85322742360104
 30
0.0
 40
0.2
 41
0.0
 46
0.0
 71
     7
 72
     1
  1
\C251;\c6313541;\FArial|b0|i0|c1;\H2.497667;\W1.000000;141
 73
     1
 44
1.0
  0
MTEXT
  5
144
330
70
100
AcDbEntity
  8
Capa 1
100
AcDbMText
 10
63.85501707388
 20
-93.22057497025225
 30
0.0
 40
0.2
 41
0.0
 46
0.0
 71
     7
 72
     1
  1
\C251;\c6313541;\FArial|b0|i0|c1;\H2.497667;\W1.000000;136x355
 73
     1
 44
1.0
  0
MTEXT
  5
145
330
70
100
AcDbEntity
  8
Capa 1
100
AcDbMText
 10
77.22526039736036
 20
-93.22057497025225
 30
0.0
 40
0.2
 41
0.0
 46
0.0
 71
     7
 72
     1
  1
\C251;\c6313541;\FArial|b0|i0|c1;\H2.497667;\W1.000000;136
 73
     1
 44
1.0
  0
MTEXT
  5
146
330
70
100
AcDbEntity
  8
Capa 1
100
AcDbMText
 10
84.09391952107723
 20
-93.22057497025225
 30
0.0
 40
0.2
 41
0.0
 46
0.0
 71
     7
 72
     1
  1
\C251;\c6313541;\FArial|b0|i0|c1;\H2.497667;\W1.000000;355
 73
     1
 44
1.0
  0
MTEXT
  5
147
330
70
100
AcDbEntity
  8
Capa 1
100
AcDbMText
 10
91.08608531794029
 20
-93.22057497025225
 30
0.0
 40
0.2
 41
0.0
 46
0.0
 71
     7
 72
     1
  1
\C251;\c6313541;\FArial|b0|i0|c1;\H2.497667;\W1.000000;46
 73
     1
 44
1.0
  0
MTEXT
  5
148
330
70
100
AcDbEntity
  8
Capa 1
100
AcDbMText
 10
96.28576793382787
 20
-93.22057497025225
 30
0.0
 40
0.2
 41
0.0
 46
0.0
 71
     7
 72
     1
  1
\C251;\c6313541;\FArial|b0|i0|c1;\H2.497667;\W1.000000;141
 73
     1
 44
1.0
  0
ENDSEC
  0
SECTION
  2
OBJECTS
  0
DICTIONARY
  5
C
330
0
100
AcDbDictionary
281
     1
  3
ACAD_COLOR
350
63
  3
ACAD_DETAILVIEWSTYLE
350
6A
  3
ACAD_GROUP
350
D
  3
ACAD_LAYOUT
350
62
  3
ACAD_MATERIAL
350
10
  3
ACAD_MLEADERSTYLE
350
66
  3
ACAD_MLINESTYLE
350
5F
  3
ACAD_PLOTSETTINGS
350
61
  3
ACAD_PLOTSTYLENAME
350
E
  3
ACAD_SCALELIST
350
42
  3
ACAD_SECTIONVIEWSTYLE
350
68
  3
ACAD_TABLESTYLE
350
64
  3
ACAD_VISUALSTYLE
350
29
  3
ACDB_RECOMPOSE_DATA
350
153
  3
AcDbVariableDictionary
350
149
  0
DICTIONARY
  5
63
102
{ACAD_REACTORS
330
C
102
}
330
C
100
AcDbDictionary
281
     1
  0
DICTIONARY
  5
6A
102
{ACAD_REACTORS
330
C
102
}
330
C
100
AcDbDictionary
281
     1
  3
Imperial24
350
6B
  0
DICTIONARY
  5
D
102
{ACAD_REACTORS
330
C
102
}
330
C
100
AcDbDictionary
281
     1
  0
DICTIONARY
  5
62
102
{ACAD_REACTORS
330
C
102
}
330
C
100
AcDbDictionary
281
     1
  3
Layout1
350
6F
  3
Layout2
350
77
  3
Model
350
73
  0
DICTIONARY
  5
10
102
{ACAD_REACTORS
330
C
102
}
330
C
100
AcDbDictionary
281
     1
  3
ByBlock
350
19
  3
ByLayer
350
11
  3
Global
350
21
  0
DICTIONARY
  5
66
102
{ACAD_REACTORS
330
C
102
}
330
C
100
AcDbDictionary
281
     1
  3
Standard
350
67
  0
DICTIONARY
  5
5F
102
{ACAD_REACTORS
330
C
102
}
330
C
100
AcDbDictionary
281
     1
  3
Standard
350
60
  0
DICTIONARY
  5
61
102
{ACAD_REACTORS
330
C
102
}
330
C
100
AcDbDictionary
281
     1
  0
ACDBDICTIONARYWDFLT
  5
E
102
{ACAD_REACTORS
330
C
102
}
330
C
100
AcDbDictionary
281
     1
  3
Normal
350
F
100
AcDbDictionaryWithDefault
340
F
  0
DICTIONARY
  5
42
102
{ACAD_REACTORS
330
C
102
}
330
C
100
AcDbDictionary
281
     1
  3
A0
350
43
  3
A1
350
44
  3
A2
350
45
  3
A3
350
46
  3
A4
350
47
  3
A5
350
48
  3
A6
350
49
  3
A7
350
4A
  3
A8
350
4B
  3
A9
350
4C
  3
B0
350
4D
  3
B1
350
4E
  3
B2
350
4F
  3
B3
350
50
  3
B4
350
51
  3
B5
350
52
  3
B6
350
53
  0
DICTIONARY
  5
68
102
{ACAD_REACTORS
330
C
102
}
330
C
100
AcDbDictionary
281
     1
  3
Imperial24
350
69
  0
DICTIONARY
  5
64
102
{ACAD_REACTORS
330
C
102
}
330
C
100
AcDbDictionary
281
     1
  3
Standard
350
65
  0
DICTIONARY
  5
29
102
{ACAD_REACTORS
330
C
102
}
330
C
100
AcDbDictionary
281
     1
  3
2dWireframe
350
2F
  3
Basic
350
2E
  3
Brighten
350
35
  3
ColorChange
350
39
  3
Conceptual
350
32
  3
Dim
350
34
  3
EdgeColorOff
350
41
  3
Facepattern
350
38
  3
Flat
350
2A
  3
FlatWithEdges
350
2B
  3
Gouraud
350
2C
  3
GouraudWithEdges
350
2D
  3
Hidden
350
31
  3
JitterOff
350
3F
  3
Linepattern
350
37
  3
OverhangOff
350
40
  3
Realistic
350
33
  3
Shaded
350
3E
  3
Shaded with edges
350
3D
  3
Shades of Gray
350
3A
  3
Sketchy
350
3B
  3
Thicken
350
36
  3
Wireframe
350
30
  3
X-Ray
350
3C
  0
XRECORD
  5
153
102
{ACAD_REACTORS
330
C
102
}
330
C
100
AcDbXrecord
280
     1
 90
        1
330
65
  0
DICTIONARY
  5
149
102
{ACAD_REACTORS
330
C
102
}
330
C
100
AcDbDictionary
281
     1
  3
CANNOSCALE
350
14E
  3
CMLEADERSTYLE
350
14B
  3
CTABLESTYLE
350
14A
  3
CVIEWDETAILSTYLE
350
14C
  3
CVIEWSECTIONSTYLE
350
14D
  0
ACDBDETAILVIEWSTYLE
  5
6B
102
{ACAD_XDICTIONARY
360
156
102
}
102
{ACAD_REACTORS
330
6A
102
}
330
6A
100
AcDbModelDocViewStyle
 70
     0
  3
Imperial24
290
     0
100
AcDbDetailViewStyle
 70
     0
 71
     0
 90
        3
 71
     1
340
55
 62
   256
 40
0.24
340
0
 62
   256
 40
0.24
300

 40
0.36
280
     3
 71
     2
340
5D
 90
       25
 62
   256
 71
     3
340
55
 62
   256
 40
0.24
 90
        1
 40
0.75
 90
        1
300
%<\AcVar ViewType \f "%tc1">% %<\AcVar ViewDetailId>%\PSCALE %<\AcVar ViewScale \f "%sn">%
 71
     4
340
5D
 90
       25
 62
   256
340
5D
 90
       25
 62
   256
280
     0
  0
LAYOUT
  5
6F
102
{ACAD_REACTORS
330
62
102
}
330
62
100
AcDbPlotSettings
  1

  2

  4

  6

 40
0.0
 41
0.0
 42
0.0
 43
0.0
 44
0.0
 45
0.0
 46
0.0
 47
0.0
 48
0.0
 49
0.0
140
0.0
141
0.0
142
1.0
143
1.0
 70
   688
 72
     0
 73
     0
 74
     5
  7

 75
    16
147
1.0
 76
     0
 77
     2
 78
   300
148
0.0
149
0.0
100
AcDbLayout
  1
Layout1
 70
     1
 71
     1
 10
0.0
 20
0.0
 11
12.0
 21
9.0
 12
0.0
 22
0.0
 32
0.0
 14
0.0
 24
0.0
 34
0.0
 15
0.0
 25
0.0
 35
0.0
146
0.0
 13
0.0
 23
0.0
 33
0.0
 16
1.0
 26
0.0
 36
0.0
 17
0.0
 27
1.0
 37
0.0
 76
     0
330
6C
  0
LAYOUT
  5
77
102
{ACAD_REACTORS
330
62
102
}
330
62
100
AcDbPlotSettings
  1

  2

  4

  6

 40
0.0
 41
0.0
 42
0.0
 43
0.0
 44
0.0
 45
0.0
 46
0.0
 47
0.0
 48
0.0
 49
0.0
140
0.0
141
0.0
142
1.0
143
1.0
 70
   688
 72
     0
 73
     0
 74
     5
  7

 75
    16
147
1.0
 76
     0
 77
     2
 78
   300
148
0.0
149
0.0
100
AcDbLayout
  1
Layout2
 70
     1
 71
     2
 10
0.0
 20
0.0
 11
12.0
 21
9.0
 12
0.0
 22
0.0
 32
0.0
 14
0.0
 24
0.0
 34
0.0
 15
0.0
 25
0.0
 35
0.0
146
0.0
 13
0.0
 23
0.0
 33
0.0
 16
1.0
 26
0.0
 36
0.0
 17
0.0
 27
1.0
 37
0.0
 76
     0
330
74
  0
LAYOUT
  5
73
102
{ACAD_REACTORS
330
62
102
}
330
62
100
AcDbPlotSettings
  1

  2

  4

  6

 40
0.0
 41
0.0
 42
0.0
 43
0.0
 44
0.0
 45
0.0
 46
0.0
 47
0.0
 48
0.0
 49
0.0
140
0.0
141
0.0
142
1.0
143
1.0
 70
  1712
 72
     0
 73
     0
 74
     0
  7

 75
     0
147
1.0
 76
     0
 77
     2
 78
   300
148
0.0
149
0.0
100
AcDbLayout
  1
Model
 70
     1
 71
     0
 10
0.0
 20
0.0
 11
12.0
 21
9.0
 12
0.0
 22
0.0
 32
0.0
 14
0.0
 24
0.0
 34
0.0
 15
0.0
 25
0.0
 35
0.0
146
0.0
 13
0.0
 23
0.0
 33
0.0
 16
1.0
 26
0.0
 36
0.0
 17
0.0
 27
1.0
 37
0.0
 76
     0
330
70
  0
MATERIAL
  5
19
102
{ACAD_XDICTIONARY
360
1A
102
}
102
{ACAD_REACTORS
330
10
102
}
330
10
100
AcDbMaterial
  1
ByBlock
 72
     0
 43
0.0208333333333333
 43
0.0
 43
0.0
 43
0.0
 43
0.0
 43
0.0208333333333333
 43
0.0
 43
0.0
 43
0.0
 43
0.0
 43
1.0
 43
0.0
 43
0.0
 43
0.0
 43
0.0
 43
1.0
 77
     0
 47
0.0208333333333333
 47
0.0
 47
0.0
 47
0.0
 47
0.0
 47
0.0208333333333333
 47
0.0
 47
0.0
 47
0.0
 47
0.0
 47
1.0
 47
0.0
 47
0.0
 47
0.0
 47
0.0
 47
1.0
171
     0
 49
0.0208333333333333
 49
0.0
 49
0.0
 49
0.0
 49
0.0
 49
0.0208333333333333
 49
0.0
 49
0.0
 49
0.0
 49
0.0
 49
1.0
 49
0.0
 49
0.0
 49
0.0
 49
0.0
 49
1.0
175
     0
142
0.0208333333333333
142
0.0
142
0.0
142
0.0
142
0.0
142
0.0208333333333333
142
0.0
142
0.0
142
0.0
142
0.0
142
1.0
142
0.0
142
0.0
142
0.0
142
0.0
142
1.0
179
     0
144
0.0208333333333333
144
0.0
144
0.0
144
0.0
144
0.0
144
0.0208333333333333
144
0.0
144
0.0
144
0.0
144
0.0
144
1.0
144
0.0
144
0.0
144
0.0
144
0.0
144
1.0
147
0.0208333333333333
147
0.0
147
0.0
147
0.0
147
0.0
147
0.0208333333333333
147
0.0
147
0.0
147
0.0
147
0.0
147
1.0
147
0.0
147
0.0
147
0.0
147
0.0
147
1.0
  0
MATERIAL
  5
11
102
{ACAD_XDICTIONARY
360
12
102
}
102
{ACAD_REACTORS
330
10
102
}
330
10
100
AcDbMaterial
  1
ByLayer
 72
     0
 43
0.0208333333333333
 43
0.0
 43
0.0
 43
0.0
 43
0.0
 43
0.0208333333333333
 43
0.0
 43
0.0
 43
0.0
 43
0.0
 43
1.0
 43
0.0
 43
0.0
 43
0.0
 43
0.0
 43
1.0
 77
     0
 47
0.0208333333333333
 47
0.0
 47
0.0
 47
0.0
 47
0.0
 47
0.0208333333333333
 47
0.0
 47
0.0
 47
0.0
 47
0.0
 47
1.0
 47
0.0
 47
0.0
 47
0.0
 47
0.0
 47
1.0
171
     0
 49
0.0208333333333333
 49
0.0
 49
0.0
 49
0.0
 49
0.0
 49
0.0208333333333333
 49
0.0
 49
0.0
 49
0.0
 49
0.0
 49
1.0
 49
0.0
 49
0.0
 49
0.0
 49
0.0
 49
1.0
175
     0
142
0.0208333333333333
142
0.0
142
0.0
142
0.0
142
0.0
142
0.0208333333333333
142
0.0
142
0.0
142
0.0
142
0.0
142
1.0
142
0.0
142
0.0
142
0.0
142
0.0
142
1.0
179
     0
144
0.0208333333333333
144
0.0
144
0.0
144
0.0
144
0.0
144
0.0208333333333333
144
0.0
144
0.0
144
0.0
144
0.0
144
1.0
144
0.0
144
0.0
144
0.0
144
0.0
144
1.0
147
0.0208333333333333
147
0.0
147
0.0
147
0.0
147
0.0
147
0.0208333333333333
147
0.0
147
0.0
147
0.0
147
0.0
147
1.0
147
0.0
147
0.0
147
0.0
147
0.0
147
1.0
  0
MATERIAL
  5
21
102
{ACAD_XDICTIONARY
360
22
102
}
102
{ACAD_REACTORS
330
10
102
}
330
10
100
AcDbMaterial
  1
Global
 72
     0
 43
0.0208333333333333
 43
0.0
 43
0.0
 43
0.0
 43
0.0
 43
0.0208333333333333
 43
0.0
 43
0.0
 43
0.0
 43
0.0
 43
1.0
 43
0.0
 43
0.0
 43
0.0
 43
0.0
 43
1.0
 77
     0
 47
0.0208333333333333
 47
0.0
 47
0.0
 47
0.0
 47
0.0
 47
0.0208333333333333
 47
0.0
 47
0.0
 47
0.0
 47
0.0
 47
1.0
 47
0.0
 47
0.0
 47
0.0
 47
0.0
 47
1.0
171
     0
 49
0.0208333333333333
 49
0.0
 49
0.0
 49
0.0
 49
0.0
 49
0.0208333333333333
 49
0.0
 49
0.0
 49
0.0
 49
0.0
 49
1.0
 49
0.0
 49
0.0
 49
0.0
 49
0.0
 49
1.0
175
     0
142
0.0208333333333333
142
0.0
142
0.0
142
0.0
142
0.0
142
0.0208333333333333
142
0.0
142
0.0
142
0.0
142
0.0
142
1.0
142
0.0
142
0.0
142
0.0
142
0.0
142
1.0
179
     0
144
0.0208333333333333
144
0.0
144
0.0
144
0.0
144
0.0
144
0.0208333333333333
144
0.0
144
0.0
144
0.0
144
0.0
144
1.0
144
0.0
144
0.0
144
0.0
144
0.0
144
1.0
147
0.0208333333333333
147
0.0
147
0.0
147
0.0
147
0.0
147
0.0208333333333333
147
0.0
147
0.0
147
0.0
147
0.0
147
1.0
147
0.0
147
0.0
147
0.0
147
0.0
147
1.0
  0
MLEADERSTYLE
  5
67
102
{ACAD_REACTORS
330
66
102
}
330
66
100
AcDbMLeaderStyle
179
     2
170
     2
171
     1
172
     0
 90
        2
 40
0.0
 41
0.0
173
     1
 91
-1056964608
340
5B
 92
       -2
290
     1
 42
0.09
291
     1
 43
0.36
  3
Standard
 44
0.18
300

342
55
174
     1
178
     6
175
     1
176
     0
 93
-1056964608
 45
0.18
292
     0
297
     0
 46
0.18
 94
-1056964608
 47
1.0
 49
1.0
140
1.0
293
     1
141
0.0
294
     1
177
     0
142
1.0
295
     0
296
     0
143
0.125
271
     0
272
     9
273
     9
298
     1
  0
MLINESTYLE
  5
60
102
{ACAD_REACTORS
330
5F
102
}
330
5F
100
AcDbMlineStyle
  2
STANDARD
 70
     0
  3

 62
   256
 51
90.0
 52
90.0
 71
     2
 49
0.5
 62
   256
  6
BYLAYER
 49
-0.5
 62
   256
  6
BYLAYER
  0
ACDBPLACEHOLDER
  5
F
102
{ACAD_REACTORS
330
E
102
}
330
E
  0
SCALE
  5
43
102
{ACAD_REACTORS
330
42
102
}
330
42
100
AcDbScale
 70
     0
300
1:1
140
1.0
141
1.0
290
     1
  0
SCALE
  5
44
102
{ACAD_REACTORS
330
42
102
}
330
42
100
AcDbScale
 70
     0
300
1/128" = 1'-0"
140
0.0078125
141
12.0
290
     0
  0
SCALE
  5
45
102
{ACAD_REACTORS
330
42
102
}
330
42
100
AcDbScale
 70
     0
300
1/64" = 1'-0"
140
0.015625
141
12.0
290
     0
  0
SCALE
  5
46
102
{ACAD_REACTORS
330
42
102
}
330
42
100
AcDbScale
 70
     0
300
1/32" = 1'-0"
140
0.03125
141
12.0
290
     0
  0
SCALE
  5
47
102
{ACAD_REACTORS
330
42
102
}
330
42
100
AcDbScale
 70
     0
300
1/16" = 1'-0"
140
0.0625
141
12.0
290
     0
  0
SCALE
  5
48
102
{ACAD_REACTORS
330
42
102
}
330
42
100
AcDbScale
 70
     0
300
3/32" = 1'-0"
140
0.09375
141
12.0
290
     0
  0
SCALE
  5
49
102
{ACAD_REACTORS
330
42
102
}
330
42
100
AcDbScale
 70
     0
300
1/8" = 1'-0"
140
0.125
141
12.0
290
     0
  0
SCALE
  5
4A
102
{ACAD_REACTORS
330
42
102
}
330
42
100
AcDbScale
 70
     0
300
3/16" = 1'-0"
140
0.1875
141
12.0
290
     0
  0
SCALE
  5
4B
102
{ACAD_REACTORS
330
42
102
}
330
42
100
AcDbScale
 70
     0
300
1/4" = 1'-0"
140
0.25
141
12.0
290
     0
  0
SCALE
  5
4C
102
{ACAD_REACTORS
330
42
102
}
330
42
100
AcDbScale
 70
     0
300
3/8" = 1'-0"
140
0.375
141
12.0
290
     0
  0
SCALE
  5
4D
102
{ACAD_REACTORS
330
42
102
}
330
42
100
AcDbScale
 70
     0
300
1/2" = 1'-0"
140
0.5
141
12.0
290
     0
  0
SCALE
  5
4E
102
{ACAD_REACTORS
330
42
102
}
330
42
100
AcDbScale
 70
     0
300
3/4" = 1'-0"
140
0.75
141
12.0
290
     0
  0
SCALE
  5
4F
102
{ACAD_REACTORS
330
42
102
}
330
42
100
AcDbScale
 70
     0
300
1" = 1'-0"
140
1.0
141
12.0
290
     0
  0
SCALE
  5
50
102
{ACAD_REACTORS
330
42
102
}
330
42
100
AcDbScale
 70
     0
300
1-1/2" = 1'-0"
140
1.5
141
12.0
290
     0
  0
SCALE
  5
51
102
{ACAD_REACTORS
330
42
102
}
330
42
100
AcDbScale
 70
     0
300
3" = 1'-0"
140
3.0
141
12.0
290
     0
  0
SCALE
  5
52
102
{ACAD_REACTORS
330
42
102
}
330
42
100
AcDbScale
 70
     0
300
6" = 1'-0"
140
6.0
141
12.0
290
     0
  0
SCALE
  5
53
102
{ACAD_REACTORS
330
42
102
}
330
42
100
AcDbScale
 70
     0
300
1'-0" = 1'-0"
140
12.0
141
12.0
290
     0
  0
ACDBSECTIONVIEWSTYLE
  5
69
102
{ACAD_XDICTIONARY
360
154
102
}
102
{ACAD_REACTORS
330
68
102
}
330
68
100
AcDbModelDocViewStyle
 70
     0
  3
Imperial24
290
     0
100
AcDbSectionViewStyle
 70
     0
 71
     0
 90
       78
 71
     1
340
55
 62
   256
 40
0.24
340
0
340
0
 62
   256
 40
0.24
300
I, O, Q, S, X, Z
 40
0.48
 90
        3
 40
0.18
 90
        1
 71
     2
340
5D
 90
       25
 62
   256
340
5D
 90
       50
 62
   256
 40
0.24
 40
0.0
 40
0.24
 71
     3
340
55
 62
   256
 40
0.24
 90
        1
 40
0.75
 90
        1
300
%<\AcVar ViewType \f "%tc1">% %<\AcVar ViewSectionStartId>%-%<\AcVar ViewSectionEndId>%\PSCALE %<\AcVar ViewScale \f "%sn">%
 71
     4
 62
   256
 62
   257
300
ANSI31
 40
1.0
 90
        0
290
     0
290
     0
 90
        6
 40
0.0
 40
1.570796326794896
 40
0.2617993877991494
 40
1.308996938995747
 40
-0.2617993877991494
 40
1.832595714594046
  0
TABLESTYLE
  5
65
102
{ACAD_XDICTIONARY
360
14F
102
}
102
{ACAD_REACTORS
330
64
102
}
330
64
100
AcDbTableStyle
280
     0
  3
Standard
 70
     0
 71
     0
 40
0.06
 41
0.06
280
     0
281
     0
  7
Standard
140
0.18
170
     2
 62
     0
 63
     7
283
     0
 90
      512
 91
        0
  1

274
    -2
284
     1
 64
     0
275
    -2
285
     1
 65
     0
276
    -2
286
     1
 66
     0
277
    -2
287
     1
 67
     0
278
    -2
288
     1
 68
     0
279
    -2
289
     1
 69
     0
  7
Standard
140
0.25
170
     5
 62
     0
 63
     7
283
     0
 90
      512
 91
        0
  1

274
    -2
284
     1
 64
     0
275
    -2
285
     1
 65
     0
276
    -2
286
     1
 66
     0
277
    -2
287
     1
 67
     0
278
    -2
288
     1
 68
     0
279
    -2
289
     1
 69
     0
  7
Standard
140
0.18
170
     5
 62
     0
 63
     7
283
     0
 90
      512
 91
        0
  1

274
    -2
284
     1
 64
     0
275
    -2
285
     1
 65
     0
276
    -2
286
     1
 66
     0
277
    -2
287
     1
 67
     0
278
    -2
288
     1
 68
     0
279
    -2
289
     1
 69
     0
  0
VISUALSTYLE
  5
2F
102
{ACAD_REACTORS
330
29
102
}
330
29
100
AcDbVisualStyle
  2
2dWireframe
 70
     4
177
     3
291
     0
 70
    58
 90
        0
176
     1
 90
        2
176
     1
 90
        0
176
     1
 90
        0
176
     1
 40
0.6
176
     1
 40
30.0
176
     1
 62
     7
420
 16777215
176
     1
 90
        1
176
     1
 90
        4
176
     1
 62
     7
176
     1
 62
   257
176
     1
 90
        1
176
     1
 90
        1
176
     1
 40
1.0
176
     1
 90
        0
176
     1
 62
   257
176
     1
 40
1.0
176
     1
 90
        1
176
     1
 90
        6
176
     1
 90
        2
176
     1
 62
     7
176
     1
 90
        5
176
     1
 90
        0
176
     1
 90
        0
176
     1
290
     0
176
     1
 90
        1
176
     1
 40
0.0
176
     1
 90
        0
176
     1
290
     1
176
     1
290
     1
176
     1
290
     0
176
     1
290
     0
176
     1
290
     0
176
     1
290
     0
176
     1
290
     0
176
     1
290
     0
176
     1
290
     0
176
     1
 90
       50
176
     1
 40
0.0
176
     1
 40
1.0
176
     1
 90
        0
176
     1
 62
    18
420
        0
176
     1
 90
       50
176
     1
 90
        3
176
     1
 62
     5
420
      255
176
     1
290
     0
176
     1
 90
       50
176
     1
 90
       50
176
     1
 90
       50
176
     1
290
     0
176
     1
 90
       50
176
     1
 62
   256
176
     0
 40
1.0
176
     0
 90
        2
176
     1
  1
strokes_ogs.tif
176
     1
290
     0
176
     1
 40
1.0
176
     1
 40
1.0
176
     1
1001
ACAD
1000
AcDbSavedByObjectVersion
1070
     0
  0
VISUALSTYLE
  5
2E
102
{ACAD_REACTORS
330
29
102
}
330
29
100
AcDbVisualStyle
  2
Basic
 70
     7
177
     3
291
     1
 70
    58
 90
        1
176
     1
 90
        0
176
     1
 90
        1
176
     1
 90
        0
176
     1
 40
0.6
176
     1
 40
30.0
176
     1
 62
     7
420
 16777215
176
     1
 90
        0
176
     1
 90
        4
176
     1
 62
     7
176
     1
 62
   257
176
     1
 90
        1
176
     1
 90
        1
176
     1
 40
1.0
176
     1
 90
        8
176
     1
 62
     7
176
     1
 40
1.0
176
     1
 90
        1
176
     1
 90
        6
176
     1
 90
        2
176
     1
 62
     7
176
     1
 90
        5
176
     1
 90
        0
176
     1
 90
        0
176
     1
290
     0
176
     1
 90
        1
176
     1
 40
0.0
176
     1
 90
        0
176
     1
290
     0
176
     1
290
     1
176
     1
290
     1
176
     1
290
     0
176
     1
290
     0
176
     1
290
     0
176
     1
290
     0
176
     1
290
     0
176
     1
290
     0
176
     1
 90
       50
176
     1
 40
0.0
176
     1
 40
1.0
176
     1
 90
        0
176
     1
 62
    18
420
        0
176
     1
 90
       50
176
     1
 90
        3
176
     1
 62
     5
420
      255
176
     1
290
     0
176
     1
 90
       50
176
     1
 90
       50
176
     1
 90
       50
176
     1
290
     0
176
     1
 90
       50
176
     1
 62
   256
176
     0
 40
1.0
176
     0
 90
        2
176
     1
  1
strokes_ogs.tif
176
     1
290
     0
176
     1
 40
1.0
176
     1
 40
1.0
176
     1
1001
ACAD
1000
AcDbSavedByObjectVersion
1070
     0
  0
VISUALSTYLE
  5
35
102
{ACAD_REACTORS
330
29
102
}
330
29
100
AcDbVisualStyle
  2
Brighten
 70
    12
177
     3
291
     1
 70
    58
 90
        2
176
     1
 90
        2
176
     1
 90
        0
176
     1
 90
        0
176
     1
 40
0.6
176
     1
 40
30.0
176
     1
 62
     7
420
 16777215
176
     1
 90
        1
176
     1
 90
        4
176
     1
 62
     7
176
     1
 62
   257
176
     1
 90
        1
176
     1
 90
        1
176
     1
 40
1.0
176
     1
 90
        8
176
     1
 62
     7
176
     1
 40
1.0
176
     1
 90
        1
176
     1
 90
        6
176
     1
 90
        2
176
     1
 62
     7
176
     1
 90
        5
176
     1
 90
        0
176
     1
 90
        0
176
     1
290
     0
176
     1
 90
        1
176
     1
 40
50.0
176
     1
 90
        0
176
     1
290
     0
176
     1
290
     1
176
     1
290
     1
176
     1
290
     0
176
     1
290
     0
176
     1
290
     0
176
     1
290
     0
176
     1
290
     0
176
     1
290
     0
176
     1
 90
       50
176
     1
 40
0.0
176
     1
 40
1.0
176
     1
 90
        0
176
     1
 62
    18
420
        0
176
     1
 90
       50
176
     1
 90
        3
176
     1
 62
     5
420
      255
176
     1
290
     0
176
     1
 90
       50
176
     1
 90
       50
176
     1
 90
       50
176
     1
290
     0
176
     1
 90
       50
176
     1
 62
   256
176
     0
 40
1.0
176
     0
 90
        2
176
     1
  1
strokes_ogs.tif
176
     1
290
     0
176
     1
 40
1.0
176
     1
 40
1.0
176
     1
1001
ACAD
1000
AcDbSavedByObjectVersion
1070
     0
  0
VISUALSTYLE
  5
39
102
{ACAD_REACTORS
330
29
102
}
330
29
100
AcDbVisualStyle
  2
ColorChange
 70
    16
177
     3
291
     1
 70
    58
 90
        2
176
     1
 90
        2
176
     1
 90
        3
176
     1
 90
        0
176
     1
 40
0.6
176
     1
 40
30.0
176
     1
 62
     8
420
  8421504
176
     1
 90
        1
176
     1
 90
        4
176
     1
 62
     7
176
     1
 62
   257
176
     1
 90
        1
176
     1
 90
        1
176
     1
 40
1.0
176
     1
 90
        8
176
     1
 62
     8
420
  8421504
176
     1
 40
1.0
176
     1
 90
        1
176
     1
 90
        6
176
     1
 90
        2
176
     1
 62
     7
176
     1
 90
        5
176
     1
 90
        0
176
     1
 90
        0
176
     1
290
     0
176
     1
 90
        1
176
     1
 40
0.0
176
     1
 90
        0
176
     1
290
     0
176
     1
290
     1
176
     1
290
     1
176
     1
290
     0
176
     1
290
     0
176
     1
290
     0
176
     1
290
     0
176
     1
290
     0
176
     1
290
     0
176
     1
 90
       50
176
     1
 40
0.0
176
     1
 40
1.0
176
     1
 90
        0
176
     1
 62
    18
420
        0
176
     1
 90
       50
176
     1
 90
        3
176
     1
 62
     5
420
      255
176
     1
290
     0
176
     1
 90
       50
176
     1
 90
       50
176
     1
 90
       50
176
     1
290
     0
176
     1
 90
       50
176
     1
 62
   256
176
     0
 40
1.0
176
     0
 90
        2
176
     1
  1
strokes_ogs.tif
176
     1
290
     0
176
     1
 40
1.0
176
     1
 40
1.0
176
     1
1001
ACAD
1000
AcDbSavedByObjectVersion
1070
     0
  0
VISUALSTYLE
  5
32
102
{ACAD_REACTORS
330
29
102
}
330
29
100
AcDbVisualStyle
  2
Conceptual
 70
     9
177
     3
291
     0
 70
    58
 90
        3
176
     1
 90
        2
176
     1
 90
        0
176
     1
 90
        0
176
     1
 40
0.6
176
     1
 40
30.0
176
     1
 62
     7
420
 16777215
176
     1
 90
        2
176
     1
 90
        2
176
     1
 62
     7
176
     1
 62
   257
176
     1
 90
        1
176
     1
 90
        1
176
     1
 40
179.0
176
     1
 90
        8
176
     1
 62
     7
176
     1
 40
1.0
176
     1
 90
        1
176
     1
 90
        6
176
     1
 90
        2
176
     1
 62
     7
176
     1
 90
        3
176
     1
 90
        0
176
     1
 90
        0
176
     1
290
     0
176
     1
 90
        1
176
     1
 40
0.0
176
     1
 90
        0
176
     1
290
     0
176
     1
290
     1
176
     1
290
     1
176
     1
290
     0
176
     1
290
     0
176
     1
290
     0
176
     1
290
     0
176
     1
290
     0
176
     1
290
     0
176
     1
 90
       50
176
     1
 40
0.0
176
     1
 40
1.0
176
     1
 90
        0
176
     1
 62
    18
420
        0
176
     1
 90
       50
176
     1
 90
        3
176
     1
 62
     5
420
      255
176
     1
290
     0
176
     1
 90
       50
176
     1
 90
       50
176
     1
 90
       50
176
     1
290
     0
176
     1
 90
       50
176
     1
 62
   256
176
     0
 40
1.0
176
     0
 90
        2
176
     1
  1
strokes_ogs.tif
176
     1
290
     0
176
     1
 40
1.0
176
     1
 40
1.0
176
     1
1001
ACAD
1000
AcDbSavedByObjectVersion
1070
     0
  0
VISUALSTYLE
  5
34
102
{ACAD_REACTORS
330
29
102
}
330
29
100
AcDbVisualStyle
  2
Dim
 70
    11
177
     3
291
     1
 70
    58
 90
        2
176
     1
 90
        2
176
     1
 90
        0
176
     1
 90
        0
176
     1
 40
0.6
176
     1
 40
30.0
176
     1
 62
     7
420
 16777215
176
     1
 90
        1
176
     1
 90
        4
176
     1
 62
     7
176
     1
 62
   257
176
     1
 90
        1
176
     1
 90
        1
176
     1
 40
1.0
176
     1
 90
        8
176
     1
 62
     7
176
     1
 40
1.0
176
     1
 90
        1
176
     1
 90
        6
176
     1
 90
        2
176
     1
 62
     7
176
     1
 90
        5
176
     1
 90
        0
176
     1
 90
        0
176
     1
290
     0
176
     1
 90
        1
176
     1
 40
-50.0
176
     1
 90
        0
176
     1
290
     0
176
     1
290
     1
176
     1
290
     1
176
     1
290
     0
176
     1
290
     0
176
     1
290
     0
176
     1
290
     0
176
     1
290
     0
176
     1
290
     0
176
     1
 90
       50
176
     1
 40
0.0
176
     1
 40
1.0
176
     1
 90
        0
176
     1
 62
    18
420
        0
176
     1
 90
       50
176
     1
 90
        3
176
     1
 62
     5
420
      255
176
     1
290
     0
176
     1
 90
       50
176
     1
 90
       50
176
     1
 90
       50
176
     1
290
     0
176
     1
 90
       50
176
     1
 62
   256
176
     0
 40
1.0
176
     0
 90
        2
176
     1
  1
strokes_ogs.tif
176
     1
290
     0
176
     1
 40
1.0
176
     1
 40
1.0
176
     1
1001
ACAD
1000
AcDbSavedByObjectVersion
1070
     0
  0
VISUALSTYLE
  5
41
102
{ACAD_REACTORS
330
29
102
}
330
29
100
AcDbVisualStyle
  2
EdgeColorOff
 70
    22
177
     3
291
     1
 70
    58
 90
        2
176
     0
 90
        2
176
     0
 90
        0
176
     0
 90
        0
176
     0
 40
0.6
176
     0
 40
30.0
176
     0
 62
     7
420
 16777215
176
     0
 90
        1
176
     0
 90
        4
176
     0
 62
     7
176
     0
 62
   257
176
     0
 90
        1
176
     0
 90
        1
176
     0
 40
1.0
176
     0
 90
        8
176
     2
 62
     7
176
     0
 40
1.0
176
     0
 90
        1
176
     0
 90
        6
176
     0
 90
        2
176
     0
 62
     7
176
     0
 90
        5
176
     0
 90
        0
176
     0
 90
        0
176
     0
290
     0
176
     0
 90
        1
176
     0
 40
0.0
176
     0
 90
        0
176
     0
290
     0
176
     0
290
     1
176
     0
290
     1
176
     0
290
     0
176
     0
290
     0
176
     0
290
     0
176
     0
290
     0
176
     0
290
     0
176
     0
290
     0
176
     0
 90
       50
176
     0
 40
0.0
176
     0
 40
1.0
176
     0
 90
        0
176
     0
 62
    18
420
        0
176
     0
 90
       50
176
     0
 90
        3
176
     0
 62
     5
420
      255
176
     0
290
     0
176
     0
 90
       50
176
     0
 90
       50
176
     0
 90
       50
176
     0
290
     0
176
     0
 90
       50
176
     0
 62
   256
176
     0
 40
1.0
176
     0
 90
        2
176
     0
  1
strokes_ogs.tif
176
     0
290
     0
176
     0
 40
1.0
176
     0
 40
1.0
176
     0
1001
ACAD
1000
AcDbSavedByObjectVersion
1070
     0
  0
VISUALSTYLE
  5
38
102
{ACAD_REACTORS
330
29
102
}
330
29
100
AcDbVisualStyle
  2
Facepattern
 70
    15
177
     3
291
     1
 70
    58
 90
        2
176
     1
 90
        2
176
     1
 90
        0
176
     1
 90
        0
176
     1
 40
0.6
176
     1
 40
30.0
176
     1
 62
     7
420
 16777215
176
     1
 90
        1
176
     1
 90
        4
176
     1
 62
     7
176
     1
 62
   257
176
     1
 90
        1
176
     1
 90
        1
176
     1
 40
1.0
176
     1
 90
        8
176
     1
 62
     7
176
     1
 40
1.0
176
     1
 90
        1
176
     1
 90
        6
176
     1
 90
        2
176
     1
 62
     7
176
     1
 90
        5
176
     1
 90
        0
176
     1
 90
        0
176
     1
290
     0
176
     1
 90
        1
176
     1
 40
0.0
176
     1
 90
        0
176
     1
290
     0
176
     1
290
     1
176
     1
290
     1
176
     1
290
     0
176
     1
290
     0
176
     1
290
     0
176
     1
290
     0
176
     1
290
     0
176
     1
290
     0
176
     1
 90
       50
176
     1
 40
0.0
176
     1
 40
1.0
176
     1
 90
        0
176
     1
 62
    18
420
        0
176
     1
 90
       50
176
     1
 90
        3
176
     1
 62
     5
420
      255
176
     1
290
     0
176
     1
 90
       50
176
     1
 90
       50
176
     1
 90
       50
176
     1
290
     0
176
     1
 90
       50
176
     1
 62
   256
176
     0
 40
1.0
176
     0
 90
        2
176
     1
  1
strokes_ogs.tif
176
     1
290
     0
176
     1
 40
1.0
176
     1
 40
1.0
176
     1
1001
ACAD
1000
AcDbSavedByObjectVersion
1070
     0
  0
VISUALSTYLE
  5
2A
102
{ACAD_REACTORS
330
29
102
}
330
29
100
AcDbVisualStyle
  2
Flat
 70
     0
177
     3
291
     1
 70
    58
 90
        2
176
     1
 90
        1
176
     1
 90
        1
176
     1
 90
        2
176
     1
 40
0.6
176
     1
 40
30.0
176
     1
 62
     7
420
 16777215
176
     1
 90
        0
176
     1
 90
        0
176
     1
 62
     7
176
     1
 62
   257
176
     1
 90
        1
176
     1
 90
        1
176
     1
 40
1.0
176
     1
 90
        8
176
     1
 62
     7
176
     1
 40
1.0
176
     1
 90
        1
176
     1
 90
        6
176
     1
 90
        2
176
     1
 62
     7
176
     1
 90
        5
176
     1
 90
        0
176
     1
 90
        0
176
     1
290
     0
176
     1
 90
       13
176
     1
 40
0.0
176
     1
 90
        0
176
     1
290
     0
176
     1
290
     1
176
     1
290
     1
176
     1
290
     0
176
     1
290
     0
176
     1
290
     0
176
     1
290
     0
176
     1
290
     0
176
     1
290
     0
176
     1
 90
       50
176
     1
 40
0.0
176
     1
 40
1.0
176
     1
 90
        0
176
     1
 62
    18
420
        0
176
     1
 90
       50
176
     1
 90
        3
176
     1
 62
     5
420
      255
176
     1
290
     0
176
     1
 90
       50
176
     1
 90
       50
176
     1
 90
       50
176
     1
290
     0
176
     1
 90
       50
176
     1
 62
   256
176
     0
 40
1.0
176
     0
 90
        2
176
     1
  1
strokes_ogs.tif
176
     1
290
     0
176
     1
 40
1.0
176
     1
 40
1.0
176
     1
1001
ACAD
1000
AcDbSavedByObjectVersion
1070
     0
  0
VISUALSTYLE
  5
2B
102
{ACAD_REACTORS
330
29
102
}
330
29
100
AcDbVisualStyle
  2
FlatWithEdges
 70
     1
177
     3
291
     1
 70
    58
 90
        2
176
     1
 90
        1
176
     1
 90
        1
176
     1
 90
        2
176
     1
 40
0.6
176
     1
 40
30.0
176
     1
 62
     7
420
 16777215
176
     1
 90
        1
176
     1
 90
        0
176
     1
 62
     7
176
     1
 62
   257
176
     1
 90
        1
176
     1
 90
        1
176
     1
 40
1.0
176
     1
 90
        0
176
     1
 62
   257
176
     1
 40
1.0
176
     1
 90
        1
176
     1
 90
        6
176
     1
 90
        2
176
     1
 62
     7
176
     1
 90
        5
176
     1
 90
        0
176
     1
 90
        0
176
     1
290
     0
176
     1
 90
       13
176
     1
 40
0.0
176
     1
 90
        0
176
     1
290
     0
176
     1
290
     1
176
     1
290
     1
176
     1
290
     0
176
     1
290
     0
176
     1
290
     0
176
     1
290
     0
176
     1
290
     0
176
     1
290
     0
176
     1
 90
       50
176
     1
 40
0.0
176
     1
 40
1.0
176
     1
 90
        0
176
     1
 62
    18
420
        0
176
     1
 90
       50
176
     1
 90
        3
176
     1
 62
     5
420
      255
176
     1
290
     0
176
     1
 90
       50
176
     1
 90
       50
176
     1
 90
       50
176
     1
290
     0
176
     1
 90
       50
176
     1
 62
   256
176
     0
 40
1.0
176
     0
 90
        2
176
     1
  1
strokes_ogs.tif
176
     1
290
     0
176
     1
 40
1.0
176
     1
 40
1.0
176
     1
1001
ACAD
1000
AcDbSavedByObjectVersion
1070
     0
  0
VISUALSTYLE
  5
2C
102
{ACAD_REACTORS
330
29
102
}
330
29
100
AcDbVisualStyle
  2
Gouraud
 70
     2
177
     3
291
     1
 70
    58
 90
        2
176
     1
 90
        2
176
     1
 90
        1
176
     1
 90
        2
176
     1
 40
0.6
176
     1
 40
30.0
176
     1
 62
     7
420
 16777215
176
     1
 90
        0
176
     1
 90
        0
176
     1
 62
     7
176
     1
 62
   257
176
     1
 90
        1
176
     1
 90
        1
176
     1
 40
1.0
176
     1
 90
        0
176
     1
 62
     7
176
     1
 40
1.0
176
     1
 90
        1
176
     1
 90
        6
176
     1
 90
        2
176
     1
 62
     7
176
     1
 90
        5
176
     1
 90
        0
176
     1
 90
        0
176
     1
290
     0
176
     1
 90
       13
176
     1
 40
0.0
176
     1
 90
        0
176
     1
290
     0
176
     1
290
     1
176
     1
290
     1
176
     1
290
     0
176
     1
290
     0
176
     1
290
     0
176
     1
290
     0
176
     1
290
     0
176
     1
290
     0
176
     1
 90
       50
176
     1
 40
0.0
176
     1
 40
1.0
176
     1
 90
        0
176
     1
 62
    18
420
        0
176
     1
 90
       50
176
     1
 90
        3
176
     1
 62
     5
420
      255
176
     1
290
     0
176
     1
 90
       50
176
     1
 90
       50
176
     1
 90
       50
176
     1
290
     0
176
     1
 90
       50
176
     1
 62
   256
176
     0
 40
1.0
176
     0
 90
        2
176
     1
  1
strokes_ogs.tif
176
     1
290
     0
176
     1
 40
1.0
176
     1
 40
1.0
176
     1
1001
ACAD
1000
AcDbSavedByObjectVersion
1070
     0
  0
VISUALSTYLE
  5
2D
102
{ACAD_REACTORS
330
29
102
}
330
29
100
AcDbVisualStyle
  2
GouraudWithEdges
 70
     3
177
     3
291
     1
 70
    58
 90
        2
176
     1
 90
        2
176
     1
 90
        1
176
     1
 90
        2
176
     1
 40
0.6
176
     1
 40
30.0
176
     1
 62
     7
420
 16777215
176
     1
 90
        1
176
     1
 90
        0
176
     1
 62
     7
176
     1
 62
   257
176
     1
 90
        1
176
     1
 90
        1
176
     1
 40
1.0
176
     1
 90
        0
176
     1
 62
   257
176
     1
 40
1.0
176
     1
 90
        1
176
     1
 90
        6
176
     1
 90
        2
176
     1
 62
     7
176
     1
 90
        5
176
     1
 90
        0
176
     1
 90
        0
176
     1
290
     0
176
     1
 90
       13
176
     1
 40
0.0
176
     1
 90
        0
176
     1
290
     0
176
     1
290
     1
176
     1
290
     1
176
     1
290
     0
176
     1
290
     0
176
     1
290
     0
176
     1
290
     0
176
     1
290
     0
176
     1
290
     0
176
     1
 90
       50
176
     1
 40
0.0
176
     1
 40
1.0
176
     1
 90
        0
176
     1
 62
    18
420
        0
176
     1
 90
       50
176
     1
 90
        3
176
     1
 62
     5
420
      255
176
     1
290
     0
176
     1
 90
       50
176
     1
 90
       50
176
     1
 90
       50
176
     1
290
     0
176
     1
 90
       50
176
     1
 62
   256
176
     0
 40
1.0
176
     0
 90
        2
176
     1
  1
strokes_ogs.tif
176
     1
290
     0
176
     1
 40
1.0
176
     1
 40
1.0
176
     1
1001
ACAD
1000
AcDbSavedByObjectVersion
1070
     0
  0
VISUALSTYLE
  5
31
102
{ACAD_REACTORS
330
29
102
}
330
29
100
AcDbVisualStyle
  2
Hidden
 70
     6
177
     3
291
     0
 70
    58
 90
        1
176
     1
 90
        2
176
     1
 90
        2
176
     1
 90
        0
176
     1
 40
0.6
176
     1
 40
30.0
176
     1
 62
     7
420
 16777215
176
     1
 90
        2
176
     1
 90
        2
176
     1
 62
     7
176
     1
 62
   257
176
     1
 90
        2
176
     1
 90
        1
176
     1
 40
40.0
176
     1
 90
        0
176
     1
 62
   257
176
     1
 40
1.0
176
     1
 90
        1
176
     1
 90
        6
176
     1
 90
        2
176
     1
 62
     7
176
     1
 90
        3
176
     1
 90
        0
176
     1
 90
        0
176
     1
290
     0
176
     1
 90
        1
176
     1
 40
0.0
176
     1
 90
        0
176
     1
290
     0
176
     1
290
     1
176
     1
290
     1
176
     1
290
     0
176
     1
290
     0
176
     1
290
     0
176
     1
290
     0
176
     1
290
     0
176
     1
290
     0
176
     1
 90
       50
176
     1
 40
0.0
176
     1
 40
1.0
176
     1
 90
        0
176
     1
 62
    18
420
        0
176
     1
 90
       50
176
     1
 90
        3
176
     1
 62
     5
420
      255
176
     1
290
     0
176
     1
 90
       50
176
     1
 90
       50
176
     1
 90
       50
176
     1
290
     0
176
     1
 90
       50
176
     1
 62
   256
176
     0
 40
1.0
176
     0
 90
        2
176
     1
  1
strokes_ogs.tif
176
     1
290
     0
176
     1
 40
1.0
176
     1
 40
1.0
176
     1
1001
ACAD
1000
AcDbSavedByObjectVersion
1070
     0
  0
VISUALSTYLE
  5
3F
102
{ACAD_REACTORS
330
29
102
}
330
29
100
AcDbVisualStyle
  2
JitterOff
 70
    20
177
     3
291
     1
 70
    58
 90
        2
176
     0
 90
        2
176
     0
 90
        0
176
     0
 90
        0
176
     0
 40
0.6
176
     0
 40
30.0
176
     0
 62
     7
420
 16777215
176
     0
 90
        1
176
     0
 90
        4
176
     0
 62
     7
176
     0
 62
   257
176
     0
 90
        1
176
     0
 90
        1
176
     0
 40
1.0
176
     0
 90
       10
176
     2
 62
     7
176
     0
 40
1.0
176
     0
 90
        1
176
     0
 90
        6
176
     0
 90
        2
176
     0
 62
     7
176
     0
 90
        5
176
     0
 90
        0
176
     0
 90
        0
176
     0
290
     0
176
     0
 90
        1
176
     0
 40
0.0
176
     0
 90
        0
176
     0
290
     0
176
     0
290
     1
176
     0
290
     1
176
     0
290
     0
176
     0
290
     0
176
     0
290
     0
176
     0
290
     0
176
     0
290
     0
176
     0
290
     0
176
     0
 90
       50
176
     0
 40
0.0
176
     0
 40
1.0
176
     0
 90
        0
176
     0
 62
    18
420
        0
176
     0
 90
       50
176
     0
 90
        3
176
     0
 62
     5
420
      255
176
     0
290
     0
176
     0
 90
       50
176
     0
 90
       50
176
     0
 90
       50
176
     0
290
     0
176
     0
 90
       50
176
     0
 62
   256
176
     0
 40
1.0
176
     0
 90
        2
176
     0
  1
strokes_ogs.tif
176
     0
290
     0
176
     0
 40
1.0
176
     0
 40
1.0
176
     0
1001
ACAD
1000
AcDbSavedByObjectVersion
1070
     0
  0
VISUALSTYLE
  5
37
102
{ACAD_REACTORS
330
29
102
}
330
29
100
AcDbVisualStyle
  2
Linepattern
 70
    14
177
     3
291
     1
 70
    58
 90
        2
176
     1
 90
        2
176
     1
 90
        0
176
     1
 90
        0
176
     1
 40
0.6
176
     1
 40
30.0
176
     1
 62
     7
420
 16777215
176
     1
 90
        1
176
     1
 90
        4
176
     1
 62
     7
176
     1
 62
   257
176
     1
 90
        7
176
     1
 90
        7
176
     1
 40
1.0
176
     1
 90
        8
176
     1
 62
     7
176
     1
 40
1.0
176
     1
 90
        1
176
     1
 90
        6
176
     1
 90
        2
176
     1
 62
     7
176
     1
 90
        5
176
     1
 90
        0
176
     1
 90
        0
176
     1
290
     0
176
     1
 90
        1
176
     1
 40
0.0
176
     1
 90
        0
176
     1
290
     0
176
     1
290
     1
176
     1
290
     1
176
     1
290
     0
176
     1
290
     0
176
     1
290
     0
176
     1
290
     0
176
     1
290
     0
176
     1
290
     0
176
     1
 90
       50
176
     1
 40
0.0
176
     1
 40
1.0
176
     1
 90
        0
176
     1
 62
    18
420
        0
176
     1
 90
       50
176
     1
 90
        3
176
     1
 62
     5
420
      255
176
     1
290
     0
176
     1
 90
       50
176
     1
 90
       50
176
     1
 90
       50
176
     1
290
     0
176
     1
 90
       50
176
     1
 62
   256
176
     0
 40
1.0
176
     0
 90
        2
176
     1
  1
strokes_ogs.tif
176
     1
290
     0
176
     1
 40
1.0
176
     1
 40
1.0
176
     1
1001
ACAD
1000
AcDbSavedByObjectVersion
1070
     0
  0
VISUALSTYLE
  5
40
102
{ACAD_REACTORS
330
29
102
}
330
29
100
AcDbVisualStyle
  2
OverhangOff
 70
    21
177
     3
291
     1
 70
    58
 90
        2
176
     0
 90
        2
176
     0
 90
        0
176
     0
 90
        0
176
     0
 40
0.6
176
     0
 40
30.0
176
     0
 62
     7
420
 16777215
176
     0
 90
        1
176
     0
 90
        4
176
     0
 62
     7
176
     0
 62
   257
176
     0
 90
        1
176
     0
 90
        1
176
     0
 40
1.0
176
     0
 90
        9
176
     2
 62
     7
176
     0
 40
1.0
176
     0
 90
        1
176
     0
 90
        6
176
     0
 90
        2
176
     0
 62
     7
176
     0
 90
        5
176
     0
 90
        0
176
     0
 90
        0
176
     0
290
     0
176
     0
 90
        1
176
     0
 40
0.0
176
     0
 90
        0
176
     0
290
     0
176
     0
290
     1
176
     0
290
     1
176
     0
290
     0
176
     0
290
     0
176
     0
290
     0
176
     0
290
     0
176
     0
290
     0
176
     0
290
     0
176
     0
 90
       50
176
     0
 40
0.0
176
     0
 40
1.0
176
     0
 90
        0
176
     0
 62
    18
420
        0
176
     0
 90
       50
176
     0
 90
        3
176
     0
 62
     5
420
      255
176
     0
290
     0
176
     0
 90
       50
176
     0
 90
       50
176
     0
 90
       50
176
     0
290
     0
176
     0
 90
       50
176
     0
 62
   256
176
     0
 40
1.0
176
     0
 90
        2
176
     0
  1
strokes_ogs.tif
176
     0
290
     0
176
     0
 40
1.0
176
     0
 40
1.0
176
     0
1001
ACAD
1000
AcDbSavedByObjectVersion
1070
     0
  0
VISUALSTYLE
  5
33
102
{ACAD_REACTORS
330
29
102
}
330
29
100
AcDbVisualStyle
  2
Realistic
 70
     8
177
     3
291
     0
 70
    58
 90
        2
176
     1
 90
        3
176
     1
 90
        0
176
     1
 90
        2
176
     1
 40
0.6
176
     1
 40
30.0
176
     1
 62
     7
420
 16777215
176
     1
 90
        0
176
     1
 90
        0
176
     1
 62
     7
176
     1
 62
   257
176
     1
 90
        1
176
     1
 90
        1
176
     1
 40
1.0
176
     1
 90
        8
176
     1
 62
   257
176
     1
 40
1.0
176
     1
 90
        1
176
     1
 90
        6
176
     1
 90
        2
176
     1
 62
     7
176
     1
 90
        3
176
     1
 90
        0
176
     1
 90
        0
176
     1
290
     0
176
     1
 90
       13
176
     1
 40
0.0
176
     1
 90
        0
176
     1
290
     0
176
     1
290
     1
176
     1
290
     1
176
     1
290
     0
176
     1
290
     0
176
     1
290
     0
176
     1
290
     0
176
     1
290
     0
176
     1
290
     0
176
     1
 90
       50
176
     1
 40
0.0
176
     1
 40
1.0
176
     1
 90
        0
176
     1
 62
    18
420
        0
176
     1
 90
       50
176
     1
 90
        3
176
     1
 62
     5
420
      255
176
     1
290
     0
176
     1
 90
       50
176
     1
 90
       50
176
     1
 90
       50
176
     1
290
     0
176
     1
 90
       50
176
     1
 62
   256
176
     0
 40
1.0
176
     0
 90
        2
176
     1
  1
strokes_ogs.tif
176
     1
290
     0
176
     1
 40
1.0
176
     1
 40
1.0
176
     1
1001
ACAD
1000
AcDbSavedByObjectVersion
1070
     0
  0
VISUALSTYLE
  5
3E
102
{ACAD_REACTORS
330
29
102
}
330
29
100
AcDbVisualStyle
  2
Shaded
 70
    27
177
     3
291
     0
 70
    58
 90
        2
176
     1
 90
        2
176
     1
 90
        1
176
     1
 90
        2
176
     1
 40
0.6
176
     1
 40
30.0
176
     1
 62
     7
420
 16777215
176
     1
 90
        0
176
     1
 90
        4
176
     1
 62
     7
176
     1
 62
   257
176
     1
 90
        1
176
     1
 90
        1
176
     1
 40
1.0
176
     1
 90
        8
176
     1
 62
   257
176
     1
 40
1.0
176
     1
 90
        1
176
     1
 90
        6
176
     1
 90
        2
176
     1
 62
     8
420
  7895160
176
     1
 90
        3
176
     1
 90
        0
176
     1
 90
        0
176
     1
290
     0
176
     1
 90
        5
176
     1
 40
0.0
176
     1
 90
        0
176
     1
290
     0
176
     1
290
     1
176
     1
290
     1
176
     1
290
     0
176
     1
290
     0
176
     1
290
     0
176
     1
290
     0
176
     1
290
     0
176
     1
290
     0
176
     1
 90
       50
176
     1
 40
0.0
176
     1
 40
1.0
176
     1
 90
        0
176
     1
 62
    18
420
        0
176
     1
 90
       50
176
     1
 90
        3
176
     1
 62
     5
420
      255
176
     1
290
     0
176
     1
 90
       50
176
     1
 90
       50
176
     1
 90
       50
176
     1
290
     0
176
     1
 90
       50
176
     1
 62
   256
176
     0
 40
1.0
176
     0
 90
        2
176
     1
  1
strokes_ogs.tif
176
     1
290
     0
176
     1
 40
1.0
176
     1
 40
1.0
176
     1
1001
ACAD
1000
AcDbSavedByObjectVersion
1070
     0
  0
VISUALSTYLE
  5
3D
102
{ACAD_REACTORS
330
29
102
}
330
29
100
AcDbVisualStyle
  2
Shaded with edges
 70
    26
177
     3
291
     0
 70
    58
 90
        2
176
     1
 90
        2
176
     1
 90
        1
176
     1
 90
        2
176
     1
 40
0.6
176
     1
 40
30.0
176
     1
 62
     7
420
 16777215
176
     1
 90
        1
176
     1
 90
        2
176
     1
 62
     7
176
     1
 62
   257
176
     1
 90
        2
176
     1
 90
        1
176
     1
 40
1.0
176
     1
 90
        8
176
     1
 62
   257
176
     1
 40
1.0
176
     1
 90
        1
176
     1
 90
        6
176
     1
 90
        2
176
     1
 62
     7
176
     1
 90
        3
176
     1
 90
        0
176
     1
 90
        0
176
     1
290
     0
176
     1
 90
        5
176
     1
 40
0.0
176
     1
 90
        0
176
     1
290
     0
176
     1
290
     1
176
     1
290
     1
176
     1
290
     0
176
     1
290
     0
176
     1
290
     0
176
     1
290
     0
176
     1
290
     0
176
     1
290
     0
176
     1
 90
       50
176
     1
 40
0.0
176
     1
 40
1.0
176
     1
 90
        0
176
     1
 62
    18
420
        0
176
     1
 90
       50
176
     1
 90
        3
176
     1
 62
     5
420
      255
176
     1
290
     0
176
     1
 90
       50
176
     1
 90
       50
176
     1
 90
       50
176
     1
290
     0
176
     1
 90
       50
176
     1
 62
   256
176
     0
 40
1.0
176
     0
 90
        2
176
     1
  1
strokes_ogs.tif
176
     1
290
     0
176
     1
 40
1.0
176
     1
 40
1.0
176
     1
1001
ACAD
1000
AcDbSavedByObjectVersion
1070
     0
  0
VISUALSTYLE
  5
3A
102
{ACAD_REACTORS
330
29
102
}
330
29
100
AcDbVisualStyle
  2
Shades of Gray
 70
    23
177
     3
291
     0
 70
    58
 90
        2
176
     1
 90
        2
176
     1
 90
        3
176
     1
 90
        0
176
     1
 40
0.6
176
     1
 40
30.0
176
     1
 62
     7
420
 16777215
176
     1
 90
        2
176
     1
 90
        2
176
     1
 62
     7
176
     1
 62
     7
176
     1
 90
        1
176
     1
 90
        1
176
     1
 40
40.0
176
     1
 90
        8
176
     1
 62
     7
176
     1
 40
1.0
176
     1
 90
        1
176
     1
 90
        6
176
     1
 90
        2
176
     1
 62
     7
176
     1
 90
        3
176
     1
 90
        0
176
     1
 90
        0
176
     1
290
     0
176
     1
 90
        1
176
     1
 40
0.0
176
     1
 90
        0
176
     1
290
     0
176
     1
290
     1
176
     1
290
     1
176
     1
290
     0
176
     1
290
     0
176
     1
290
     0
176
     1
290
     0
176
     1
290
     0
176
     1
290
     0
176
     1
 90
       50
176
     1
 40
0.0
176
     1
 40
1.0
176
     1
 90
        0
176
     1
 62
    18
420
        0
176
     1
 90
       50
176
     1
 90
        3
176
     1
 62
     5
420
      255
176
     1
290
     0
176
     1
 90
       50
176
     1
 90
       50
176
     1
 90
       50
176
     1
290
     0
176
     1
 90
       50
176
     1
 62
   256
176
     0
 40
1.0
176
     0
 90
        2
176
     1
  1
strokes_ogs.tif
176
     1
290
     0
176
     1
 40
1.0
176
     1
 40
1.0
176
     1
1001
ACAD
1000
AcDbSavedByObjectVersion
1070
     0
  0
VISUALSTYLE
  5
3B
102
{ACAD_REACTORS
330
29
102
}
330
29
100
AcDbVisualStyle
  2
Sketchy
 70
    24
177
     3
291
     0
 70
    58
 90
        1
176
     1
 90
        2
176
     1
 90
        2
176
     1
 90
        0
176
     1
 40
0.6
176
     1
 40
30.0
176
     1
 62
     7
420
 16777215
176
     1
 90
        2
176
     1
 90
        2
176
     1
 62
     7
176
     1
 62
     7
176
     1
 90
        1
176
     1
 90
        1
176
     1
 40
40.0
176
     1
 90
       11
176
     1
 62
     7
176
     1
 40
1.0
176
     1
 90
        1
176
     1
 90
        6
176
     1
 90
        2
176
     1
 62
     7
176
     1
 90
        6
176
     1
 90
        0
176
     1
 90
        0
176
     1
290
     0
176
     1
 90
        1
176
     1
 40
0.0
176
     1
 90
        0
176
     1
290
     0
176
     1
290
     1
176
     1
290
     1
176
     1
290
     0
176
     1
290
     0
176
     1
290
     0
176
     1
290
     0
176
     1
290
     0
176
     1
290
     0
176
     1
 90
       50
176
     1
 40
0.0
176
     1
 40
1.0
176
     1
 90
        0
176
     1
 62
    18
420
        0
176
     1
 90
       50
176
     1
 90
        3
176
     1
 62
     5
420
      255
176
     1
290
     0
176
     1
 90
       50
176
     1
 90
       50
176
     1
 90
       50
176
     1
290
     0
176
     1
 90
       50
176
     1
 62
   256
176
     0
 40
1.0
176
     0
 90
        2
176
     1
  1
strokes_ogs.tif
176
     1
290
     0
176
     1
 40
1.0
176
     1
 40
1.0
176
     1
1001
ACAD
1000
AcDbSavedByObjectVersion
1070
     0
  0
VISUALSTYLE
  5
36
102
{ACAD_REACTORS
330
29
102
}
330
29
100
AcDbVisualStyle
  2
Thicken
 70
    13
177
     3
291
     1
 70
    58
 90
        2
176
     1
 90
        2
176
     1
 90
        0
176
     1
 90
        0
176
     1
 40
0.6
176
     1
 40
30.0
176
     1
 62
     7
420
 16777215
176
     1
 90
        1
176
     1
 90
        4
176
     1
 62
     7
176
     1
 62
   257
176
     1
 90
        1
176
     1
 90
        1
176
     1
 40
1.0
176
     1
 90
       12
176
     1
 62
     7
176
     1
 40
1.0
176
     1
 90
        1
176
     1
 90
        6
176
     1
 90
        2
176
     1
 62
     7
176
     1
 90
        5
176
     1
 90
        0
176
     1
 90
        0
176
     1
290
     0
176
     1
 90
        1
176
     1
 40
0.0
176
     1
 90
        0
176
     1
290
     0
176
     1
290
     1
176
     1
290
     1
176
     1
290
     0
176
     1
290
     0
176
     1
290
     0
176
     1
290
     0
176
     1
290
     0
176
     1
290
     0
176
     1
 90
       50
176
     1
 40
0.0
176
     1
 40
1.0
176
     1
 90
        0
176
     1
 62
    18
420
        0
176
     1
 90
       50
176
     1
 90
        3
176
     1
 62
     5
420
      255
176
     1
290
     0
176
     1
 90
       50
176
     1
 90
       50
176
     1
 90
       50
176
     1
290
     0
176
     1
 90
       50
176
     1
 62
   256
176
     0
 40
1.0
176
     0
 90
        2
176
     1
  1
strokes_ogs.tif
176
     1
290
     0
176
     1
 40
1.0
176
     1
 40
1.0
176
     1
1001
ACAD
1000
AcDbSavedByObjectVersion
1070
     0
  0
VISUALSTYLE
  5
30
102
{ACAD_REACTORS
330
29
102
}
330
29
100
AcDbVisualStyle
  2
Wireframe
 70
     5
177
     3
291
     0
 70
    58
 90
        0
176
     1
 90
        2
176
     1
 90
        0
176
     1
 90
        0
176
     1
 40
0.6
176
     1
 40
30.0
176
     1
 62
     7
420
 16777215
176
     1
 90
        1
176
     1
 90
        4
176
     1
 62
     7
176
     1
 62
   257
176
     1
 90
        1
176
     1
 90
        1
176
     1
 40
1.0
176
     1
 90
        0
176
     1
 62
   257
176
     1
 40
1.0
176
     1
 90
        1
176
     1
 90
        6
176
     1
 90
        2
176
     1
 62
     7
176
     1
 90
        3
176
     1
 90
        0
176
     1
 90
        0
176
     1
290
     0
176
     1
 90
        1
176
     1
 40
0.0
176
     1
 90
        0
176
     1
290
     0
176
     1
290
     1
176
     1
290
     1
176
     1
290
     0
176
     1
290
     0
176
     1
290
     0
176
     1
290
     0
176
     1
290
     0
176
     1
290
     0
176
     1
 90
       50
176
     1
 40
0.0
176
     1
 40
1.0
176
     1
 90
        0
176
     1
 62
    18
420
        0
176
     1
 90
       50
176
     1
 90
        3
176
     1
 62
     5
420
      255
176
     1
290
     0
176
     1
 90
       50
176
     1
 90
       50
176
     1
 90
       50
176
     1
290
     0
176
     1
 90
       50
176
     1
 62
   256
176
     0
 40
1.0
176
     0
 90
        2
176
     1
  1
strokes_ogs.tif
176
     1
290
     0
176
     1
 40
1.0
176
     1
 40
1.0
176
     1
1001
ACAD
1000
AcDbSavedByObjectVersion
1070
     0
  0
VISUALSTYLE
  5
3C
102
{ACAD_REACTORS
330
29
102
}
330
29
100
AcDbVisualStyle
  2
X-Ray
 70
    25
177
     3
291
     0
 70
    58
 90
        2
176
     1
 90
        2
176
     1
 90
        1
176
     1
 90
        1
176
     1
 40
0.5
176
     1
 40
30.0
176
     1
 62
     7
420
 16777215
176
     1
 90
        1
176
     1
 90
        0
176
     1
 62
     7
176
     1
 62
   257
176
     1
 90
        1
176
     1
 90
        1
176
     1
 40
1.0
176
     1
 90
        8
176
     1
 62
     7
176
     1
 40
1.0
176
     1
 90
        1
176
     1
 90
        6
176
     1
 90
        2
176
     1
 62
     7
176
     1
 90
        3
176
     1
 90
        0
176
     1
 90
        0
176
     1
290
     0
176
     1
 90
       13
176
     1
 40
0.0
176
     1
 90
        0
176
     1
290
     0
176
     1
290
     1
176
     1
290
     1
176
     1
290
     0
176
     1
290
     0
176
     1
290
     0
176
     1
290
     0
176
     1
290
     0
176
     1
290
     0
176
     1
 90
       50
176
     1
 40
0.0
176
     1
 40
1.0
176
     1
 90
        0
176
     1
 62
    18
420
        0
176
     1
 90
       50
176
     1
 90
        3
176
     1
 62
     5
420
      255
176
     1
290
     0
176
     1
 90
       50
176
     1
 90
       50
176
     1
 90
       50
176
     1
290
     0
176
     1
 90
       50
176
     1
 62
   256
176
     0
 40
1.0
176
     0
 90
        2
176
     1
  1
strokes_ogs.tif
176
     1
290
     0
176
     1
 40
1.0
176
     1
 40
1.0
176
     1
1001
ACAD
1000
AcDbSavedByObjectVersion
1070
     0
  0
DICTIONARYVAR
  5
14E
102
{ACAD_REACTORS
330
149
102
}
330
149
100
DictionaryVariables
280
     0
  1
1:1
  0
DICTIONARYVAR
  5
14B
102
{ACAD_REACTORS
330
149
102
}
330
149
100
DictionaryVariables
280
     0
  1
STANDARD
  0
DICTIONARYVAR
  5
14A
102
{ACAD_REACTORS
330
149
102
}
330
149
100
DictionaryVariables
280
     0
  1
STANDARD
  0
DICTIONARYVAR
  5
14C
102
{ACAD_REACTORS
330
149
102
}
330
149
100
DictionaryVariables
280
     0
  1
Imperial24
  0
DICTIONARYVAR
  5
14D
102
{ACAD_REACTORS
330
149
102
}
330
149
100
DictionaryVariables
280
     0
  1
Imperial24
  0
DICTIONARY
  5
156
330
6B
100
AcDbDictionary
280
     1
281
     1
  3
ACAD_XREC_ROUNDTRIP
360
157
  0
DICTIONARY
  5
1A
330
19
100
AcDbDictionary
280
     1
281
     1
  3
BUMPTILE
360
1C
  3
DIFFUSETILE
360
1B
  3
OPACITYTILE
360
1F
  3
REFLECTIONTILE
360
1E
  3
REFRACTIONTILE
360
20
  3
SPECULARTILE
360
1D
  0
DICTIONARY
  5
12
330
11
100
AcDbDictionary
280
     1
281
     1
  3
BUMPTILE
360
14
  3
DIFFUSETILE
360
13
  3
OPACITYTILE
360
17
  3
REFLECTIONTILE
360
16
  3
REFRACTIONTILE
360
18
  3
SPECULARTILE
360
15
  0
DICTIONARY
  5
22
330
21
100
AcDbDictionary
280
     1
281
     1
  3
BUMPTILE
360
24
  3
DIFFUSETILE
360
23
  3
OPACITYTILE
360
27
  3
REFLECTIONTILE
360
26
  3
REFRACTIONTILE
360
28
  3
SPECULARTILE
360
25
  0
DICTIONARY
  5
154
330
69
100
AcDbDictionary
280
     1
281
     1
  3
ACAD_XREC_ROUNDTRIP
360
155
  0
DICTIONARY
  5
14F
330
65
100
AcDbDictionary
280
     1
281
     1
  3
ACAD_ROUNDTRIP_2008_TABLESTYLE_CELLSTYLEMAP
360
150
  0
XRECORD
  5
157
102
{ACAD_REACTORS
330
156
102
}
330
156
100
AcDbXrecord
280
     1
102
DISPLAYNAME
  1
Imperial24
102
FLAGS
 90
        0
  0
XRECORD
  5
1C
102
{ACAD_REACTORS
330
1A
102
}
330
1A
100
AcDbXrecord
280
     1
270
     1
271
     1
  0
XRECORD
  5
1B
102
{ACAD_REACTORS
330
1A
102
}
330
1A
100
AcDbXrecord
280
     1
270
     1
271
     1
  0
XRECORD
  5
1F
102
{ACAD_REACTORS
330
1A
102
}
330
1A
100
AcDbXrecord
280
     1
270
     1
271
     1
  0
XRECORD
  5
1E
102
{ACAD_REACTORS
330
1A
102
}
330
1A
100
AcDbXrecord
280
     1
270
     1
271
     1
  0
XRECORD
  5
20
102
{ACAD_REACTORS
330
1A
102
}
330
1A
100
AcDbXrecord
280
     1
270
     1
271
     1
  0
XRECORD
  5
1D
102
{ACAD_REACTORS
330
1A
102
}
330
1A
100
AcDbXrecord
280
     1
270
     1
271
     1
  0
XRECORD
  5
14
102
{ACAD_REACTORS
330
12
102
}
330
12
100
AcDbXrecord
280
     1
270
     1
271
     1
  0
XRECORD
  5
13
102
{ACAD_REACTORS
330
12
102
}
330
12
100
AcDbXrecord
280
     1
270
     1
271
     1
  0
XRECORD
  5
17
102
{ACAD_REACTORS
330
12
102
}
330
12
100
AcDbXrecord
280
     1
270
     1
271
     1
  0
XRECORD
  5
16
102
{ACAD_REACTORS
330
12
102
}
330
12
100
AcDbXrecord
280
     1
270
     1
271
     1
  0
XRECORD
  5
18
102
{ACAD_REACTORS
330
12
102
}
330
12
100
AcDbXrecord
280
     1
270
     1
271
     1
  0
XRECORD
  5
15
102
{ACAD_REACTORS
330
12
102
}
330
12
100
AcDbXrecord
280
     1
270
     1
271
     1
  0
XRECORD
  5
24
102
{ACAD_REACTORS
330
22
102
}
330
22
100
AcDbXrecord
280
     1
270
     1
271
     1
  0
XRECORD
  5
23
102
{ACAD_REACTORS
330
22
102
}
330
22
100
AcDbXrecord
280
     1
270
     1
271
     1
  0
XRECORD
  5
27
102
{ACAD_REACTORS
330
22
102
}
330
22
100
AcDbXrecord
280
     1
270
     1
271
     1
  0
XRECORD
  5
26
102
{ACAD_REACTORS
330
22
102
}
330
22
100
AcDbXrecord
280
     1
270
     1
271
     1
  0
XRECORD
  5
28
102
{ACAD_REACTORS
330
22
102
}
330
22
100
AcDbXrecord
280
     1
270
     1
271
     1
  0
XRECORD
  5
25
102
{ACAD_REACTORS
330
22
102
}
330
22
100
AcDbXrecord
280
     1
270
     1
271
     1
  0
XRECORD
  5
155
102
{ACAD_REACTORS
330
154
102
}
330
154
100
AcDbXrecord
280
     1
102
DISPLAYNAME
  1
Imperial24
102
FLAGS
 90
        0
  0
CELLSTYLEMAP
  5
150
102
{ACAD_REACTORS
330
14F
102
}
330
14F
100
AcDbCellStyleMap
 90
        3
300
CELLSTYLE
  1
TABLEFORMAT_BEGIN
 90
        5
170
     1
 91
        0
 92
    32768
 62
   257
 93
        1
300
CONTENTFORMAT
  1
CONTENTFORMAT_BEGIN
 90
        0
 91
        0
 92
      512
 93
        0
300

 40
0.0
140
1.0
 94
        5
 62
     0
340
55
144
0.25
309
CONTENTFORMAT_END
171
     0
 94
        0
309
TABLEFORMAT_END
  1
CELLSTYLE_BEGIN
 90
        1
 91
        1
300
_TITLE
309
CELLSTYLE_END
300
CELLSTYLE
  1
TABLEFORMAT_BEGIN
 90
        5
170
     1
 91
        0
 92
        0
 62
   257
 93
        1
300
CONTENTFORMAT
  1
CONTENTFORMAT_BEGIN
 90
        0
 91
        0
 92
      512
 93
        0
300

 40
0.0
140
1.0
 94
        5
 62
     0
340
55
144
0.18
309
CONTENTFORMAT_END
171
     0
 94
        0
309
TABLEFORMAT_END
  1
CELLSTYLE_BEGIN
 90
        2
 91
        1
300
_HEADER
309
CELLSTYLE_END
300
CELLSTYLE
  1
TABLEFORMAT_BEGIN
 90
        5
170
     1
 91
        0
 92
        0
 62
   257
 93
        1
300
CONTENTFORMAT
  1
CONTENTFORMAT_BEGIN
 90
        0
 91
        0
 92
      512
 93
        0
300

 40
0.0
140
1.0
 94
        2
 62
     0
340
55
144
0.18
309
CONTENTFORMAT_END
171
     0
 94
        0
309
TABLEFORMAT_END
  1
CELLSTYLE_BEGIN
 90
        3
 91
        2
300
_DATA
309
CELLSTYLE_END
  0
ENDSEC
  0
EOF
