  0
SECTION
  2
HEADER
  9
$ACADVER
  1
AC1027
  9
$ACADMAINTVER
 70
   125
  9
$DWGCODEPAGE
  3
ANSI_1252
  9
$REQUIREDVERSIONS
160
                 0
  9
$INSBASE
 10
0.0
 20
0.0
 30
0.0
  9
$EXTMIN
 10
1.000000000000000E+20
 20
1.000000000000000E+20
 30
1.000000000000000E+20
  9
$EXTMAX
 10
-1.000000000000000E+20
 20
-1.000000000000000E+20
 30
-1.000000000000000E+20
  9
$LIMMIN
 10
0.0
 20
0.0
  9
$LIMMAX
 10
12.0
 20
9.0
  9
$ORTHOMODE
 70
     0
  9
$REGENMODE
 70
     1
  9
$FILLMODE
 70
     1
  9
$QTEXTMODE
 70
     0
  9
$MIRRTEXT
 70
     0
  9
$LTSCALE
 40
1.0
  9
$ATTMODE
 70
     1
  9
$TEXTSIZE
 40
0.2
  9
$TRACEWID
 40
0.05
  9
$TEXTSTYLE
  7
Standard
  9
$CLAYER
  8
0
  9
$CELTYPE
  6
ByLayer
  9
$CECOLOR
 62
   256
  9
$CELTSCALE
 40
1.0
  9
$DISPSILH
 70
     0
  9
$DIMSCALE
 40
1.0
  9
$DIMASZ
 40
0.18
  9
$DIMEXO
 40
0.0625
  9
$DIMDLI
 40
0.38
  9
$DIMRND
 40
0.0
  9
$DIMDLE
 40
0.0
  9
$DIMEXE
 40
0.18
  9
$DIMTP
 40
0.0
  9
$DIMTM
 40
0.0
  9
$DIMTXT
 40
0.18
  9
$DIMCEN
 40
0.09
  9
$DIMTSZ
 40
0.0
  9
$DIMTOL
 70
     0
  9
$DIMLIM
 70
     0
  9
$DIMTIH
 70
     1
  9
$DIMTOH
 70
     1
  9
$DIMSE1
 70
     0
  9
$DIMSE2
 70
     0
  9
$DIMTAD
 70
     0
  9
$DIMZIN
 70
     0
  9
$DIMBLK
  1

  9
$DIMASO
 70
     1
  9
$DIMSHO
 70
     1
  9
$DIMPOST
  1

  9
$DIMAPOST
  1

  9
$DIMALT
 70
     0
  9
$DIMALTD
 70
     2
  9
$DIMALTF
 40
25.4
  9
$DIMLFAC
 40
1.0
  9
$DIMTOFL
 70
     0
  9
$DIMTVP
 40
0.0
  9
$DIMTIX
 70
     0
  9
$DIMSOXD
 70
     0
  9
$DIMSAH
 70
     0
  9
$DIMBLK1
  1

  9
$DIMBLK2
  1

  9
$DIMSTYLE
  2
Standard
  9
$DIMCLRD
 70
     0
  9
$DIMCLRE
 70
     0
  9
$DIMCLRT
 70
     0
  9
$DIMTFAC
 40
1.0
  9
$DIMGAP
 40
0.09
  9
$DIMJUST
 70
     0
  9
$DIMSD1
 70
     0
  9
$DIMSD2
 70
     0
  9
$DIMTOLJ
 70
     1
  9
$DIMTZIN
 70
     0
  9
$DIMALTZ
 70
     0
  9
$DIMALTTZ
 70
     0
  9
$DIMUPT
 70
     0
  9
$DIMDEC
 70
     4
  9
$DIMTDEC
 70
     4
  9
$DIMALTU
 70
     2
  9
$DIMALTTD
 70
     2
  9
$DIMTXSTY
  7
Standard
  9
$DIMAUNIT
 70
     0
  9
$DIMADEC
 70
     0
  9
$DIMALTRND
 40
0.0
  9
$DIMAZIN
 70
     0
  9
$DIMDSEP
 70
    46
  9
$DIMATFIT
 70
     3
  9
$DIMFRAC
 70
     0
  9
$DIMLDRBLK
  1

  9
$DIMLUNIT
 70
     2
  9
$DIMLWD
 70
    -2
  9
$DIMLWE
 70
    -2
  9
$DIMTMOVE
 70
     0
  9
$DIMFXL
 40
1.0
  9
$DIMFXLON
 70
     0
  9
$DIMJOGANG
 40
0.7853981633974483
  9
$DIMTFILL
 70
     0
  9
$DIMTFILLCLR
 70
     0
  9
$DIMARCSYM
 70
     0
  9
$DIMLTYPE
  6

  9
$DIMLTEX1
  6

  9
$DIMLTEX2
  6

  9
$DIMTXTDIRECTION
 70
     0
  9
$LUNITS
 70
     2
  9
$LUPREC
 70
     4
  9
$SKETCHINC
 40
0.1
  9
$FILLETRAD
 40
0.0
  9
$AUNITS
 70
     0
  9
$AUPREC
 70
     0
  9
$MENU
  1
.
  9
$ELEVATION
 40
0.0
  9
$PELEVATION
 40
0.0
  9
$THICKNESS
 40
0.0
  9
$LIMCHECK
 70
     0
  9
$CHAMFERA
 40
0.0
  9
$CHAMFERB
 40
0.0
  9
$CHAMFERC
 40
0.0
  9
$CHAMFERD
 40
0.0
  9
$SKPOLY
 70
     0
  9
$TDCREATE
 40
2459466.550000000
  9
$TDUCREATE
 40
2459466.466666667
  9
$TDUPDATE
 40
2459466.550000000
  9
$TDUUPDATE
 40
2459466.466666667
  9
$TDINDWG
 40
0.0000000000
  9
$TDUSRTIMER
 40
0.0000000000
  9
$USRTIMER
 70
     1
  9
$ANGBASE
 50
0.0
  9
$ANGDIR
 70
     0
  9
$PDMODE
 70
     0
  9
$PDSIZE
 40
0.0
  9
$PLINEWID
 40
0.0
  9
$SPLFRAME
 70
     0
  9
$SPLINETYPE
 70
     6
  9
$SPLINESEGS
 70
     8
  9
$HANDSEED
  5
D5
  9
$SURFTAB1
 70
     6
  9
$SURFTAB2
 70
     6
  9
$SURFTYPE
 70
     6
  9
$SURFU
 70
     6
  9
$SURFV
 70
     6
  9
$UCSBASE
  2

  9
$UCSNAME
  2

  9
$UCSORG
 10
0.0
 20
0.0
 30
0.0
  9
$UCSXDIR
 10
1.0
 20
0.0
 30
0.0
  9
$UCSYDIR
 10
0.0
 20
1.0
 30
0.0
  9
$UCSORTHOREF
  2

  9
$UCSORTHOVIEW
 70
     0
  9
$UCSORGTOP
 10
0.0
 20
0.0
 30
0.0
  9
$UCSORGBOTTOM
 10
0.0
 20
0.0
 30
0.0
  9
$UCSORGLEFT
 10
0.0
 20
0.0
 30
0.0
  9
$UCSORGRIGHT
 10
0.0
 20
0.0
 30
0.0
  9
$UCSORGFRONT
 10
0.0
 20
0.0
 30
0.0
  9
$UCSORGBACK
 10
0.0
 20
0.0
 30
0.0
  9
$PUCSBASE
  2

  9
$PUCSNAME
  2

  9
$PUCSORG
 10
0.0
 20
0.0
 30
0.0
  9
$PUCSXDIR
 10
1.0
 20
0.0
 30
0.0
  9
$PUCSYDIR
 10
0.0
 20
1.0
 30
0.0
  9
$PUCSORTHOREF
  2

  9
$PUCSORTHOVIEW
 70
     0
  9
$PUCSORGTOP
 10
0.0
 20
0.0
 30
0.0
  9
$PUCSORGBOTTOM
 10
0.0
 20
0.0
 30
0.0
  9
$PUCSORGLEFT
 10
0.0
 20
0.0
 30
0.0
  9
$PUCSORGRIGHT
 10
0.0
 20
0.0
 30
0.0
  9
$PUCSORGFRONT
 10
0.0
 20
0.0
 30
0.0
  9
$PUCSORGBACK
 10
0.0
 20
0.0
 30
0.0
  9
$USERI1
 70
     0
  9
$USERI2
 70
     0
  9
$USERI3
 70
     0
  9
$USERI4
 70
     0
  9
$USERI5
 70
     0
  9
$USERR1
 40
0.0
  9
$USERR2
 40
0.0
  9
$USERR3
 40
0.0
  9
$USERR4
 40
0.0
  9
$USERR5
 40
0.0
  9
$WORLDVIEW
 70
     1
  9
$SHADEDGE
 70
     3
  9
$SHADEDIF
 70
    70
  9
$TILEMODE
 70
     1
  9
$MAXACTVP
 70
    64
  9
$PINSBASE
 10
0.0
 20
0.0
 30
0.0
  9
$PLIMCHECK
 70
     0
  9
$PEXTMIN
 10
1.000000000000000E+20
 20
1.000000000000000E+20
 30
1.000000000000000E+20
  9
$PEXTMAX
 10
-1.000000000000000E+20
 20
-1.000000000000000E+20
 30
-1.000000000000000E+20
  9
$PLIMMIN
 10
0.0
 20
0.0
  9
$PLIMMAX
 10
12.0
 20
9.0
  9
$UNITMODE
 70
     0
  9
$VISRETAIN
 70
     1
  9
$PLINEGEN
 70
     0
  9
$PSLTSCALE
 70
     1
  9
$TREEDEPTH
 70
  3020
  9
$CMLSTYLE
  2
Standard
  9
$CMLJUST
 70
     0
  9
$CMLSCALE
 40
1.0
  9
$PROXYGRAPHICS
 70
     1
  9
$MEASUREMENT
 70
     0
  9
$CELWEIGHT
370
    -1
  9
$ENDCAPS
280
     0
  9
$JOINSTYLE
280
     0
  9
$LWDISPLAY
290
     1
  9
$INSUNITS
 70
     4
  9
$HYPERLINKBASE
  1

  9
$STYLESHEET
  1

  9
$XEDIT
290
     1
  9
$CEPSNTYPE
380
     0
  9
$PSTYLEMODE
290
     1
  9
$FINGERPRINTGUID
  2
{8809AA09-08B7-1C44-8D2E-D7E3E46E1E5B}
  9
$VERSIONGUID
  2
{1233DEA5-6AD9-BD47-B7AD-C494D279FFF5}
  9
$EXTNAMES
290
     1
  9
$PSVPSCALE
 40
0.0
  9
$OLESTARTUP
290
     0
  9
$SORTENTS
280
   127
  9
$INDEXCTL
280
     0
  9
$HIDETEXT
280
     1
  9
$XCLIPFRAME
280
     2
  9
$HALOGAP
280
     0
  9
$OBSCOLOR
 70
   257
  9
$OBSLTYPE
280
     0
  9
$INTERSECTIONDISPLAY
280
     0
  9
$INTERSECTIONCOLOR
 70
   257
  9
$DIMASSOC
280
     2
  9
$PROJECTNAME
  1

  9
$CAMERADISPLAY
290
     0
  9
$LENSLENGTH
 40
50.0
  9
$CAMERAHEIGHT
 40
0.0
  9
$STEPSPERSEC
 40
2.0
  9
$STEPSIZE
 40
6.0
  9
$3DDWFPREC
 40
2.0
  9
$PSOLWIDTH
 40
0.25
  9
$PSOLHEIGHT
 40
4.0
  9
$LOFTANG1
 40
1.570796326794896
  9
$LOFTANG2
 40
1.570796326794896
  9
$LOFTMAG1
 40
0.0
  9
$LOFTMAG2
 40
0.0
  9
$LOFTPARAM
 70
     7
  9
$LOFTNORMALS
280
     1
  9
$LATITUDE
 40
37.795
  9
$LONGITUDE
 40
-122.394
  9
$NORTHDIRECTION
 40
0.0
  9
$TIMEZONE
 70
 -8000
  9
$LIGHTGLYPHDISPLAY
280
     1
  9
$TILEMODELIGHTSYNCH
280
     1
  9
$CMATERIAL
347
11
  9
$SOLIDHIST
280
     0
  9
$SHOWHIST
280
     1
  9
$DWFFRAME
280
     2
  9
$DGNFRAME
280
     0
  9
$REALWORLDSCALE
290
     1
  9
$INTERFERECOLOR
 62
     1
  9
$INTERFEREOBJVS
345
33
  9
$INTERFEREVPVS
346
30
  9
$CSHADOW
280
     0
  9
$SHADOWPLANELOCATION
 40
0.0
  0
ENDSEC
  0
SECTION
  2
CLASSES
  0
CLASS
  1
ACDBDICTIONARYWDFLT
  2
AcDbDictionaryWithDefault
  3
ObjectDBX Classes
 90
        0
 91
        1
280
     0
281
     0
  0
CLASS
  1
MATERIAL
  2
AcDbMaterial
  3
ObjectDBX Classes
 90
     1153
 91
        3
280
     0
281
     0
  0
CLASS
  1
VISUALSTYLE
  2
AcDbVisualStyle
  3
ObjectDBX Classes
 90
     4095
 91
       24
280
     0
281
     0
  0
CLASS
  1
SCALE
  2
AcDbScale
  3
ObjectDBX Classes
 90
     1153
 91
       17
280
     0
281
     0
  0
CLASS
  1
TABLESTYLE
  2
AcDbTableStyle
  3
ObjectDBX Classes
 90
     4095
 91
        1
280
     0
281
     0
  0
CLASS
  1
MLEADERSTYLE
  2
AcDbMLeaderStyle
  3
ACDB_MLEADERSTYLE_CLASS
 90
     4095
 91
        1
280
     0
281
     0
  0
CLASS
  1
ACDBSECTIONVIEWSTYLE
  2
AcDbSectionViewStyle
  3
ObjectDBX Classes
 90
     1025
 91
        1
280
     0
281
     0
  0
CLASS
  1
ACDBDETAILVIEWSTYLE
  2
AcDbDetailViewStyle
  3
ObjectDBX Classes
 90
     1025
 91
        1
280
     0
281
     0
  0
CLASS
  1
DICTIONARYVAR
  2
AcDbDictionaryVar
  3
ObjectDBX Classes
 90
        0
 91
        5
280
     0
281
     0
  0
CLASS
  1
CELLSTYLEMAP
  2
AcDbCellStyleMap
  3
ObjectDBX Classes
 90
     1152
 91
        1
280
     0
281
     0
  0
ENDSEC
  0
SECTION
  2
TABLES
  0
TABLE
  2
VPORT
  5
8
330
0
100
AcDbSymbolTable
 70
     1
1001
ACAD
1000
DbSaveVer
1071
      205
  0
VPORT
  5
57
330
8
100
AcDbSymbolTableRecord
100
AcDbViewportTableRecord
  2
*Active
 70
     0
 10
0.0
 20
0.0
 11
1.0
 21
1.0
 12
0.0
 22
0.0
 13
0.0
 23
0.0
 14
1.0
 24
1.0
 15
0.0
 25
0.0
 16
0.0
 26
0.0
 36
1.0
 17
113.2416666383562
 27
167.5694444025521
 37
0.0
 40
173.4396666233067
 41
1.08298755186722
 42
50.0
 43
0.0
 44
0.0
 50
0.0
 51
0.0
 71
     0
 72
   100
 73
     1
 74
     0
 75
     1
 76
     0
 77
     0
 78
     0
281
     0
 65
     1
110
0.0
120
0.0
130
0.0
111
1.0
121
0.0
131
0.0
112
0.0
122
1.0
132
0.0
 79
     0
146
0.0
 60
     3
 61
     5
292
     1
282
     1
141
0.0
142
0.0
 63
   250
421
  3355443
  0
ENDTAB
  0
TABLE
  2
LTYPE
  5
5
330
0
100
AcDbSymbolTable
 70
     1
  0
LTYPE
  5
5B
330
5
100
AcDbSymbolTableRecord
100
AcDbLinetypeTableRecord
  2
ByBlock
 70
     0
  3

 72
    65
 73
     0
 40
0.0
  0
LTYPE
  5
5C
330
5
100
AcDbSymbolTableRecord
100
AcDbLinetypeTableRecord
  2
ByLayer
 70
     0
  3

 72
    65
 73
     0
 40
0.0
  0
LTYPE
  5
5D
330
5
100
AcDbSymbolTableRecord
100
AcDbLinetypeTableRecord
  2
Continuous
 70
     0
  3
Solid line
 72
    65
 73
     0
 40
0.0
  0
ENDTAB
  0
TABLE
  2
LAYER
  5
2
330
0
100
AcDbSymbolTable
 70
     2
  0
LAYER
  5
54
330
2
100
AcDbSymbolTableRecord
100
AcDbLayerTableRecord
  2
0
 70
     0
 62
     7
  6
Continuous
370
    -3
390
F
347
21
348
0
  0
LAYER
  5
78
330
2
100
AcDbSymbolTableRecord
100
AcDbLayerTableRecord
  2
Capa 1
 70
     0
 62
     7
  6
Continuous
370
     0
390
F
347
21
348
0
  0
ENDTAB
  0
TABLE
  2
STYLE
  5
3
330
0
100
AcDbSymbolTable
 70
     2
  0
STYLE
  5
55
330
3
100
AcDbSymbolTableRecord
100
AcDbTextStyleTableRecord
  2
Standard
 70
     0
 40
0.0
 41
1.0
 50
0.0
 71
     0
 42
0.2
  3
txt
  4

  0
STYLE
  5
5A
330
3
100
AcDbSymbolTableRecord
100
AcDbTextStyleTableRecord
  2
Annotative
 70
     0
 40
0.0
 41
1.0
 50
0.0
 71
     0
 42
0.2
  3
txt
  4

1001
AcadAnnotative
1000
AnnotativeData
1002
{
1070
     1
1070
     1
1002
}
  0
ENDTAB
  0
TABLE
  2
VIEW
  5
6
330
0
100
AcDbSymbolTable
 70
     0
  0
ENDTAB
  0
TABLE
  2
UCS
  5
7
330
0
100
AcDbSymbolTable
 70
     0
  0
ENDTAB
  0
TABLE
  2
APPID
  5
9
330
0
100
AcDbSymbolTable
 70
     2
  0
APPID
  5
56
330
9
100
AcDbSymbolTableRecord
100
AcDbRegAppTableRecord
  2
ACAD
 70
     0
  0
APPID
  5
5E
330
9
100
AcDbSymbolTableRecord
100
AcDbRegAppTableRecord
  2
AcadAnnotative
 70
     0
  0
ENDTAB
  0
TABLE
  2
DIMSTYLE
  5
A
330
0
100
AcDbSymbolTable
 70
     2
100
AcDbDimStyleTable
 71
     0
  0
DIMSTYLE
105
58
330
A
100
AcDbSymbolTableRecord
100
AcDbDimStyleTableRecord
  2
Standard
 70
     0
340
55
  0
DIMSTYLE
105
59
330
A
100
AcDbSymbolTableRecord
100
AcDbDimStyleTableRecord
  2
Annotative
 70
     0
340
55
1001
AcadAnnotative
1000
AnnotativeData
1002
{
1070
     1
1070
     1
1002
}
  0
ENDTAB
  0
TABLE
  2
BLOCK_RECORD
  5
1
330
0
100
AcDbSymbolTable
 70
     1
  0
BLOCK_RECORD
  5
70
330
1
100
AcDbSymbolTableRecord
100
AcDbBlockTableRecord
  2
*Model_Space
340
73
 70
     0
280
     1
281
     0
  0
BLOCK_RECORD
  5
6C
330
1
100
AcDbSymbolTableRecord
100
AcDbBlockTableRecord
  2
*Paper_Space
340
6F
 70
     0
280
     1
281
     0
  0
BLOCK_RECORD
  5
74
330
1
100
AcDbSymbolTableRecord
100
AcDbBlockTableRecord
  2
*Paper_Space0
340
77
 70
     0
280
     1
281
     0
  0
ENDTAB
  0
ENDSEC
  0
SECTION
  2
BLOCKS
  0
BLOCK
  5
71
330
70
100
AcDbEntity
  8
0
100
AcDbBlockBegin
  2
*Model_Space
 70
     0
 10
0.0
 20
0.0
 30
0.0
  3
*Model_Space
  1

  0
ENDBLK
  5
72
330
70
100
AcDbEntity
  8
0
100
AcDbBlockEnd
  0
BLOCK
  5
6D
330
6C
100
AcDbEntity
 67
     1
  8
0
100
AcDbBlockBegin
  2
*Paper_Space
 70
     0
 10
0.0
 20
0.0
 30
0.0
  3
*Paper_Space
  1

  0
ENDBLK
  5
6E
330
6C
100
AcDbEntity
 67
     1
  8
0
100
AcDbBlockEnd
  0
BLOCK
  5
75
330
74
100
AcDbEntity
 67
     1
  8
0
100
AcDbBlockBegin
  2
*Paper_Space0
 70
     0
 10
0.0
 20
0.0
 30
0.0
  3
*Paper_Space0
  1

  0
ENDBLK
  5
76
330
74
100
AcDbEntity
 67
     1
  8
0
100
AcDbBlockEnd
  0
ENDSEC
  0
SECTION
  2
ENTITIES
  0
SPLINE
  5
79
330
70
100
AcDbEntity
  8
Capa 1
 62
   250
420
  1907995
370
    13
100
AcDbSpline
210
0.0
220
0.0
230
1.0
 70
    24
 71
     3
 72
     8
 73
     4
 74
     0
 42
0.0000000001
 43
0.0000000001
 40
0.0
 40
0.0
 40
0.0
 40
0.0
 40
1.0
 40
1.0
 40
1.0
 40
1.0
 10
112.1409971390448
 20
154.1779960665916
 30
0.0
 10
104.6987973289111
 20
154.1779960665916
 30
0.0
 10
87.32519777214859
 20
154.1779960665916
 30
0.0
 10
79.04479798339919
 20
154.1779960665916
 30
0.0
  0
SPLINE
  5
7A
330
70
100
AcDbEntity
  8
Capa 1
 62
   250
420
  1907995
370
    13
100
AcDbSpline
210
0.0
220
0.0
230
1.0
 70
     8
 71
     3
 72
    62
 73
    58
 74
     0
 42
0.0000000001
 43
0.0000000001
 40
0.0
 40
0.0
 40
0.0
 40
0.0
 40
1.0
 40
1.0
 40
1.0
 40
2.0
 40
2.0
 40
2.0
 40
3.0
 40
3.0
 40
3.0
 40
4.0
 40
4.0
 40
4.0
 40
5.0
 40
5.0
 40
5.0
 40
6.0
 40
6.0
 40
6.0
 40
7.0
 40
7.0
 40
7.0
 40
8.0
 40
8.0
 40
8.0
 40
9.0
 40
9.0
 40
9.0
 40
10.0
 40
10.0
 40
10.0
 40
11.0
 40
11.0
 40
11.0
 40
12.0
 40
12.0
 40
12.0
 40
13.0
 40
13.0
 40
13.0
 40
14.0
 40
14.0
 40
14.0
 40
15.0
 40
15.0
 40
15.0
 40
16.0
 40
16.0
 40
16.0
 40
17.0
 40
17.0
 40
17.0
 40
18.0
 40
18.0
 40
18.0
 40
19.0
 40
19.0
 40
19.0
 40
19.0
 10
68.12279826204262
 20
154.1779960665916
 30
0.0
 10
67.05599828925897
 20
154.1779960665916
 30
0.0
 10
66.44639830481115
 20
154.1779960665916
 30
0.0
 10
66.44639830481115
 20
154.1779960665916
 30
0.0
 10
66.44639830481115
 20
154.1779960665916
 30
0.0
 10
65.88759831906732
 20
154.0763960691836
 30
0.0
 10
65.43039833073146
 20
154.7367960523354
 30
0.0
 10
64.97319834239561
 20
155.3971960354872
 30
0.0
 10
52.19699866834362
 20
179.0191954328398
 30
0.0
 10
52.19699866834362
 20
179.0191954328398
 30
0.0
 10
52.19699866834362
 20
179.0191954328398
 30
0.0
 10
52.19699866834362
 20
201.9807948470406
 30
0.0
 10
52.19699866834362
 20
201.9807948470406
 30
0.0
 10
52.19699866834362
 20
201.9807948470406
 30
0.0
 10
65.10019833915556
 20
226.5425942204169
 30
0.0
 10
65.10019833915556
 20
226.5425942204169
 30
0.0
 10
65.10019833915556
 20
226.5425942204169
 30
0.0
 10
65.45579833008346
 20
227.0251942081048
 30
0.0
 10
65.93839831777131
 20
227.0251942081048
 30
0.0
 10
66.44639830481115
 20
227.0251942081048
 30
0.0
 10
115.3159970580438
 20
227.0251942081048
 30
0.0
 10
115.3159970580438
 20
227.0251942081048
 30
0.0
 10
115.3159970580438
 20
227.0251942081048
 30
0.0
 10
117.1701970107392
 20
227.0505942074568
 30
0.0
 10
117.1701970107392
 20
225.9583942353211
 30
0.0
 10
117.1701970107392
 20
224.8915942625374
 30
0.0
 10
117.1701970107392
 20
224.3581942761456
 30
0.0
 10
117.1701970107392
 20
224.3581942761456
 30
0.0
 10
117.1701970107392
 20
224.3581942761456
 30
0.0
 10
117.1955970100912
 20
223.8501942891057
 30
0.0
 10
117.6781969977791
 20
223.8501942891057
 30
0.0
 10
118.1607969854669
 20
223.8501942891057
 30
0.0
 10
119.2021969588986
 20
223.8501942891057
 30
0.0
 10
119.2021969588986
 20
223.8501942891057
 30
0.0
 10
119.2021969588986
 20
223.8501942891057
 30
0.0
 10
119.2021969588986
 20
208.4069946830946
 30
0.0
 10
119.2021969588986
 20
208.4069946830946
 30
0.0
 10
119.2021969588986
 20
208.4069946830946
 30
0.0
 10
119.2529969576026
 20
207.213194713551
 30
0.0
 10
120.3705969290902
 20
207.213194713551
 30
0.0
 10
121.5135968999299
 20
207.213194713551
 30
0.0
 10
138.8617964573404
 20
207.213194713551
 30
0.0
 10
138.8617964573404
 20
207.213194713551
 30
0.0
 10
138.8617964573404
 20
207.213194713551
 30
0.0
 10
138.8617964573404
 20
180.4669953959034
 30
0.0
 10
138.8617964573404
 20
180.4669953959034
 30
0.0
 10
138.8617964573404
 20
180.4669953959034
 30
0.0
 10
138.9125964560444
 20
178.7905954386719
 30
0.0
 10
138.6585964625245
 20
178.38419544904
 30
0.0
 10
138.2521964728926
 20
177.7237954658882
 30
0.0
 10
126.2125967800484
 20
155.1177960426153
 30
0.0
 10
126.2125967800484
 20
155.1177960426153
 30
0.0
 10
126.2125967800484
 20
155.1177960426153
 30
0.0
 10
125.4759967988406
 20
154.1779960665916
 30
0.0
 10
124.8917968137448
 20
154.1779960665916
 30
0.0
 10
124.8155968156888
 20
154.1779960665916
 30
0.0
 10
124.155196832537
 20
154.1779960665916
 30
0.0
 10
123.0629968604014
 20
154.1779960665916
 30
0.0
  0
SPLINE
  5
7B
330
70
100
AcDbEntity
  8
Capa 1
 62
   250
420
  1907995
370
    13
100
AcDbSpline
210
0.0
220
0.0
230
1.0
 70
     8
 71
     3
 72
    14
 73
    10
 74
     0
 42
0.0000000001
 43
0.0000000001
 40
0.0
 40
0.0
 40
0.0
 40
0.0
 40
1.0
 40
1.0
 40
1.0
 40
2.0
 40
2.0
 40
2.0
 40
3.0
 40
3.0
 40
3.0
 40
3.0
 10
115.3159970580438
 20
227.0251942081048
 30
0.0
 10
115.3159970580438
 20
227.0251942081048
 30
0.0
 10
138.0235964787247
 20
227.0251942081048
 30
0.0
 10
138.0235964787247
 20
227.0251942081048
 30
0.0
 10
138.0235964787247
 20
227.0251942081048
 30
0.0
 10
138.6839964618765
 20
226.9489942100488
 30
0.0
 10
138.6839964618765
 20
226.3901942243049
 30
0.0
 10
138.6839964618765
 20
225.8059942392092
 30
0.0
 10
138.6839964618765
 20
223.8501942891057
 30
0.0
 10
138.6839964618765
 20
223.8501942891057
 30
0.0
  0
LWPOLYLINE
  5
7C
330
70
100
AcDbEntity
  8
Capa 1
 62
   250
420
  1907995
370
    13
100
AcDbPolyline
 90
        3
 70
     0
 43
0.0
 10
119.2021969588986
 20
223.8501942891057
 10
138.6839964618765
 20
223.8501942891057
 10
138.8617964573404
 20
207.213194713551
  0
SPLINE
  5
7D
330
70
100
AcDbEntity
  8
Capa 1
 62
   250
420
  1907995
370
    13
100
AcDbSpline
210
0.0
220
0.0
230
1.0
 70
     9
 71
     3
 72
    17
 73
    13
 74
     0
 42
0.0000000001
 43
0.0000000001
 40
0.0
 40
0.0
 40
0.0
 40
0.0
 40
1.0
 40
1.0
 40
1.0
 40
2.0
 40
2.0
 40
2.0
 40
3.0
 40
3.0
 40
3.0
 40
4.0
 40
4.0
 40
4.0
 40
4.0
 10
86.81719778510876
 20
168.909995690747
 30
0.0
 10
99.69499745656872
 20
168.909995690747
 30
0.0
 10
110.1597971895894
 20
179.4001954231197
 30
0.0
 10
110.1597971895894
 20
192.27799509458
 30
0.0
 10
110.1597971895894
 20
205.1303947666876
 30
0.0
 10
99.69499745656872
 20
215.6205944990603
 30
0.0
 10
86.81719778510876
 20
215.6205944990603
 30
0.0
 10
73.96479811300079
 20
215.6205944990603
 30
0.0
 10
63.44919838127609
 20
205.1303947666876
 30
0.0
 10
63.44919838127609
 20
192.27799509458
 30
0.0
 10
63.44919838127609
 20
179.4001954231197
 30
0.0
 10
73.96479811300079
 20
168.909995690747
 30
0.0
 10
86.81719778510876
 20
168.909995690747
 30
0.0
  0
LWPOLYLINE
  5
7E
330
70
100
AcDbEntity
  8
Capa 1
 62
   250
420
  1907995
370
    13
100
AcDbPolyline
 90
        4
 70
     1
 43
0.0
 10
159.13099594023
 20
154.4319960601115
 10
181.711595364151
 20
154.4319960601115
 10
181.711595364151
 20
227.4569941970886
 10
159.13099594023
 20
227.4569941970886
  0
SPLINE
  5
7F
330
70
100
AcDbEntity
  8
Capa 1
 62
   250
420
  1907995
370
    13
100
AcDbSpline
210
0.0
220
0.0
230
1.0
 70
     8
 71
     3
 72
    23
 73
    19
 74
     0
 42
0.0000000001
 43
0.0000000001
 40
0.0
 40
0.0
 40
0.0
 40
0.0
 40
1.0
 40
1.0
 40
1.0
 40
2.0
 40
2.0
 40
2.0
 40
3.0
 40
3.0
 40
3.0
 40
4.0
 40
4.0
 40
4.0
 40
5.0
 40
5.0
 40
5.0
 40
6.0
 40
6.0
 40
6.0
 40
6.0
 10
181.711595364151
 20
154.4319960601115
 30
0.0
 10
181.711595364151
 20
154.4319960601115
 30
0.0
 10
181.8385953609109
 20
154.0255960704796
 30
0.0
 10
182.3465953479508
 20
154.0255960704796
 30
0.0
 10
182.8291953356386
 20
154.0255960704796
 30
0.0
 10
189.5093951652125
 20
154.0255960704796
 30
0.0
 10
189.5093951652125
 20
154.0255960704796
 30
0.0
 10
189.9411951541964
 20
154.0001960711276
 30
0.0
 10
189.9665951535484
 20
153.1111960938079
 30
0.0
 10
189.5347951645645
 20
153.1111960938079
 30
0.0
 10
189.3061951703966
 20
153.1111960938079
 30
0.0
 10
182.0925953544309
 20
153.1111960938079
 30
0.0
 10
182.0925953544309
 20
153.1111960938079
 30
0.0
 10
182.0925953544309
 20
153.1111960938079
 30
0.0
 10
181.635395366095
 20
153.0857960944563
 30
0.0
 10
181.457595370631
 20
153.2889960892722
 30
0.0
 10
181.2797953751671
 20
153.4921960840878
 30
0.0
 10
180.2891954004394
 20
154.4319960601115
 30
0.0
 10
180.2891954004394
 20
154.4319960601115
 30
0.0
  0
SPLINE
  5
80
330
70
100
AcDbEntity
  8
Capa 1
 62
   250
420
  1907995
370
    13
100
AcDbSpline
210
0.0
220
0.0
230
1.0
 70
     8
 71
     3
 72
    23
 73
    19
 74
     0
 42
0.0000000001
 43
0.0000000001
 40
0.0
 40
0.0
 40
0.0
 40
0.0
 40
1.0
 40
1.0
 40
1.0
 40
2.0
 40
2.0
 40
2.0
 40
3.0
 40
3.0
 40
3.0
 40
4.0
 40
4.0
 40
4.0
 40
5.0
 40
5.0
 40
5.0
 40
6.0
 40
6.0
 40
6.0
 40
6.0
 10
159.13099594023
 20
154.4319960601115
 30
0.0
 10
159.13099594023
 20
154.4319960601115
 30
0.0
 10
159.0039959434701
 20
154.0255960704796
 30
0.0
 10
158.4959959564303
 20
154.0255960704796
 30
0.0
 10
157.9879959693904
 20
154.0255960704796
 30
0.0
 10
151.3077961398165
 20
154.0255960704796
 30
0.0
 10
151.3077961398165
 20
154.0255960704796
 30
0.0
 10
150.9013961501846
 20
154.0001960711276
 30
0.0
 10
150.8505961514806
 20
153.1111960938079
 30
0.0
 10
151.3077961398165
 20
153.1111960938079
 30
0.0
 10
151.5363961339844
 20
153.1111960938079
 30
0.0
 10
158.7499959499502
 20
153.1111960938079
 30
0.0
 10
158.7499959499502
 20
153.1111960938079
 30
0.0
 10
158.7499959499502
 20
153.1111960938079
 30
0.0
 10
159.207195938286
 20
153.0857960944563
 30
0.0
 10
159.38499593375
 20
153.2889960892722
 30
0.0
 10
159.5627959292139
 20
153.4921960840878
 30
0.0
 10
160.5533959039416
 20
154.4319960601115
 30
0.0
 10
160.5533959039416
 20
154.4319960601115
 30
0.0
  0
LWPOLYLINE
  5
81
330
70
100
AcDbEntity
  8
Capa 1
 62
   250
420
  1907995
370
    13
100
AcDbPolyline
 90
       14
 70
     1
 43
0.0
 10
68.30059825750656
 20
156.4385960089189
 10
68.12279826204262
 20
156.209996014751
 10
68.12279826204262
 20
152.730196103528
 10
68.37679825556254
 20
152.5015961093601
 10
78.66379799311932
 20
152.5015961093601
 10
79.04479798339919
 20
152.8825960996403
 10
79.04479798339919
 20
156.2607960134549
 10
78.68919799247099
 20
156.5909960050308
 10
75.28559807930438
 20
156.5909960050308
 10
74.9045980890245
 20
156.8195959991988
 10
74.9045980890245
 20
158.6737959518942
 10
72.3645981538253
 20
158.6737959518942
 10
72.3645981538253
 20
156.7687960004948
 10
72.0343981622494
 20
156.4385960089189
  0
LWPOLYLINE
  5
82
330
70
100
AcDbEntity
  8
Capa 1
 62
   250
420
  1907995
370
    13
100
AcDbPolyline
 90
       14
 70
     1
 43
0.0
 10
112.3187971345087
 20
156.4385960089189
 10
112.1409971390448
 20
156.209996014751
 10
112.1409971390448
 20
152.730196103528
 10
112.3949971325647
 20
152.5015961093601
 10
122.6565968707695
 20
152.5015961093601
 10
123.0629968604014
 20
152.8825960996403
 10
123.0629968604014
 20
156.2607960134549
 10
122.7073968694735
 20
156.5909960050308
 10
119.3037969563065
 20
156.5909960050308
 10
118.8973969666747
 20
156.8195959991988
 10
118.8973969666747
 20
158.6737959518942
 10
116.3573970314755
 20
158.6737959518942
 10
116.3573970314755
 20
156.7687960004948
 10
116.0271970398996
 20
156.4385960089189
  0
LINE
  5
83
330
70
100
AcDbEntity
  8
Capa 1
 62
   250
420
  1907995
370
    13
100
AcDbLine
 10
68.12279826204262
 20
155.0669960439113
 30
0.0
 11
79.04479798339919
 21
155.0669960439113
 31
0.0
  0
LINE
  5
84
330
70
100
AcDbEntity
  8
Capa 1
 62
   250
420
  1907995
370
    13
100
AcDbLine
 10
112.1155971396928
 20
155.0669960439113
 30
0.0
 11
123.0375968610494
 21
155.0669960439113
 31
0.0
  0
LINE
  5
85
330
70
100
AcDbEntity
  8
Capa 1
 62
   250
420
  1907995
370
    13
100
AcDbLine
 10
68.12279826204262
 20
153.6953960789037
 30
0.0
 11
79.04479798339919
 21
153.6953960789037
 31
0.0
  0
LINE
  5
86
330
70
100
AcDbEntity
  8
Capa 1
 62
   250
420
  1907995
370
    13
100
AcDbLine
 10
112.1155971396928
 20
153.6953960789037
 30
0.0
 11
123.0375968610494
 21
153.6953960789037
 31
0.0
  0
LWPOLYLINE
  5
87
330
70
100
AcDbEntity
  8
Capa 1
 62
   250
420
  1907995
370
    13
100
AcDbPolyline
 90
        4
 70
     1
 43
0.0
 10
52.42559866251156
 20
100.6347974325924
 10
139.0141964534523
 20
100.6347974325924
 10
139.0141964534523
 20
121.7167968947458
 10
52.42559866251156
 20
121.7167968947458
  0
LWPOLYLINE
  5
88
330
70
100
AcDbEntity
  8
Capa 1
 62
   250
420
  1907995
370
    13
100
AcDbPolyline
 90
        4
 70
     1
 43
0.0
 10
88.01099775465237
 20
103.0223973716797
 10
112.9029971196046
 20
103.0223973716797
 10
112.9029971196046
 20
119.1259969608426
 10
88.01099775465237
 20
119.1259969608426
  0
LWPOLYLINE
  5
89
330
70
100
AcDbEntity
  8
Capa 1
 62
   250
420
  1907995
370
    13
100
AcDbPolyline
 90
        6
 70
     0
 43
0.0
 10
117.5765970003711
 20
121.7167968947458
 10
117.5765970003711
 20
119.8117969433464
 10
114.1729970872042
 20
119.8117969433464
 10
114.1729970872042
 20
102.5651973833438
 10
117.5765970003711
 20
102.5651973833438
 10
117.5765970003711
 20
100.6347974325924
  0
SPLINE
  5
8A
330
70
100
AcDbEntity
  8
Capa 1
 62
   250
420
  1907995
370
    13
100
AcDbSpline
210
0.0
220
0.0
230
1.0
 70
    11
 71
     3
 72
    26
 73
    22
 74
     0
 42
0.0000000001
 43
0.0000000001
 40
0.0
 40
0.0
 40
0.0
 40
0.0
 40
1.0
 40
1.0
 40
1.0
 40
2.0
 40
2.0
 40
2.0
 40
3.0
 40
3.0
 40
3.0
 40
4.0
 40
4.0
 40
4.0
 40
5.0
 40
5.0
 40
5.0
 40
6.0
 40
6.0
 40
6.0
 40
7.0
 40
7.0
 40
7.0
 40
7.0
 10
132.9943966070302
 20
113.4871971047004
 30
0.0
 10
132.9943966070302
 20
113.4871971047004
 30
0.0
 10
134.8739965590777
 20
113.4871971047004
 30
0.0
 10
134.8739965590777
 20
113.4871971047004
 30
0.0
 10
135.5851965409334
 20
115.0619970645239
 30
0.0
 10
137.1853965001089
 20
116.1541970366595
 30
0.0
 10
139.0141964534523
 20
116.1541970366595
 30
0.0
 10
139.0141964534523
 20
116.1541970366595
 30
0.0
 10
139.0141964534523
 20
111.632997152005
 30
0.0
 10
139.0141964534523
 20
111.632997152005
 30
0.0
 10
139.0141964534523
 20
111.632997152005
 30
0.0
 10
139.0141964534523
 20
107.1117972673504
 30
0.0
 10
139.0141964534523
 20
107.1117972673504
 30
0.0
 10
137.1599965007569
 20
107.1117972673504
 30
0.0
 10
135.5343965422294
 20
108.229397238838
 30
0.0
 10
134.8485965597256
 20
109.8549971973655
 30
0.0
 10
134.8485965597256
 20
109.8549971973655
 30
0.0
 10
132.9943966070302
 20
109.8549971973655
 30
0.0
 10
132.9943966070302
 20
109.8549971973655
 30
0.0
 10
132.9943966070302
 20
109.8549971973655
 30
0.0
 10
132.9943966070302
 20
113.4871971047004
 30
0.0
 10
132.9943966070302
 20
113.4871971047004
 30
0.0
  0
LWPOLYLINE
  5
8B
330
70
100
AcDbEntity
  8
Capa 1
 62
   250
420
  1907995
370
    13
100
AcDbPolyline
 90
        4
 70
     1
 43
0.0
 10
133.9595965824059
 20
110.6169971779253
 10
137.6679964877968
 20
110.6169971779253
 10
137.6679964877968
 20
112.5727971280287
 10
133.9595965824059
 20
112.5727971280287
  0
SPLINE
  5
8C
330
70
100
AcDbEntity
  8
Capa 1
 62
   250
420
  1907995
370
    13
100
AcDbSpline
210
0.0
220
0.0
230
1.0
 70
     8
 71
     3
 72
    35
 73
    31
 74
     0
 42
0.0000000001
 43
0.0000000001
 40
0.0
 40
0.0
 40
0.0
 40
0.0
 40
1.0
 40
1.0
 40
1.0
 40
2.0
 40
2.0
 40
2.0
 40
3.0
 40
3.0
 40
3.0
 40
4.0
 40
4.0
 40
4.0
 40
5.0
 40
5.0
 40
5.0
 40
6.0
 40
6.0
 40
6.0
 40
7.0
 40
7.0
 40
7.0
 40
8.0
 40
8.0
 40
8.0
 40
9.0
 40
9.0
 40
9.0
 40
10.0
 40
10.0
 40
10.0
 40
10.0
 10
112.0901971403408
 20
121.7167968947458
 30
0.0
 10
112.0901971403408
 20
121.7167968947458
 30
0.0
 10
112.0901971403408
 20
130.632196667295
 30
0.0
 10
112.0901971403408
 20
130.632196667295
 30
0.0
 10
112.0901971403408
 20
130.632196667295
 30
0.0
 10
122.5295968740095
 20
130.632196667295
 30
0.0
 10
122.5295968740095
 20
130.632196667295
 30
0.0
 10
122.5295968740095
 20
130.632196667295
 30
0.0
 10
122.8597968655854
 20
130.505196670535
 30
0.0
 10
122.8597968655854
 20
130.2765966763671
 30
0.0
 10
122.8597968655854
 20
130.0479966821992
 30
0.0
 10
122.8597968655854
 20
128.6255967184876
 30
0.0
 10
122.8597968655854
 20
128.6255967184876
 30
0.0
 10
122.8597968655854
 20
128.6255967184876
 30
0.0
 10
122.8597968655854
 20
128.1937967295038
 30
0.0
 10
122.6057968720655
 20
128.1937967295038
 30
0.0
 10
122.3771968778976
 20
128.1937967295038
 30
0.0
 10
120.3451969297382
 20
128.1429967307998
 30
0.0
 10
117.5511970010191
 20
128.1937967295038
 30
0.0
 10
114.731797072948
 20
128.2191967288557
 30
0.0
 10
114.706397073596
 20
123.7995968416091
 30
0.0
 10
117.5511970010191
 20
123.7995968416091
 30
0.0
 10
117.5511970010191
 20
123.7995968416091
 30
0.0
 10
122.7073968694735
 20
123.7995968416091
 30
0.0
 10
122.7073968694735
 20
123.7995968416091
 30
0.0
 10
122.7073968694735
 20
123.7995968416091
 30
0.0
 10
122.9613968629934
 20
123.6217968461452
 30
0.0
 10
122.9613968629934
 20
123.3423968532733
 30
0.0
 10
122.9613968629934
 20
123.0883968597533
 30
0.0
 10
122.9613968629934
 20
121.7167968947458
 30
0.0
 10
122.9613968629934
 20
121.7167968947458
 30
0.0
  0
SPLINE
  5
8D
330
70
100
AcDbEntity
  8
Capa 1
 62
   250
420
  1907995
370
    13
100
AcDbSpline
210
0.0
220
0.0
230
1.0
 70
     8
 71
     3
 72
    35
 73
    31
 74
     0
 42
0.0000000001
 43
0.0000000001
 40
0.0
 40
0.0
 40
0.0
 40
0.0
 40
1.0
 40
1.0
 40
1.0
 40
2.0
 40
2.0
 40
2.0
 40
3.0
 40
3.0
 40
3.0
 40
4.0
 40
4.0
 40
4.0
 40
5.0
 40
5.0
 40
5.0
 40
6.0
 40
6.0
 40
6.0
 40
7.0
 40
7.0
 40
7.0
 40
8.0
 40
8.0
 40
8.0
 40
9.0
 40
9.0
 40
9.0
 40
10.0
 40
10.0
 40
10.0
 40
10.0
 10
112.0901971403408
 20
100.6855974312964
 30
0.0
 10
112.0901971403408
 20
100.6855974312964
 30
0.0
 10
112.0901971403408
 20
91.77019765874721
 30
0.0
 10
112.0901971403408
 20
91.77019765874721
 30
0.0
 10
112.0901971403408
 20
91.77019765874721
 30
0.0
 10
122.5295968740095
 20
91.77019765874721
 30
0.0
 10
122.5295968740095
 20
91.77019765874721
 30
0.0
 10
122.5295968740095
 20
91.77019765874721
 30
0.0
 10
122.8597968655854
 20
91.89719765550718
 30
0.0
 10
122.8597968655854
 20
92.12579764967509
 30
0.0
 10
122.8597968655854
 20
92.35439764384302
 30
0.0
 10
122.8597968655854
 20
93.77679760755457
 30
0.0
 10
122.8597968655854
 20
93.77679760755457
 30
0.0
 10
122.8597968655854
 20
93.77679760755457
 30
0.0
 10
122.8597968655854
 20
94.20859759653843
 30
0.0
 10
122.6057968720655
 20
94.20859759653843
 30
0.0
 10
122.3771968778976
 20
94.20859759653843
 30
0.0
 10
120.3451969297382
 20
94.25939759524242
 30
0.0
 10
117.5511970010191
 20
94.20859759653843
 30
0.0
 10
114.731797072948
 20
94.18319759718645
 30
0.0
 10
114.706397073596
 20
98.60279748443307
 30
0.0
 10
117.5511970010191
 20
98.60279748443307
 30
0.0
 10
117.5511970010191
 20
98.60279748443307
 30
0.0
 10
122.7073968694735
 20
98.60279748443307
 30
0.0
 10
122.7073968694735
 20
98.60279748443307
 30
0.0
 10
122.7073968694735
 20
98.60279748443307
 30
0.0
 10
122.9613968629934
 20
98.78059747989702
 30
0.0
 10
122.9613968629934
 20
99.05999747276892
 30
0.0
 10
122.9613968629934
 20
99.31399746628883
 30
0.0
 10
122.9613968629934
 20
100.6855974312964
 30
0.0
 10
122.9613968629934
 20
100.6855974312964
 30
0.0
  0
SPLINE
  5
8E
330
70
100
AcDbEntity
  8
Capa 1
 62
   250
420
  1907995
370
    13
100
AcDbSpline
210
0.0
220
0.0
230
1.0
 70
     8
 71
     3
 72
    35
 73
    31
 74
     0
 42
0.0000000001
 43
0.0000000001
 40
0.0
 40
0.0
 40
0.0
 40
0.0
 40
1.0
 40
1.0
 40
1.0
 40
2.0
 40
2.0
 40
2.0
 40
3.0
 40
3.0
 40
3.0
 40
4.0
 40
4.0
 40
4.0
 40
5.0
 40
5.0
 40
5.0
 40
6.0
 40
6.0
 40
6.0
 40
7.0
 40
7.0
 40
7.0
 40
8.0
 40
8.0
 40
8.0
 40
9.0
 40
9.0
 40
9.0
 40
10.0
 40
10.0
 40
10.0
 40
10.0
 10
68.2243982594506
 20
121.7167968947458
 30
0.0
 10
68.2243982594506
 20
121.7167968947458
 30
0.0
 10
68.2243982594506
 20
130.632196667295
 30
0.0
 10
68.2243982594506
 20
130.632196667295
 30
0.0
 10
68.2243982594506
 20
130.632196667295
 30
0.0
 10
78.68919799247099
 20
130.632196667295
 30
0.0
 10
78.68919799247099
 20
130.632196667295
 30
0.0
 10
78.68919799247099
 20
130.632196667295
 30
0.0
 10
79.0193979840472
 20
130.505196670535
 30
0.0
 10
79.0193979840472
 20
130.2765966763671
 30
0.0
 10
79.0193979840472
 20
130.0479966821992
 30
0.0
 10
79.0193979840472
 20
128.6255967184876
 30
0.0
 10
79.0193979840472
 20
128.6255967184876
 30
0.0
 10
79.0193979840472
 20
128.6255967184876
 30
0.0
 10
79.0193979840472
 20
128.1937967295038
 30
0.0
 10
78.76539799052729
 20
128.1937967295038
 30
0.0
 10
78.53679799635935
 20
128.1937967295038
 30
0.0
 10
76.5047980482
 20
128.1429967307998
 30
0.0
 10
73.71079811948087
 20
128.1937967295038
 30
0.0
 10
70.89139819141007
 20
128.2191967288557
 30
0.0
 10
70.86599819205776
 20
123.7995968416091
 30
0.0
 10
73.71079811948087
 20
123.7995968416091
 30
0.0
 10
73.71079811948087
 20
123.7995968416091
 30
0.0
 10
78.86699798793525
 20
123.7995968416091
 30
0.0
 10
78.86699798793525
 20
123.7995968416091
 30
0.0
 10
78.86699798793525
 20
123.7995968416091
 30
0.0
 10
79.12099798145518
 20
123.6217968461452
 30
0.0
 10
79.12099798145518
 20
123.3423968532733
 30
0.0
 10
79.12099798145518
 20
123.0883968597533
 30
0.0
 10
79.12099798145518
 20
121.7167968947458
 30
0.0
 10
79.12099798145518
 20
121.7167968947458
 30
0.0
  0
SPLINE
  5
8F
330
70
100
AcDbEntity
  8
Capa 1
 62
   250
420
  1907995
370
    13
100
AcDbSpline
210
0.0
220
0.0
230
1.0
 70
     8
 71
     3
 72
    35
 73
    31
 74
     0
 42
0.0000000001
 43
0.0000000001
 40
0.0
 40
0.0
 40
0.0
 40
0.0
 40
1.0
 40
1.0
 40
1.0
 40
2.0
 40
2.0
 40
2.0
 40
3.0
 40
3.0
 40
3.0
 40
4.0
 40
4.0
 40
4.0
 40
5.0
 40
5.0
 40
5.0
 40
6.0
 40
6.0
 40
6.0
 40
7.0
 40
7.0
 40
7.0
 40
8.0
 40
8.0
 40
8.0
 40
9.0
 40
9.0
 40
9.0
 40
10.0
 40
10.0
 40
10.0
 40
10.0
 10
68.2243982594506
 20
100.6855974312964
 30
0.0
 10
68.2243982594506
 20
100.6855974312964
 30
0.0
 10
68.2243982594506
 20
91.77019765874721
 30
0.0
 10
68.2243982594506
 20
91.77019765874721
 30
0.0
 10
68.2243982594506
 20
91.77019765874721
 30
0.0
 10
78.68919799247099
 20
91.77019765874721
 30
0.0
 10
78.68919799247099
 20
91.77019765874721
 30
0.0
 10
78.68919799247099
 20
91.77019765874721
 30
0.0
 10
79.0193979840472
 20
91.89719765550718
 30
0.0
 10
79.0193979840472
 20
92.12579764967509
 30
0.0
 10
79.0193979840472
 20
92.35439764384302
 30
0.0
 10
79.0193979840472
 20
93.77679760755457
 30
0.0
 10
79.0193979840472
 20
93.77679760755457
 30
0.0
 10
79.0193979840472
 20
93.77679760755457
 30
0.0
 10
79.0193979840472
 20
94.20859759653843
 30
0.0
 10
78.76539799052729
 20
94.20859759653843
 30
0.0
 10
78.53679799635935
 20
94.20859759653843
 30
0.0
 10
76.5047980482
 20
94.25939759524242
 30
0.0
 10
73.71079811948087
 20
94.20859759653843
 30
0.0
 10
70.89139819141007
 20
94.18319759718645
 30
0.0
 10
70.86599819205776
 20
98.60279748443307
 30
0.0
 10
73.71079811948087
 20
98.60279748443307
 30
0.0
 10
73.71079811948087
 20
98.60279748443307
 30
0.0
 10
78.86699798793525
 20
98.60279748443307
 30
0.0
 10
78.86699798793525
 20
98.60279748443307
 30
0.0
 10
78.86699798793525
 20
98.60279748443307
 30
0.0
 10
79.12099798145518
 20
98.78059747989702
 30
0.0
 10
79.12099798145518
 20
99.05999747276892
 30
0.0
 10
79.12099798145518
 20
99.31399746628883
 30
0.0
 10
79.12099798145518
 20
100.6855974312964
 30
0.0
 10
79.12099798145518
 20
100.6855974312964
 30
0.0
  0
LINE
  5
90
330
70
100
AcDbEntity
  8
Capa 1
 62
   250
420
  1907995
370
     9
100
AcDbLine
 10
52.01919867287967
 20
209.1435946643024
 30
0.0
 11
52.01919867287967
 21
239.3187938944689
 31
0.0
  0
LINE
  5
91
330
70
100
AcDbEntity
  8
Capa 1
 62
   250
420
  1907995
370
     9
100
AcDbLine
 10
138.6839964618765
 20
229.8699941355282
 30
0.0
 11
138.6839964618765
 21
239.3187938944689
 31
0.0
  0
LINE
  5
92
330
70
100
AcDbEntity
  8
Capa 1
 62
   250
420
  1907995
370
     9
100
AcDbLine
 10
52.01919867287967
 20
237.8963939307574
 30
0.0
 11
90.70974860818486
 21
237.8963939307574
 31
0.0
  0
LINE
  5
93
330
70
100
AcDbEntity
  8
Capa 1
 62
   250
420
  1907995
370
     9
100
AcDbLine
 10
138.6839964618765
 20
237.8963939307574
 30
0.0
 11
102.7112464572344
 21
237.8963939307574
 31
0.0
  0
LINE
  5
94
330
70
100
AcDbEntity
  8
Capa 1
 62
   250
420
  1907995
370
     9
100
AcDbLine
 10
61.16319843959681
 20
227.0251942081048
 30
0.0
 11
40.7669989599472
 21
227.0251942081048
 31
0.0
  0
LINE
  5
95
330
70
100
AcDbEntity
  8
Capa 1
 62
   250
420
  1907995
370
     9
100
AcDbLine
 10
61.16319843959681
 20
152.3745961126001
 30
0.0
 11
40.7669989599472
 21
152.3745961126001
 31
0.0
  0
LINE
  5
96
330
70
100
AcDbEntity
  8
Capa 1
 62
   250
420
  1907995
370
     9
100
AcDbLine
 10
42.74819890940259
 20
152.3745961126001
 30
0.0
 11
42.74819890940259
 21
186.7915952345494
 31
0.0
  0
LINE
  5
97
330
70
100
AcDbEntity
  8
Capa 1
 62
   250
420
  1907995
370
     9
100
AcDbLine
 10
42.74819890940259
 20
227.0251942081048
 30
0.0
 11
42.74819890940259
 21
194.1575950466271
 31
0.0
  0
LINE
  5
98
330
70
100
AcDbEntity
  8
Capa 1
 62
   250
420
  1907995
370
     9
100
AcDbLine
 10
65.27799833461952
 20
183.1847953265665
 30
0.0
 11
81.88959791082263
 21
190.2205951470683
 31
0.0
  0
LINE
  5
99
330
70
100
AcDbEntity
  8
Capa 1
 62
   250
420
  1907995
370
     9
100
AcDbLine
 10
108.280197237542
 20
201.3965948619448
 30
0.0
 11
92.50679763995497
 21
194.7163950323709
 31
0.0
  0
LINE
  5
9A
330
70
100
AcDbEntity
  8
Capa 1
 62
   250
420
  1907995
370
     9
100
AcDbLine
 10
159.0801959415261
 20
229.7937941374719
 30
0.0
 11
159.0801959415261
 21
239.8267938815088
 31
0.0
  0
LINE
  5
9B
330
70
100
AcDbEntity
  8
Capa 1
 62
   250
420
  1907995
370
     9
100
AcDbLine
 10
181.7623953628549
 20
229.7937941374719
 30
0.0
 11
181.7623953628549
 21
239.8267938815088
 31
0.0
  0
LINE
  5
9C
330
70
100
AcDbEntity
  8
Capa 1
 62
   250
420
  1907995
370
     9
100
AcDbLine
 10
159.0801959415261
 20
238.2519939216853
 30
0.0
 11
166.2683957581398
 21
238.2519939216853
 31
0.0
  0
LINE
  5
9D
330
70
100
AcDbEntity
  8
Capa 1
 62
   250
420
  1907995
370
     9
100
AcDbLine
 10
181.7623953628549
 20
238.2519939216853
 30
0.0
 11
174.5741955462412
 21
238.2519939216853
 31
0.0
  0
LINE
  5
9E
330
70
100
AcDbEntity
  8
Capa 1
 62
   250
420
  1907995
370
     9
100
AcDbLine
 10
52.5779986586235
 20
123.8249968409611
 30
0.0
 11
52.5779986586235
 21
138.8871964566924
 31
0.0
  0
LINE
  5
9F
330
70
100
AcDbEntity
  8
Capa 1
 62
   250
420
  1907995
370
     9
100
AcDbLine
 10
73.86319811559282
 20
133.1721966024942
 30
0.0
 11
73.86319811559282
 21
138.8871964566924
 31
0.0
  0
LINE
  5
A0
330
70
100
AcDbEntity
  8
Capa 1
 62
   250
420
  1907995
370
     9
100
AcDbLine
 10
73.86319811559282
 20
123.1137968591053
 30
0.0
 11
73.86319811559282
 21
128.8795967120075
 31
0.0
  0
LINE
  5
A1
330
70
100
AcDbEntity
  8
Capa 1
 62
   250
420
  1907995
370
     9
100
AcDbLine
 10
73.86319811559282
 20
93.47199761533067
 30
0.0
 11
73.86319811559282
 21
99.23779746823287
 31
0.0
  0
LINE
  5
A2
330
70
100
AcDbEntity
  8
Capa 1
 62
   250
420
  1907995
370
     9
100
AcDbLine
 10
117.6527969984271
 20
123.1137968591053
 30
0.0
 11
117.6527969984271
 21
128.8795967120075
 31
0.0
  0
LINE
  5
A3
330
70
100
AcDbEntity
  8
Capa 1
 62
   250
420
  1907995
370
     9
100
AcDbLine
 10
117.6527969984271
 20
93.47199761533067
 30
0.0
 11
117.6527969984271
 21
99.23779746823287
 31
0.0
  0
LINE
  5
A4
330
70
100
AcDbEntity
  8
Capa 1
 62
   250
420
  1907995
370
     9
100
AcDbLine
 10
117.6019969997231
 20
133.1721966024942
 30
0.0
 11
117.6019969997231
 21
138.8871964566924
 31
0.0
  0
LINE
  5
A5
330
70
100
AcDbEntity
  8
Capa 1
 62
   250
420
  1907995
370
     9
100
AcDbLine
 10
52.5779986586235
 20
137.134596501405
 30
0.0
 11
56.50229855850627
 21
137.134596501405
 31
0.0
  0
LINE
  5
A6
330
70
100
AcDbEntity
  8
Capa 1
 62
   250
420
  1907995
370
     9
100
AcDbLine
 10
73.86319811559282
 20
137.134596501405
 30
0.0
 11
68.2243982594506
 21
137.134596501405
 31
0.0
  0
LINE
  5
A7
330
70
100
AcDbEntity
  8
Capa 1
 62
   250
420
  1907995
370
     9
100
AcDbLine
 10
73.86319811559282
 20
137.134596501405
 30
0.0
 11
90.25889769730367
 21
137.134596501405
 31
0.0
  0
LINE
  5
A8
330
70
100
AcDbEntity
  8
Capa 1
 62
   250
420
  1907995
370
     9
100
AcDbLine
 10
117.6019969997231
 20
137.134596501405
 30
0.0
 11
102.7112464572344
 21
137.134596501405
 31
0.0
  0
LINE
  5
A9
330
70
100
AcDbEntity
  8
Capa 1
 62
   250
420
  1907995
370
     9
100
AcDbLine
 10
65.40499833137947
 20
126.0093967852324
 30
0.0
 11
41.09719895152342
 21
126.0093967852324
 31
0.0
  0
LINE
  5
AA
330
70
100
AcDbEntity
  8
Capa 1
 62
   250
420
  1907995
370
     9
100
AcDbLine
 10
76.63179804495995
 20
126.0093967852324
 30
0.0
 11
71.0691981868737
 21
126.0093967852324
 31
0.0
  0
LINE
  5
AB
330
70
100
AcDbEntity
  8
Capa 1
 62
   250
420
  1907995
370
     9
100
AcDbLine
 10
76.63179804495995
 20
96.36759754145778
 30
0.0
 11
71.0691981868737
 21
96.36759754145778
 31
0.0
  0
LINE
  5
AC
330
70
100
AcDbEntity
  8
Capa 1
 62
   250
420
  1907995
370
     9
100
AcDbLine
 10
120.4213969277942
 20
126.0093967852324
 30
0.0
 11
114.8587970697079
 21
126.0093967852324
 31
0.0
  0
LINE
  5
AD
330
70
100
AcDbEntity
  8
Capa 1
 62
   250
420
  1907995
370
     9
100
AcDbLine
 10
120.4213969277942
 20
96.36759754145778
 30
0.0
 11
114.8587970697079
 21
96.36759754145778
 31
0.0
  0
LINE
  5
AE
330
70
100
AcDbEntity
  8
Capa 1
 62
   250
420
  1907995
370
     9
100
AcDbLine
 10
65.40499833137947
 20
96.31679754275378
 30
0.0
 11
41.09719895152342
 21
96.31679754275378
 31
0.0
  0
LINE
  5
AF
330
70
100
AcDbEntity
  8
Capa 1
 62
   250
420
  1907995
370
     9
100
AcDbLine
 10
42.57039891393865
 20
126.0093967852324
 30
0.0
 11
42.57039891393865
 21
115.3667970567478
 31
0.0
  0
LINE
  5
B0
330
70
100
AcDbEntity
  8
Capa 1
 62
   250
420
  1907995
370
     9
100
AcDbLine
 10
42.57039891393865
 20
96.31679754275378
 30
0.0
 11
42.57039891393865
 21
106.9593972712384
 31
0.0
  0
SPLINE
  5
B1
330
70
100
AcDbEntity
  8
Capa 1
100
AcDbSpline
210
0.0
220
0.0
230
1.0
 70
     9
 71
     3
 72
    95
 73
    91
 74
     0
 42
0.0000000001
 43
0.0000000001
 40
0.0
 40
0.0
 40
0.0
 40
0.0
 40
1.0
 40
1.0
 40
1.0
 40
2.0
 40
2.0
 40
2.0
 40
3.0
 40
3.0
 40
3.0
 40
4.0
 40
4.0
 40
4.0
 40
5.0
 40
5.0
 40
5.0
 40
6.0
 40
6.0
 40
6.0
 40
7.0
 40
7.0
 40
7.0
 40
8.0
 40
8.0
 40
8.0
 40
9.0
 40
9.0
 40
9.0
 40
10.0
 40
10.0
 40
10.0
 40
11.0
 40
11.0
 40
11.0
 40
12.0
 40
12.0
 40
12.0
 40
13.0
 40
13.0
 40
13.0
 40
14.0
 40
14.0
 40
14.0
 40
15.0
 40
15.0
 40
15.0
 40
16.0
 40
16.0
 40
16.0
 40
17.0
 40
17.0
 40
17.0
 40
18.0
 40
18.0
 40
18.0
 40
19.0
 40
19.0
 40
19.0
 40
20.0
 40
20.0
 40
20.0
 40
21.0
 40
21.0
 40
21.0
 40
22.0
 40
22.0
 40
22.0
 40
23.0
 40
23.0
 40
23.0
 40
24.0
 40
24.0
 40
24.0
 40
25.0
 40
25.0
 40
25.0
 40
26.0
 40
26.0
 40
26.0
 40
27.0
 40
27.0
 40
27.0
 40
28.0
 40
28.0
 40
28.0
 40
29.0
 40
29.0
 40
29.0
 40
30.0
 40
30.0
 40
30.0
 40
30.0
 10
167.1827957348115
 20
237.4391939424215
 30
0.0
 10
167.1827957348115
 20
237.4391939424215
 30
0.0
 10
167.6907957218513
 20
237.5153939404775
 30
0.0
 10
167.6907957218513
 20
237.5153939404775
 30
0.0
 10
167.7669957199073
 20
237.2105939482536
 30
0.0
 10
167.8685957173153
 20
237.0073939534376
 30
0.0
 10
167.9955957140752
 20
236.8803939566777
 30
0.0
 10
168.1479957101872
 20
236.7533939599177
 30
0.0
 10
168.3257957056512
 20
236.6771939618617
 30
0.0
 10
168.5289957004671
 20
236.6771939618617
 30
0.0
 10
168.782995693987
 20
236.6771939618617
 30
0.0
 10
168.9861956888029
 20
236.7533939599177
 30
0.0
 10
169.1639956842669
 20
236.9311939553817
 30
0.0
 10
169.3163956803789
 20
237.1089939508456
 30
0.0
 10
169.4179956777868
 20
237.3121939456615
 30
0.0
 10
169.4179956777868
 20
237.5661939391815
 30
0.0
 10
169.4179956777868
 20
237.7947939333494
 30
0.0
 10
169.3163956803789
 20
237.9979939281653
 30
0.0
 10
169.1639956842669
 20
238.1503939242773
 30
0.0
 10
169.011595688155
 20
238.3027939203892
 30
0.0
 10
168.808395693339
 20
238.4043939177972
 30
0.0
 10
168.5797956991711
 20
238.4043939177972
 30
0.0
 10
168.4781957017631
 20
238.4043939177972
 30
0.0
 10
168.3511957050031
 20
238.3789939184452
 30
0.0
 10
168.1987957088912
 20
238.3281939197412
 30
0.0
 10
168.1987957088912
 20
238.3281939197412
 30
0.0
 10
168.2749957069472
 20
238.7853939080771
 30
0.0
 10
168.2749957069472
 20
238.7853939080771
 30
0.0
 10
168.3003957062991
 20
238.7853939080771
 30
0.0
 10
168.3257957056512
 20
238.7853939080771
 30
0.0
 10
168.3511957050031
 20
238.7853939080771
 30
0.0
 10
168.5797956991711
 20
238.7853939080771
 30
0.0
 10
168.757595694635
 20
238.8361939067811
 30
0.0
 10
168.935395690099
 20
238.963193903541
 30
0.0
 10
169.1131956855629
 20
239.064793900949
 30
0.0
 10
169.2147956829709
 20
239.2679938957652
 30
0.0
 10
169.2147956829709
 20
239.4965938899328
 30
0.0
 10
169.2147956829709
 20
239.6997938847488
 30
0.0
 10
169.1385956849149
 20
239.8521938808607
 30
0.0
 10
169.011595688155
 20
239.9791938776207
 30
0.0
 10
168.884595691395
 20
240.1061938743807
 30
0.0
 10
168.732195695283
 20
240.1569938730847
 30
0.0
 10
168.5289957004671
 20
240.1569938730847
 30
0.0
 10
168.3257957056512
 20
240.1569938730847
 30
0.0
 10
168.1479957101872
 20
240.1061938743807
 30
0.0
 10
168.0209957134272
 20
239.9791938776207
 30
0.0
 10
167.8685957173153
 20
239.8521938808607
 30
0.0
 10
167.7923957192593
 20
239.6489938860448
 30
0.0
 10
167.7415957205553
 20
239.3949938925249
 30
0.0
 10
167.7415957205553
 20
239.3949938925249
 30
0.0
 10
167.2335957335155
 20
239.4965938899328
 30
0.0
 10
167.2335957335155
 20
239.4965938899328
 30
0.0
 10
167.2843957322195
 20
239.8267938815088
 30
0.0
 10
167.4367957283315
 20
240.1061938743807
 30
0.0
 10
167.6653957224994
 20
240.3093938691966
 30
0.0
 10
167.8939957166673
 20
240.4871938646606
 30
0.0
 10
168.1733957095392
 20
240.5887938620685
 30
0.0
 10
168.5035957011151
 20
240.5887938620685
 30
0.0
 10
168.732195695283
 20
240.5887938620685
 30
0.0
 10
168.9607956894509
 20
240.5379938633645
 30
0.0
 10
169.1385956849149
 20
240.4363938659566
 30
0.0
 10
169.3417956797308
 20
240.3347938685486
 30
0.0
 10
169.4941956758428
 20
240.2077938717886
 30
0.0
 10
169.5957956732508
 20
240.0299938763247
 30
0.0
 10
169.6973956706587
 20
239.8521938808607
 30
0.0
 10
169.7481956693627
 20
239.6743938853971
 30
0.0
 10
169.7481956693627
 20
239.4965938899328
 30
0.0
 10
169.7481956693627
 20
239.2933938951169
 30
0.0
 10
169.6973956706587
 20
239.140993899005
 30
0.0
 10
169.5957956732508
 20
238.988593902893
 30
0.0
 10
169.4941956758428
 20
238.8361939067811
 30
0.0
 10
169.3671956790828
 20
238.7091939100211
 30
0.0
 10
169.1639956842669
 20
238.6329939119651
 30
0.0
 10
169.4179956777868
 20
238.5567939139092
 30
0.0
 10
169.6211956726027
 20
238.4551939165012
 30
0.0
 10
169.7481956693627
 20
238.2519939216853
 30
0.0
 10
169.9005956654747
 20
238.0741939262216
 30
0.0
 10
169.9513956641786
 20
237.8455939320534
 30
0.0
 10
169.9513956641786
 20
237.5661939391815
 30
0.0
 10
169.9513956641786
 20
237.2105939482536
 30
0.0
 10
169.8243956674187
 20
236.8803939566777
 30
0.0
 10
169.5449956745468
 20
236.6263939631578
 30
0.0
 10
169.2909956810269
 20
236.3723939696378
 30
0.0
 10
168.935395690099
 20
236.2453939728779
 30
0.0
 10
168.5289957004671
 20
236.2453939728779
 30
0.0
 10
168.1479957101872
 20
236.2453939728779
 30
0.0
 10
167.8431957179633
 20
236.3469939702858
 30
0.0
 10
167.5891957244434
 20
236.5755939644538
 30
0.0
 10
167.3605957302755
 20
236.8041939586217
 30
0.0
 10
167.2081957341635
 20
237.0835939514936
 30
0.0
 10
167.1827957348115
 20
237.4391939424215
 30
0.0
  0
HATCH
  5
B2
330
70
100
AcDbEntity
  8
Capa 1
 62
   250
420
  1907995
440
 33554687
100
AcDbHatch
 10
0.0
 20
0.0
 30
0.0
210
0.0
220
0.0
230
1.0
  2
SOLID
 70
     1
 71
     1
 91
        1
 92
        1
 93
        1
 72
     4
 94
        3
 73
     0
 74
     0
 95
       95
 96
       91
 40
0.0
 40
0.0
 40
0.0
 40
0.0
 40
1.0
 40
1.0
 40
1.0
 40
2.0
 40
2.0
 40
2.0
 40
3.0
 40
3.0
 40
3.0
 40
4.0
 40
4.0
 40
4.0
 40
5.0
 40
5.0
 40
5.0
 40
6.0
 40
6.0
 40
6.0
 40
7.0
 40
7.0
 40
7.0
 40
8.0
 40
8.0
 40
8.0
 40
9.0
 40
9.0
 40
9.0
 40
10.0
 40
10.0
 40
10.0
 40
11.0
 40
11.0
 40
11.0
 40
12.0
 40
12.0
 40
12.0
 40
13.0
 40
13.0
 40
13.0
 40
14.0
 40
14.0
 40
14.0
 40
15.0
 40
15.0
 40
15.0
 40
16.0
 40
16.0
 40
16.0
 40
17.0
 40
17.0
 40
17.0
 40
18.0
 40
18.0
 40
18.0
 40
19.0
 40
19.0
 40
19.0
 40
20.0
 40
20.0
 40
20.0
 40
21.0
 40
21.0
 40
21.0
 40
22.0
 40
22.0
 40
22.0
 40
23.0
 40
23.0
 40
23.0
 40
24.0
 40
24.0
 40
24.0
 40
25.0
 40
25.0
 40
25.0
 40
26.0
 40
26.0
 40
26.0
 40
27.0
 40
27.0
 40
27.0
 40
28.0
 40
28.0
 40
28.0
 40
29.0
 40
29.0
 40
29.0
 40
30.0
 40
30.0
 40
30.0
 40
30.0
 10
167.1827957348115
 20
237.4391939424215
 10
167.1827957348115
 20
237.4391939424215
 10
167.6907957218513
 20
237.5153939404775
 10
167.6907957218513
 20
237.5153939404775
 10
167.7669957199073
 20
237.2105939482536
 10
167.8685957173153
 20
237.0073939534376
 10
167.9955957140752
 20
236.8803939566777
 10
168.1479957101872
 20
236.7533939599177
 10
168.3257957056512
 20
236.6771939618617
 10
168.5289957004671
 20
236.6771939618617
 10
168.782995693987
 20
236.6771939618617
 10
168.9861956888029
 20
236.7533939599177
 10
169.1639956842669
 20
236.9311939553817
 10
169.3163956803789
 20
237.1089939508456
 10
169.4179956777868
 20
237.3121939456615
 10
169.4179956777868
 20
237.5661939391815
 10
169.4179956777868
 20
237.7947939333494
 10
169.3163956803789
 20
237.9979939281653
 10
169.1639956842669
 20
238.1503939242773
 10
169.011595688155
 20
238.3027939203892
 10
168.808395693339
 20
238.4043939177972
 10
168.5797956991711
 20
238.4043939177972
 10
168.4781957017631
 20
238.4043939177972
 10
168.3511957050031
 20
238.3789939184452
 10
168.1987957088912
 20
238.3281939197412
 10
168.1987957088912
 20
238.3281939197412
 10
168.2749957069472
 20
238.7853939080771
 10
168.2749957069472
 20
238.7853939080771
 10
168.3003957062991
 20
238.7853939080771
 10
168.3257957056512
 20
238.7853939080771
 10
168.3511957050031
 20
238.7853939080771
 10
168.5797956991711
 20
238.7853939080771
 10
168.757595694635
 20
238.8361939067811
 10
168.935395690099
 20
238.963193903541
 10
169.1131956855629
 20
239.064793900949
 10
169.2147956829709
 20
239.2679938957652
 10
169.2147956829709
 20
239.4965938899328
 10
169.2147956829709
 20
239.6997938847488
 10
169.1385956849149
 20
239.8521938808607
 10
169.011595688155
 20
239.9791938776207
 10
168.884595691395
 20
240.1061938743807
 10
168.732195695283
 20
240.1569938730847
 10
168.5289957004671
 20
240.1569938730847
 10
168.3257957056512
 20
240.1569938730847
 10
168.1479957101872
 20
240.1061938743807
 10
168.0209957134272
 20
239.9791938776207
 10
167.8685957173153
 20
239.8521938808607
 10
167.7923957192593
 20
239.6489938860448
 10
167.7415957205553
 20
239.3949938925249
 10
167.7415957205553
 20
239.3949938925249
 10
167.2335957335155
 20
239.4965938899328
 10
167.2335957335155
 20
239.4965938899328
 10
167.2843957322195
 20
239.8267938815088
 10
167.4367957283315
 20
240.1061938743807
 10
167.6653957224994
 20
240.3093938691966
 10
167.8939957166673
 20
240.4871938646606
 10
168.1733957095392
 20
240.5887938620685
 10
168.5035957011151
 20
240.5887938620685
 10
168.732195695283
 20
240.5887938620685
 10
168.9607956894509
 20
240.5379938633645
 10
169.1385956849149
 20
240.4363938659566
 10
169.3417956797308
 20
240.3347938685486
 10
169.4941956758428
 20
240.2077938717886
 10
169.5957956732508
 20
240.0299938763247
 10
169.6973956706587
 20
239.8521938808607
 10
169.7481956693627
 20
239.6743938853971
 10
169.7481956693627
 20
239.4965938899328
 10
169.7481956693627
 20
239.2933938951169
 10
169.6973956706587
 20
239.140993899005
 10
169.5957956732508
 20
238.988593902893
 10
169.4941956758428
 20
238.8361939067811
 10
169.3671956790828
 20
238.7091939100211
 10
169.1639956842669
 20
238.6329939119651
 10
169.4179956777868
 20
238.5567939139092
 10
169.6211956726027
 20
238.4551939165012
 10
169.7481956693627
 20
238.2519939216853
 10
169.9005956654747
 20
238.0741939262216
 10
169.9513956641786
 20
237.8455939320534
 10
169.9513956641786
 20
237.5661939391815
 10
169.9513956641786
 20
237.2105939482536
 10
169.8243956674187
 20
236.8803939566777
 10
169.5449956745468
 20
236.6263939631578
 10
169.2909956810269
 20
236.3723939696378
 10
168.935395690099
 20
236.2453939728779
 10
168.5289957004671
 20
236.2453939728779
 10
168.1479957101872
 20
236.2453939728779
 10
167.8431957179633
 20
236.3469939702858
 10
167.5891957244434
 20
236.5755939644538
 10
167.3605957302755
 20
236.8041939586217
 10
167.2081957341635
 20
237.0835939514936
 10
167.1827957348115
 20
237.4391939424215
 97
        0
 97
        1
330
B1
 75
     2
 76
     1
 98
        1
 10
0.0
 20
0.0
450
        0
451
        0
460
0.0
461
0.0
452
        0
462
0.0
453
        0
470

  0
SPLINE
  5
B3
330
70
100
AcDbEntity
  8
Capa 1
100
AcDbSpline
210
0.0
220
0.0
230
1.0
 70
     9
 71
     3
 72
    95
 73
    91
 74
     0
 42
0.0000000001
 43
0.0000000001
 40
0.0
 40
0.0
 40
0.0
 40
0.0
 40
1.0
 40
1.0
 40
1.0
 40
2.0
 40
2.0
 40
2.0
 40
3.0
 40
3.0
 40
3.0
 40
4.0
 40
4.0
 40
4.0
 40
5.0
 40
5.0
 40
5.0
 40
6.0
 40
6.0
 40
6.0
 40
7.0
 40
7.0
 40
7.0
 40
8.0
 40
8.0
 40
8.0
 40
9.0
 40
9.0
 40
9.0
 40
10.0
 40
10.0
 40
10.0
 40
11.0
 40
11.0
 40
11.0
 40
12.0
 40
12.0
 40
12.0
 40
13.0
 40
13.0
 40
13.0
 40
14.0
 40
14.0
 40
14.0
 40
15.0
 40
15.0
 40
15.0
 40
16.0
 40
16.0
 40
16.0
 40
17.0
 40
17.0
 40
17.0
 40
18.0
 40
18.0
 40
18.0
 40
19.0
 40
19.0
 40
19.0
 40
20.0
 40
20.0
 40
20.0
 40
21.0
 40
21.0
 40
21.0
 40
22.0
 40
22.0
 40
22.0
 40
23.0
 40
23.0
 40
23.0
 40
24.0
 40
24.0
 40
24.0
 40
25.0
 40
25.0
 40
25.0
 40
26.0
 40
26.0
 40
26.0
 40
27.0
 40
27.0
 40
27.0
 40
28.0
 40
28.0
 40
28.0
 40
29.0
 40
29.0
 40
29.0
 40
30.0
 40
30.0
 40
30.0
 40
30.0
 10
170.4847956505705
 20
237.4391939424215
 30
0.0
 10
170.4847956505705
 20
237.4391939424215
 30
0.0
 10
170.9927956376103
 20
237.5153939404775
 30
0.0
 10
170.9927956376103
 20
237.5153939404775
 30
0.0
 10
171.0689956356663
 20
237.2105939482536
 30
0.0
 10
171.1705956330743
 20
237.0073939534376
 30
0.0
 10
171.2975956298342
 20
236.8803939566777
 30
0.0
 10
171.4499956259462
 20
236.7533939599177
 30
0.0
 10
171.6277956214101
 20
236.6771939618617
 30
0.0
 10
171.8309956162261
 20
236.6771939618617
 30
0.0
 10
172.084995609746
 20
236.6771939618617
 30
0.0
 10
172.2881956045619
 20
236.7533939599177
 30
0.0
 10
172.4659956000259
 20
236.9311939553817
 30
0.0
 10
172.6183955961378
 20
237.1089939508456
 30
0.0
 10
172.7199955935458
 20
237.3121939456615
 30
0.0
 10
172.7199955935458
 20
237.5661939391815
 30
0.0
 10
172.7199955935458
 20
237.7947939333494
 30
0.0
 10
172.6183955961378
 20
237.9979939281653
 30
0.0
 10
172.4659956000259
 20
238.1503939242773
 30
0.0
 10
172.3135956039139
 20
238.3027939203892
 30
0.0
 10
172.110395609098
 20
238.4043939177972
 30
0.0
 10
171.88179561493
 20
238.4043939177972
 30
0.0
 10
171.7801956175221
 20
238.4043939177972
 30
0.0
 10
171.6531956207621
 20
238.3789939184452
 30
0.0
 10
171.5007956246502
 20
238.3281939197412
 30
0.0
 10
171.5007956246502
 20
238.3281939197412
 30
0.0
 10
171.5769956227061
 20
238.7853939080771
 30
0.0
 10
171.5769956227061
 20
238.7853939080771
 30
0.0
 10
171.6023956220581
 20
238.7853939080771
 30
0.0
 10
171.6277956214101
 20
238.7853939080771
 30
0.0
 10
171.6531956207621
 20
238.7853939080771
 30
0.0
 10
171.88179561493
 20
238.7853939080771
 30
0.0
 10
172.084995609746
 20
238.8361939067811
 30
0.0
 10
172.2627956052099
 20
238.963193903541
 30
0.0
 10
172.4405956006739
 20
239.064793900949
 30
0.0
 10
172.5167955987298
 20
239.2679938957652
 30
0.0
 10
172.5167955987298
 20
239.4965938899328
 30
0.0
 10
172.5167955987298
 20
239.6997938847488
 30
0.0
 10
172.4405956006739
 20
239.8521938808607
 30
0.0
 10
172.3135956039139
 20
239.9791938776207
 30
0.0
 10
172.1865956071539
 20
240.1061938743807
 30
0.0
 10
172.034195611042
 20
240.1569938730847
 30
0.0
 10
171.8309956162261
 20
240.1569938730847
 30
0.0
 10
171.6277956214101
 20
240.1569938730847
 30
0.0
 10
171.4499956259462
 20
240.1061938743807
 30
0.0
 10
171.3229956291862
 20
239.9791938776207
 30
0.0
 10
171.1705956330743
 20
239.8521938808607
 30
0.0
 10
171.0943956350183
 20
239.6489938860448
 30
0.0
 10
171.0435956363143
 20
239.3949938925249
 30
0.0
 10
171.0435956363143
 20
239.3949938925249
 30
0.0
 10
170.5355956492745
 20
239.4965938899328
 30
0.0
 10
170.5355956492745
 20
239.4965938899328
 30
0.0
 10
170.5863956479784
 20
239.8267938815088
 30
0.0
 10
170.7387956440904
 20
240.1061938743807
 30
0.0
 10
170.9673956382583
 20
240.3093938691966
 30
0.0
 10
171.1959956324262
 20
240.4871938646606
 30
0.0
 10
171.4753956252982
 20
240.5887938620685
 30
0.0
 10
171.8055956168741
 20
240.5887938620685
 30
0.0
 10
172.034195611042
 20
240.5887938620685
 30
0.0
 10
172.2627956052099
 20
240.5379938633645
 30
0.0
 10
172.4405956006739
 20
240.4363938659566
 30
0.0
 10
172.6437955954898
 20
240.3347938685486
 30
0.0
 10
172.7961955916018
 20
240.2077938717886
 30
0.0
 10
172.8977955890097
 20
240.0299938763247
 30
0.0
 10
172.9993955864177
 20
239.8521938808607
 30
0.0
 10
173.0501955851217
 20
239.6743938853971
 30
0.0
 10
173.0501955851217
 20
239.4965938899328
 30
0.0
 10
173.0501955851217
 20
239.2933938951169
 30
0.0
 10
172.9993955864177
 20
239.140993899005
 30
0.0
 10
172.8977955890097
 20
238.988593902893
 30
0.0
 10
172.7961955916018
 20
238.8361939067811
 30
0.0
 10
172.6691955948418
 20
238.7091939100211
 30
0.0
 10
172.4659956000259
 20
238.6329939119651
 30
0.0
 10
172.7199955935458
 20
238.5567939139092
 30
0.0
 10
172.9231955883617
 20
238.4551939165012
 30
0.0
 10
173.0501955851217
 20
238.2519939216853
 30
0.0
 10
173.2025955812336
 20
238.0741939262216
 30
0.0
 10
173.2533955799376
 20
237.8455939320534
 30
0.0
 10
173.2533955799376
 20
237.5661939391815
 30
0.0
 10
173.2533955799376
 20
237.2105939482536
 30
0.0
 10
173.1263955831776
 20
236.8803939566777
 30
0.0
 10
172.8469955903057
 20
236.6263939631578
 30
0.0
 10
172.5929955967858
 20
236.3723939696378
 30
0.0
 10
172.2373956058579
 20
236.2453939728779
 30
0.0
 10
171.8309956162261
 20
236.2453939728779
 30
0.0
 10
171.4499956259462
 20
236.2453939728779
 30
0.0
 10
171.1451956337223
 20
236.3469939702858
 30
0.0
 10
170.8911956402023
 20
236.5755939644538
 30
0.0
 10
170.6625956460344
 20
236.8041939586217
 30
0.0
 10
170.5101956499225
 20
237.0835939514936
 30
0.0
 10
170.4847956505705
 20
237.4391939424215
 30
0.0
  0
HATCH
  5
B4
330
70
100
AcDbEntity
  8
Capa 1
 62
   250
420
  1907995
440
 33554687
100
AcDbHatch
 10
0.0
 20
0.0
 30
0.0
210
0.0
220
0.0
230
1.0
  2
SOLID
 70
     1
 71
     1
 91
        1
 92
        1
 93
        1
 72
     4
 94
        3
 73
     0
 74
     0
 95
       95
 96
       91
 40
0.0
 40
0.0
 40
0.0
 40
0.0
 40
1.0
 40
1.0
 40
1.0
 40
2.0
 40
2.0
 40
2.0
 40
3.0
 40
3.0
 40
3.0
 40
4.0
 40
4.0
 40
4.0
 40
5.0
 40
5.0
 40
5.0
 40
6.0
 40
6.0
 40
6.0
 40
7.0
 40
7.0
 40
7.0
 40
8.0
 40
8.0
 40
8.0
 40
9.0
 40
9.0
 40
9.0
 40
10.0
 40
10.0
 40
10.0
 40
11.0
 40
11.0
 40
11.0
 40
12.0
 40
12.0
 40
12.0
 40
13.0
 40
13.0
 40
13.0
 40
14.0
 40
14.0
 40
14.0
 40
15.0
 40
15.0
 40
15.0
 40
16.0
 40
16.0
 40
16.0
 40
17.0
 40
17.0
 40
17.0
 40
18.0
 40
18.0
 40
18.0
 40
19.0
 40
19.0
 40
19.0
 40
20.0
 40
20.0
 40
20.0
 40
21.0
 40
21.0
 40
21.0
 40
22.0
 40
22.0
 40
22.0
 40
23.0
 40
23.0
 40
23.0
 40
24.0
 40
24.0
 40
24.0
 40
25.0
 40
25.0
 40
25.0
 40
26.0
 40
26.0
 40
26.0
 40
27.0
 40
27.0
 40
27.0
 40
28.0
 40
28.0
 40
28.0
 40
29.0
 40
29.0
 40
29.0
 40
30.0
 40
30.0
 40
30.0
 40
30.0
 10
170.4847956505705
 20
237.4391939424215
 10
170.4847956505705
 20
237.4391939424215
 10
170.9927956376103
 20
237.5153939404775
 10
170.9927956376103
 20
237.5153939404775
 10
171.0689956356663
 20
237.2105939482536
 10
171.1705956330743
 20
237.0073939534376
 10
171.2975956298342
 20
236.8803939566777
 10
171.4499956259462
 20
236.7533939599177
 10
171.6277956214101
 20
236.6771939618617
 10
171.8309956162261
 20
236.6771939618617
 10
172.084995609746
 20
236.6771939618617
 10
172.2881956045619
 20
236.7533939599177
 10
172.4659956000259
 20
236.9311939553817
 10
172.6183955961378
 20
237.1089939508456
 10
172.7199955935458
 20
237.3121939456615
 10
172.7199955935458
 20
237.5661939391815
 10
172.7199955935458
 20
237.7947939333494
 10
172.6183955961378
 20
237.9979939281653
 10
172.4659956000259
 20
238.1503939242773
 10
172.3135956039139
 20
238.3027939203892
 10
172.110395609098
 20
238.4043939177972
 10
171.88179561493
 20
238.4043939177972
 10
171.7801956175221
 20
238.4043939177972
 10
171.6531956207621
 20
238.3789939184452
 10
171.5007956246502
 20
238.3281939197412
 10
171.5007956246502
 20
238.3281939197412
 10
171.5769956227061
 20
238.7853939080771
 10
171.5769956227061
 20
238.7853939080771
 10
171.6023956220581
 20
238.7853939080771
 10
171.6277956214101
 20
238.7853939080771
 10
171.6531956207621
 20
238.7853939080771
 10
171.88179561493
 20
238.7853939080771
 10
172.084995609746
 20
238.8361939067811
 10
172.2627956052099
 20
238.963193903541
 10
172.4405956006739
 20
239.064793900949
 10
172.5167955987298
 20
239.2679938957652
 10
172.5167955987298
 20
239.4965938899328
 10
172.5167955987298
 20
239.6997938847488
 10
172.4405956006739
 20
239.8521938808607
 10
172.3135956039139
 20
239.9791938776207
 10
172.1865956071539
 20
240.1061938743807
 10
172.034195611042
 20
240.1569938730847
 10
171.8309956162261
 20
240.1569938730847
 10
171.6277956214101
 20
240.1569938730847
 10
171.4499956259462
 20
240.1061938743807
 10
171.3229956291862
 20
239.9791938776207
 10
171.1705956330743
 20
239.8521938808607
 10
171.0943956350183
 20
239.6489938860448
 10
171.0435956363143
 20
239.3949938925249
 10
171.0435956363143
 20
239.3949938925249
 10
170.5355956492745
 20
239.4965938899328
 10
170.5355956492745
 20
239.4965938899328
 10
170.5863956479784
 20
239.8267938815088
 10
170.7387956440904
 20
240.1061938743807
 10
170.9673956382583
 20
240.3093938691966
 10
171.1959956324262
 20
240.4871938646606
 10
171.4753956252982
 20
240.5887938620685
 10
171.8055956168741
 20
240.5887938620685
 10
172.034195611042
 20
240.5887938620685
 10
172.2627956052099
 20
240.5379938633645
 10
172.4405956006739
 20
240.4363938659566
 10
172.6437955954898
 20
240.3347938685486
 10
172.7961955916018
 20
240.2077938717886
 10
172.8977955890097
 20
240.0299938763247
 10
172.9993955864177
 20
239.8521938808607
 10
173.0501955851217
 20
239.6743938853971
 10
173.0501955851217
 20
239.4965938899328
 10
173.0501955851217
 20
239.2933938951169
 10
172.9993955864177
 20
239.140993899005
 10
172.8977955890097
 20
238.988593902893
 10
172.7961955916018
 20
238.8361939067811
 10
172.6691955948418
 20
238.7091939100211
 10
172.4659956000259
 20
238.6329939119651
 10
172.7199955935458
 20
238.5567939139092
 10
172.9231955883617
 20
238.4551939165012
 10
173.0501955851217
 20
238.2519939216853
 10
173.2025955812336
 20
238.0741939262216
 10
173.2533955799376
 20
237.8455939320534
 10
173.2533955799376
 20
237.5661939391815
 10
173.2533955799376
 20
237.2105939482536
 10
173.1263955831776
 20
236.8803939566777
 10
172.8469955903057
 20
236.6263939631578
 10
172.5929955967858
 20
236.3723939696378
 10
172.2373956058579
 20
236.2453939728779
 10
171.8309956162261
 20
236.2453939728779
 10
171.4499956259462
 20
236.2453939728779
 10
171.1451956337223
 20
236.3469939702858
 10
170.8911956402023
 20
236.5755939644538
 10
170.6625956460344
 20
236.8041939586217
 10
170.5101956499225
 20
237.0835939514936
 10
170.4847956505705
 20
237.4391939424215
 97
        0
 97
        1
330
B3
 75
     2
 76
     1
 98
        1
 10
0.0
 20
0.0
450
        0
451
        0
460
0.0
461
0.0
452
        0
462
0.0
453
        0
470

  0
SPLINE
  5
B5
330
70
100
AcDbEntity
  8
Capa 1
100
AcDbSpline
210
0.0
220
0.0
230
1.0
 70
    11
 71
     3
 72
    56
 73
    52
 74
     0
 42
0.0000000001
 43
0.0000000001
 40
0.0
 40
0.0
 40
0.0
 40
0.0
 40
1.0
 40
1.0
 40
1.0
 40
2.0
 40
2.0
 40
2.0
 40
3.0
 40
3.0
 40
3.0
 40
4.0
 40
4.0
 40
4.0
 40
5.0
 40
5.0
 40
5.0
 40
6.0
 40
6.0
 40
6.0
 40
7.0
 40
7.0
 40
7.0
 40
8.0
 40
8.0
 40
8.0
 40
9.0
 40
9.0
 40
9.0
 40
10.0
 40
10.0
 40
10.0
 40
11.0
 40
11.0
 40
11.0
 40
12.0
 40
12.0
 40
12.0
 40
13.0
 40
13.0
 40
13.0
 40
14.0
 40
14.0
 40
14.0
 40
15.0
 40
15.0
 40
15.0
 40
16.0
 40
16.0
 40
16.0
 40
17.0
 40
17.0
 40
17.0
 40
17.0
 10
84.1247978537976
 20
189.1537951742846
 30
0.0
 10
84.1247978537976
 20
189.1537951742846
 30
0.0
 10
83.97239785768565
 20
188.7219951853008
 30
0.0
 10
83.97239785768565
 20
188.7219951853008
 30
0.0
 10
83.97239785768565
 20
188.7219951853008
 30
0.0
 10
83.61679786675777
 20
188.8489951820607
 30
0.0
 10
83.61679786675777
 20
188.8489951820607
 30
0.0
 10
83.61679786675777
 20
188.8489951820607
 30
0.0
 10
83.87079786027769
 20
189.5601951639165
 30
0.0
 10
83.87079786027769
 20
189.5601951639165
 30
0.0
 10
83.59139786740577
 20
189.7633951587324
 30
0.0
 10
83.36279787323784
 20
189.9411951541964
 30
0.0
 10
83.23579787647789
 20
190.0935951503083
 30
0.0
 10
83.08339788036594
 20
190.2459951464203
 30
0.0
 10
82.95639788360597
 20
190.4745951405882
 30
0.0
 10
82.85479788619801
 20
190.7285951341081
 30
0.0
 10
82.67699789073406
 20
191.13499512374
 30
0.0
 10
82.60079789267809
 20
191.5159951140199
 30
0.0
 10
82.62619789203007
 20
191.8969951042998
 30
0.0
 10
82.65159789138207
 20
192.3033950939317
 30
0.0
 10
82.77859788814202
 20
192.6335950855075
 30
0.0
 10
83.00719788230995
 20
192.9129950783795
 30
0.0
 10
83.21039787712589
 20
193.1923950712514
 30
0.0
 10
83.51519786934979
 20
193.4209950654193
 30
0.0
 10
83.84539786092569
 20
193.5733950615313
 30
0.0
 10
83.94699785833365
 20
193.5987950608832
 30
0.0
 10
84.04859785574164
 20
193.6495950595872
 30
0.0
 10
84.1247978537976
 20
193.6749950589392
 30
0.0
 10
84.1247978537976
 20
193.6749950589392
 30
0.0
 10
84.1247978537976
 20
193.1415950725474
 30
0.0
 10
84.1247978537976
 20
193.1415950725474
 30
0.0
 10
84.09939785444562
 20
193.1415950725474
 30
0.0
 10
84.07399785509362
 20
193.1415950725474
 30
0.0
 10
84.04859785574164
 20
193.1161950731954
 30
0.0
 10
83.66759786546174
 20
192.9637950770834
 30
0.0
 10
83.38819787258984
 20
192.6843950842115
 30
0.0
 10
83.26119787582987
 20
192.3033950939317
 30
0.0
 10
83.10879787971792
 20
191.9477951030038
 30
0.0
 10
83.1595978784219
 20
191.4905951146679
 30
0.0
 10
83.38819787258984
 20
190.9825951276281
 30
0.0
 10
83.4643978706458
 20
190.7539951334601
 30
0.0
 10
83.56599786805379
 20
190.6015951373482
 30
0.0
 10
83.66759786546174
 20
190.4491951412362
 30
0.0
 10
83.74379786351772
 20
190.3475951438283
 30
0.0
 10
83.87079786027769
 20
190.2205951470683
 30
0.0
 10
84.04859785574164
 20
190.0935951503083
 30
0.0
 10
84.04859785574164
 20
190.0935951503083
 30
0.0
 10
84.1247978537976
 20
190.3221951444763
 30
0.0
 10
84.1247978537976
 20
190.3221951444763
 30
0.0
 10
84.1247978537976
 20
190.3221951444763
 30
0.0
 10
84.1247978537976
 20
189.1537951742846
 30
0.0
 10
84.1247978537976
 20
189.1537951742846
 30
0.0
  0
SPLINE
  5
B6
330
70
100
AcDbEntity
  8
Capa 1
100
AcDbSpline
210
0.0
220
0.0
230
1.0
 70
     9
 71
     3
 72
    23
 73
    19
 74
     0
 42
0.0000000001
 43
0.0000000001
 40
0.0
 40
0.0
 40
0.0
 40
0.0
 40
1.0
 40
1.0
 40
1.0
 40
2.0
 40
2.0
 40
2.0
 40
3.0
 40
3.0
 40
3.0
 40
4.0
 40
4.0
 40
4.0
 40
5.0
 40
5.0
 40
5.0
 40
6.0
 40
6.0
 40
6.0
 40
6.0
 10
84.1247978537976
 20
193.6749950589392
 30
0.0
 10
84.25179785055757
 20
193.7003950582912
 30
0.0
 10
84.40419784666952
 20
193.7257950576432
 30
0.0
 10
84.53119784342948
 20
193.7511950569952
 30
0.0
 10
84.58199784213347
 20
193.7511950569952
 30
0.0
 10
84.65819784018945
 20
193.7511950569952
 30
0.0
 10
84.73439783824542
 20
193.7511950569952
 30
0.0
 10
84.73439783824542
 20
193.7511950569952
 30
0.0
 10
84.73439783824542
 20
193.2431950699553
 30
0.0
 10
84.73439783824542
 20
193.2431950699553
 30
0.0
 10
84.65819784018945
 20
193.2431950699553
 30
0.0
 10
84.58199784213347
 20
193.2431950699553
 30
0.0
 10
84.53119784342948
 20
193.2431950699553
 30
0.0
 10
84.40419784666952
 20
193.2431950699553
 30
0.0
 10
84.27719784990955
 20
193.2177950706034
 30
0.0
 10
84.1247978537976
 20
193.1415950725474
 30
0.0
 10
84.1247978537976
 20
193.1415950725474
 30
0.0
 10
84.1247978537976
 20
193.6749950589392
 30
0.0
 10
84.1247978537976
 20
193.6749950589392
 30
0.0
  0
SPLINE
  5
B7
330
70
100
AcDbEntity
  8
Capa 1
100
AcDbSpline
210
0.0
220
0.0
230
1.0
 70
     9
 71
     3
 72
    32
 73
    28
 74
     0
 42
0.0000000001
 43
0.0000000001
 40
0.0
 40
0.0
 40
0.0
 40
0.0
 40
1.0
 40
1.0
 40
1.0
 40
2.0
 40
2.0
 40
2.0
 40
3.0
 40
3.0
 40
3.0
 40
4.0
 40
4.0
 40
4.0
 40
5.0
 40
5.0
 40
5.0
 40
6.0
 40
6.0
 40
6.0
 40
7.0
 40
7.0
 40
7.0
 40
8.0
 40
8.0
 40
8.0
 40
9.0
 40
9.0
 40
9.0
 40
9.0
 10
84.73439783824542
 20
189.3569951691006
 30
0.0
 10
84.58199784213347
 20
189.3569951691006
 30
0.0
 10
84.40419784666952
 20
189.3823951684526
 30
0.0
 10
84.22639785120557
 20
189.4331951671565
 30
0.0
 10
84.22639785120557
 20
189.4331951671565
 30
0.0
 10
84.1247978537976
 20
189.1537951742846
 30
0.0
 10
84.1247978537976
 20
189.1537951742846
 30
0.0
 10
84.1247978537976
 20
189.1537951742846
 30
0.0
 10
84.1247978537976
 20
190.3221951444763
 30
0.0
 10
84.1247978537976
 20
190.3221951444763
 30
0.0
 10
84.1247978537976
 20
190.3221951444763
 30
0.0
 10
84.73439783824542
 20
192.1255950984677
 30
0.0
 10
84.73439783824542
 20
192.1255950984677
 30
0.0
 10
84.73439783824542
 20
192.1255950984677
 30
0.0
 10
84.73439783824542
 20
190.9571951282761
 30
0.0
 10
84.73439783824542
 20
190.9571951282761
 30
0.0
 10
84.73439783824542
 20
190.9571951282761
 30
0.0
 10
84.37879784731753
 20
189.9157951548444
 30
0.0
 10
84.37879784731753
 20
189.9157951548444
 30
0.0
 10
84.50579784407748
 20
189.8649951561404
 30
0.0
 10
84.63279784083743
 20
189.8649951561404
 30
0.0
 10
84.73439783824542
 20
189.8395951567884
 30
0.0
 10
84.73439783824542
 20
189.8395951567884
 30
0.0
 10
84.73439783824542
 20
189.3569951691006
 30
0.0
 10
84.73439783824542
 20
189.3569951691006
 30
0.0
 10
84.73439783824542
 20
189.3569951691006
 30
0.0
 10
84.73439783824542
 20
189.3569951691006
 30
0.0
 10
84.73439783824542
 20
189.3569951691006
 30
0.0
  0
SPLINE
  5
B8
330
70
100
AcDbEntity
  8
Capa 1
100
AcDbSpline
210
0.0
220
0.0
230
1.0
 70
     9
 71
     3
 72
    23
 73
    19
 74
     0
 42
0.0000000001
 43
0.0000000001
 40
0.0
 40
0.0
 40
0.0
 40
0.0
 40
1.0
 40
1.0
 40
1.0
 40
2.0
 40
2.0
 40
2.0
 40
3.0
 40
3.0
 40
3.0
 40
4.0
 40
4.0
 40
4.0
 40
5.0
 40
5.0
 40
5.0
 40
6.0
 40
6.0
 40
6.0
 40
6.0
 10
85.31859782334123
 20
189.4331951671565
 30
0.0
 10
85.16619782722928
 20
189.3823951684526
 30
0.0
 10
85.01379783111733
 20
189.3569951691006
 30
0.0
 10
84.88679783435705
 20
189.3569951691006
 30
0.0
 10
84.83599783565338
 20
189.3315951697486
 30
0.0
 10
84.7851978369494
 20
189.3315951697486
 30
0.0
 10
84.73439783824542
 20
189.3569951691006
 30
0.0
 10
84.73439783824542
 20
189.3569951691006
 30
0.0
 10
84.73439783824542
 20
189.8395951567884
 30
0.0
 10
84.73439783824542
 20
189.8395951567884
 30
0.0
 10
84.7851978369494
 20
189.8395951567884
 30
0.0
 10
84.81059783630138
 20
189.8395951567884
 30
0.0
 10
84.86139783500538
 20
189.8395951567884
 30
0.0
 10
85.01379783111733
 20
189.8395951567884
 30
0.0
 10
85.16619782722928
 20
189.8903951554924
 30
0.0
 10
85.31859782334123
 20
189.9411951541964
 30
0.0
 10
85.31859782334123
 20
189.9411951541964
 30
0.0
 10
85.31859782334123
 20
189.4331951671565
 30
0.0
 10
85.31859782334123
 20
189.4331951671565
 30
0.0
  0
SPLINE
  5
B9
330
70
100
AcDbEntity
  8
Capa 1
100
AcDbSpline
210
0.0
220
0.0
230
1.0
 70
    11
 71
     3
 72
    32
 73
    28
 74
     0
 42
0.0000000001
 43
0.0000000001
 40
0.0
 40
0.0
 40
0.0
 40
0.0
 40
1.0
 40
1.0
 40
1.0
 40
2.0
 40
2.0
 40
2.0
 40
3.0
 40
3.0
 40
3.0
 40
4.0
 40
4.0
 40
4.0
 40
5.0
 40
5.0
 40
5.0
 40
6.0
 40
6.0
 40
6.0
 40
7.0
 40
7.0
 40
7.0
 40
8.0
 40
8.0
 40
8.0
 40
9.0
 40
9.0
 40
9.0
 40
9.0
 10
85.24239782528525
 20
193.6495950595872
 30
0.0
 10
85.24239782528525
 20
193.6495950595872
 30
0.0
 10
85.31859782334123
 20
193.8781950537555
 30
0.0
 10
85.31859782334123
 20
193.8781950537555
 30
0.0
 10
85.31859782334123
 20
193.8781950537555
 30
0.0
 10
85.31859782334123
 20
192.7097950835635
 30
0.0
 10
85.31859782334123
 20
192.7097950835635
 30
0.0
 10
85.31859782334123
 20
192.7097950835635
 30
0.0
 10
84.73439783824542
 20
190.9571951282761
 30
0.0
 10
84.73439783824542
 20
190.9571951282761
 30
0.0
 10
84.73439783824542
 20
190.9571951282761
 30
0.0
 10
84.73439783824542
 20
192.1255950984677
 30
0.0
 10
84.73439783824542
 20
192.1255950984677
 30
0.0
 10
84.73439783824542
 20
192.1255950984677
 30
0.0
 10
85.06459782982132
 20
193.1669950718994
 30
0.0
 10
85.06459782982132
 20
193.1669950718994
 30
0.0
 10
84.93759783306135
 20
193.1923950712514
 30
0.0
 10
84.83599783565338
 20
193.2177950706034
 30
0.0
 10
84.73439783824542
 20
193.2431950699553
 30
0.0
 10
84.73439783824542
 20
193.2431950699553
 30
0.0
 10
84.73439783824542
 20
193.7511950569952
 30
0.0
 10
84.73439783824542
 20
193.7511950569952
 30
0.0
 10
84.88679783435705
 20
193.7257950576432
 30
0.0
 10
85.06459782982132
 20
193.7003950582912
 30
0.0
 10
85.24239782528525
 20
193.6495950595872
 30
0.0
 10
85.24239782528525
 20
193.6495950595872
 30
0.0
 10
85.24239782528525
 20
193.6495950595872
 30
0.0
 10
85.24239782528525
 20
193.6495950595872
 30
0.0
  0
SPLINE
  5
BA
330
70
100
AcDbEntity
  8
Capa 1
100
AcDbSpline
210
0.0
220
0.0
230
1.0
 70
    11
 71
     3
 72
    53
 73
    49
 74
     0
 42
0.0000000001
 43
0.0000000001
 40
0.0
 40
0.0
 40
0.0
 40
0.0
 40
1.0
 40
1.0
 40
1.0
 40
2.0
 40
2.0
 40
2.0
 40
3.0
 40
3.0
 40
3.0
 40
4.0
 40
4.0
 40
4.0
 40
5.0
 40
5.0
 40
5.0
 40
6.0
 40
6.0
 40
6.0
 40
7.0
 40
7.0
 40
7.0
 40
8.0
 40
8.0
 40
8.0
 40
9.0
 40
9.0
 40
9.0
 40
10.0
 40
10.0
 40
10.0
 40
11.0
 40
11.0
 40
11.0
 40
12.0
 40
12.0
 40
12.0
 40
13.0
 40
13.0
 40
13.0
 40
14.0
 40
14.0
 40
14.0
 40
15.0
 40
15.0
 40
15.0
 40
16.0
 40
16.0
 40
16.0
 40
16.0
 10
85.31859782334123
 20
193.8781950537555
 30
0.0
 10
85.31859782334123
 20
193.8781950537555
 30
0.0
 10
85.47099781945318
 20
194.360795041443
 30
0.0
 10
85.47099781945318
 20
194.360795041443
 30
0.0
 10
85.47099781945318
 20
194.360795041443
 30
0.0
 10
85.82659781038108
 20
194.233795044683
 30
0.0
 10
85.82659781038108
 20
194.233795044683
 30
0.0
 10
85.82659781038108
 20
194.233795044683
 30
0.0
 10
85.59799781621313
 20
193.5225950628273
 30
0.0
 10
85.59799781621313
 20
193.5225950628273
 30
0.0
 10
85.85199780973306
 20
193.3447950673633
 30
0.0
 10
86.02979780519701
 20
193.1923950712514
 30
0.0
 10
86.15679780195696
 20
193.0399950751394
 30
0.0
 10
86.33459779742091
 20
192.8621950796755
 30
0.0
 10
86.46159779418088
 20
192.6081950861556
 30
0.0
 10
86.58859779094084
 20
192.3287950932836
 30
0.0
 10
86.76639778640478
 20
191.9477951030038
 30
0.0
 10
86.81719778510876
 20
191.5413951133719
 30
0.0
 10
86.79179778575678
 20
191.160395123092
 30
0.0
 10
86.76639778640478
 20
190.7793951328121
 30
0.0
 10
86.63939778964481
 20
190.4491951412362
 30
0.0
 10
86.43619779482888
 20
190.1697951483643
 30
0.0
 10
86.20759780066094
 20
189.8903951554924
 30
0.0
 10
85.92819780778903
 20
189.6617951613245
 30
0.0
 10
85.59799781621313
 20
189.5347951645645
 30
0.0
 10
85.49639781880548
 20
189.4839951658605
 30
0.0
 10
85.4201978207492
 20
189.4585951665085
 30
0.0
 10
85.31859782334123
 20
189.4331951671565
 30
0.0
 10
85.31859782334123
 20
189.4331951671565
 30
0.0
 10
85.31859782334123
 20
189.9411951541964
 30
0.0
 10
85.31859782334123
 20
189.9411951541964
 30
0.0
 10
85.34399782269323
 20
189.9411951541964
 30
0.0
 10
85.36939782204521
 20
189.9411951541964
 30
0.0
 10
85.3947978213972
 20
189.9665951535484
 30
0.0
 10
85.77579781167708
 20
190.1189951496603
 30
0.0
 10
86.02979780519701
 20
190.3983951425322
 30
0.0
 10
86.18219780130896
 20
190.7793951328121
 30
0.0
 10
86.30919779806893
 20
191.160395123092
 30
0.0
 10
86.25839779936493
 20
191.6175951114279
 30
0.0
 10
86.05519780454899
 20
192.1001950991157
 30
0.0
 10
85.90279780843705
 20
192.4811950893956
 30
0.0
 10
85.67419781426911
 20
192.7605950822675
 30
0.0
 10
85.4201978207492
 20
192.9891950764354
 30
0.0
 10
85.4201978207492
 20
192.9891950764354
 30
0.0
 10
85.31859782334123
 20
192.7097950835635
 30
0.0
 10
85.31859782334123
 20
192.7097950835635
 30
0.0
 10
85.31859782334123
 20
192.7097950835635
 30
0.0
 10
85.31859782334123
 20
193.8781950537555
 30
0.0
 10
85.31859782334123
 20
193.8781950537555
 30
0.0
  0
HATCH
  5
BB
330
70
100
AcDbEntity
  8
Capa 1
 62
   250
420
  1907995
440
 33554687
100
AcDbHatch
 10
0.0
 20
0.0
 30
0.0
210
0.0
220
0.0
230
1.0
  2
SOLID
 70
     1
 71
     1
 91
        6
 92
        1
 93
        1
 72
     4
 94
        3
 73
     0
 74
     0
 95
       56
 96
       52
 40
0.0
 40
0.0
 40
0.0
 40
0.0
 40
1.0
 40
1.0
 40
1.0
 40
2.0
 40
2.0
 40
2.0
 40
3.0
 40
3.0
 40
3.0
 40
4.0
 40
4.0
 40
4.0
 40
5.0
 40
5.0
 40
5.0
 40
6.0
 40
6.0
 40
6.0
 40
7.0
 40
7.0
 40
7.0
 40
8.0
 40
8.0
 40
8.0
 40
9.0
 40
9.0
 40
9.0
 40
10.0
 40
10.0
 40
10.0
 40
11.0
 40
11.0
 40
11.0
 40
12.0
 40
12.0
 40
12.0
 40
13.0
 40
13.0
 40
13.0
 40
14.0
 40
14.0
 40
14.0
 40
15.0
 40
15.0
 40
15.0
 40
16.0
 40
16.0
 40
16.0
 40
17.0
 40
17.0
 40
17.0
 40
17.0
 10
84.1247978537976
 20
189.1537951742846
 10
84.1247978537976
 20
189.1537951742846
 10
83.97239785768565
 20
188.7219951853008
 10
83.97239785768565
 20
188.7219951853008
 10
83.97239785768565
 20
188.7219951853008
 10
83.61679786675777
 20
188.8489951820607
 10
83.61679786675777
 20
188.8489951820607
 10
83.61679786675777
 20
188.8489951820607
 10
83.87079786027769
 20
189.5601951639165
 10
83.87079786027769
 20
189.5601951639165
 10
83.59139786740577
 20
189.7633951587324
 10
83.36279787323784
 20
189.9411951541964
 10
83.23579787647789
 20
190.0935951503083
 10
83.08339788036594
 20
190.2459951464203
 10
82.95639788360597
 20
190.4745951405882
 10
82.85479788619801
 20
190.7285951341081
 10
82.67699789073406
 20
191.13499512374
 10
82.60079789267809
 20
191.5159951140199
 10
82.62619789203007
 20
191.8969951042998
 10
82.65159789138207
 20
192.3033950939317
 10
82.77859788814202
 20
192.6335950855075
 10
83.00719788230995
 20
192.9129950783795
 10
83.21039787712589
 20
193.1923950712514
 10
83.51519786934979
 20
193.4209950654193
 10
83.84539786092569
 20
193.5733950615313
 10
83.94699785833365
 20
193.5987950608832
 10
84.04859785574164
 20
193.6495950595872
 10
84.1247978537976
 20
193.6749950589392
 10
84.1247978537976
 20
193.6749950589392
 10
84.1247978537976
 20
193.1415950725474
 10
84.1247978537976
 20
193.1415950725474
 10
84.09939785444562
 20
193.1415950725474
 10
84.07399785509362
 20
193.1415950725474
 10
84.04859785574164
 20
193.1161950731954
 10
83.66759786546174
 20
192.9637950770834
 10
83.38819787258984
 20
192.6843950842115
 10
83.26119787582987
 20
192.3033950939317
 10
83.10879787971792
 20
191.9477951030038
 10
83.1595978784219
 20
191.4905951146679
 10
83.38819787258984
 20
190.9825951276281
 10
83.4643978706458
 20
190.7539951334601
 10
83.56599786805379
 20
190.6015951373482
 10
83.66759786546174
 20
190.4491951412362
 10
83.74379786351772
 20
190.3475951438283
 10
83.87079786027769
 20
190.2205951470683
 10
84.04859785574164
 20
190.0935951503083
 10
84.04859785574164
 20
190.0935951503083
 10
84.1247978537976
 20
190.3221951444763
 10
84.1247978537976
 20
190.3221951444763
 10
84.1247978537976
 20
190.3221951444763
 10
84.1247978537976
 20
189.1537951742846
 10
84.1247978537976
 20
189.1537951742846
 97
        0
 97
        1
330
B5
 92
        1
 93
        1
 72
     4
 94
        3
 73
     0
 74
     0
 95
       23
 96
       19
 40
0.0
 40
0.0
 40
0.0
 40
0.0
 40
1.0
 40
1.0
 40
1.0
 40
2.0
 40
2.0
 40
2.0
 40
3.0
 40
3.0
 40
3.0
 40
4.0
 40
4.0
 40
4.0
 40
5.0
 40
5.0
 40
5.0
 40
6.0
 40
6.0
 40
6.0
 40
6.0
 10
84.1247978537976
 20
193.6749950589392
 10
84.25179785055757
 20
193.7003950582912
 10
84.40419784666952
 20
193.7257950576432
 10
84.53119784342948
 20
193.7511950569952
 10
84.58199784213347
 20
193.7511950569952
 10
84.65819784018945
 20
193.7511950569952
 10
84.73439783824542
 20
193.7511950569952
 10
84.73439783824542
 20
193.7511950569952
 10
84.73439783824542
 20
193.2431950699553
 10
84.73439783824542
 20
193.2431950699553
 10
84.65819784018945
 20
193.2431950699553
 10
84.58199784213347
 20
193.2431950699553
 10
84.53119784342948
 20
193.2431950699553
 10
84.40419784666952
 20
193.2431950699553
 10
84.27719784990955
 20
193.2177950706034
 10
84.1247978537976
 20
193.1415950725474
 10
84.1247978537976
 20
193.1415950725474
 10
84.1247978537976
 20
193.6749950589392
 10
84.1247978537976
 20
193.6749950589392
 97
        0
 97
        1
330
B6
 92
        1
 93
        1
 72
     4
 94
        3
 73
     0
 74
     0
 95
       32
 96
       28
 40
0.0
 40
0.0
 40
0.0
 40
0.0
 40
1.0
 40
1.0
 40
1.0
 40
2.0
 40
2.0
 40
2.0
 40
3.0
 40
3.0
 40
3.0
 40
4.0
 40
4.0
 40
4.0
 40
5.0
 40
5.0
 40
5.0
 40
6.0
 40
6.0
 40
6.0
 40
7.0
 40
7.0
 40
7.0
 40
8.0
 40
8.0
 40
8.0
 40
9.0
 40
9.0
 40
9.0
 40
9.0
 10
84.73439783824542
 20
189.3569951691006
 10
84.58199784213347
 20
189.3569951691006
 10
84.40419784666952
 20
189.3823951684526
 10
84.22639785120557
 20
189.4331951671565
 10
84.22639785120557
 20
189.4331951671565
 10
84.1247978537976
 20
189.1537951742846
 10
84.1247978537976
 20
189.1537951742846
 10
84.1247978537976
 20
189.1537951742846
 10
84.1247978537976
 20
190.3221951444763
 10
84.1247978537976
 20
190.3221951444763
 10
84.1247978537976
 20
190.3221951444763
 10
84.73439783824542
 20
192.1255950984677
 10
84.73439783824542
 20
192.1255950984677
 10
84.73439783824542
 20
192.1255950984677
 10
84.73439783824542
 20
190.9571951282761
 10
84.73439783824542
 20
190.9571951282761
 10
84.73439783824542
 20
190.9571951282761
 10
84.37879784731753
 20
189.9157951548444
 10
84.37879784731753
 20
189.9157951548444
 10
84.50579784407748
 20
189.8649951561404
 10
84.63279784083743
 20
189.8649951561404
 10
84.73439783824542
 20
189.8395951567884
 10
84.73439783824542
 20
189.8395951567884
 10
84.73439783824542
 20
189.3569951691006
 10
84.73439783824542
 20
189.3569951691006
 10
84.73439783824542
 20
189.3569951691006
 10
84.73439783824542
 20
189.3569951691006
 10
84.73439783824542
 20
189.3569951691006
 97
        0
 97
        1
330
B7
 92
        1
 93
        1
 72
     4
 94
        3
 73
     0
 74
     0
 95
       23
 96
       19
 40
0.0
 40
0.0
 40
0.0
 40
0.0
 40
1.0
 40
1.0
 40
1.0
 40
2.0
 40
2.0
 40
2.0
 40
3.0
 40
3.0
 40
3.0
 40
4.0
 40
4.0
 40
4.0
 40
5.0
 40
5.0
 40
5.0
 40
6.0
 40
6.0
 40
6.0
 40
6.0
 10
85.31859782334123
 20
189.4331951671565
 10
85.16619782722928
 20
189.3823951684526
 10
85.01379783111733
 20
189.3569951691006
 10
84.88679783435705
 20
189.3569951691006
 10
84.83599783565338
 20
189.3315951697486
 10
84.7851978369494
 20
189.3315951697486
 10
84.73439783824542
 20
189.3569951691006
 10
84.73439783824542
 20
189.3569951691006
 10
84.73439783824542
 20
189.8395951567884
 10
84.73439783824542
 20
189.8395951567884
 10
84.7851978369494
 20
189.8395951567884
 10
84.81059783630138
 20
189.8395951567884
 10
84.86139783500538
 20
189.8395951567884
 10
85.01379783111733
 20
189.8395951567884
 10
85.16619782722928
 20
189.8903951554924
 10
85.31859782334123
 20
189.9411951541964
 10
85.31859782334123
 20
189.9411951541964
 10
85.31859782334123
 20
189.4331951671565
 10
85.31859782334123
 20
189.4331951671565
 97
        0
 97
        1
330
B8
 92
        1
 93
        1
 72
     4
 94
        3
 73
     0
 74
     0
 95
       32
 96
       28
 40
0.0
 40
0.0
 40
0.0
 40
0.0
 40
1.0
 40
1.0
 40
1.0
 40
2.0
 40
2.0
 40
2.0
 40
3.0
 40
3.0
 40
3.0
 40
4.0
 40
4.0
 40
4.0
 40
5.0
 40
5.0
 40
5.0
 40
6.0
 40
6.0
 40
6.0
 40
7.0
 40
7.0
 40
7.0
 40
8.0
 40
8.0
 40
8.0
 40
9.0
 40
9.0
 40
9.0
 40
9.0
 10
85.24239782528525
 20
193.6495950595872
 10
85.24239782528525
 20
193.6495950595872
 10
85.31859782334123
 20
193.8781950537555
 10
85.31859782334123
 20
193.8781950537555
 10
85.31859782334123
 20
193.8781950537555
 10
85.31859782334123
 20
192.7097950835635
 10
85.31859782334123
 20
192.7097950835635
 10
85.31859782334123
 20
192.7097950835635
 10
84.73439783824542
 20
190.9571951282761
 10
84.73439783824542
 20
190.9571951282761
 10
84.73439783824542
 20
190.9571951282761
 10
84.73439783824542
 20
192.1255950984677
 10
84.73439783824542
 20
192.1255950984677
 10
84.73439783824542
 20
192.1255950984677
 10
85.06459782982132
 20
193.1669950718994
 10
85.06459782982132
 20
193.1669950718994
 10
84.93759783306135
 20
193.1923950712514
 10
84.83599783565338
 20
193.2177950706034
 10
84.73439783824542
 20
193.2431950699553
 10
84.73439783824542
 20
193.2431950699553
 10
84.73439783824542
 20
193.7511950569952
 10
84.73439783824542
 20
193.7511950569952
 10
84.88679783435705
 20
193.7257950576432
 10
85.06459782982132
 20
193.7003950582912
 10
85.24239782528525
 20
193.6495950595872
 10
85.24239782528525
 20
193.6495950595872
 10
85.24239782528525
 20
193.6495950595872
 10
85.24239782528525
 20
193.6495950595872
 97
        0
 97
        1
330
B9
 92
        1
 93
        1
 72
     4
 94
        3
 73
     0
 74
     0
 95
       53
 96
       49
 40
0.0
 40
0.0
 40
0.0
 40
0.0
 40
1.0
 40
1.0
 40
1.0
 40
2.0
 40
2.0
 40
2.0
 40
3.0
 40
3.0
 40
3.0
 40
4.0
 40
4.0
 40
4.0
 40
5.0
 40
5.0
 40
5.0
 40
6.0
 40
6.0
 40
6.0
 40
7.0
 40
7.0
 40
7.0
 40
8.0
 40
8.0
 40
8.0
 40
9.0
 40
9.0
 40
9.0
 40
10.0
 40
10.0
 40
10.0
 40
11.0
 40
11.0
 40
11.0
 40
12.0
 40
12.0
 40
12.0
 40
13.0
 40
13.0
 40
13.0
 40
14.0
 40
14.0
 40
14.0
 40
15.0
 40
15.0
 40
15.0
 40
16.0
 40
16.0
 40
16.0
 40
16.0
 10
85.31859782334123
 20
193.8781950537555
 10
85.31859782334123
 20
193.8781950537555
 10
85.47099781945318
 20
194.360795041443
 10
85.47099781945318
 20
194.360795041443
 10
85.47099781945318
 20
194.360795041443
 10
85.82659781038108
 20
194.233795044683
 10
85.82659781038108
 20
194.233795044683
 10
85.82659781038108
 20
194.233795044683
 10
85.59799781621313
 20
193.5225950628273
 10
85.59799781621313
 20
193.5225950628273
 10
85.85199780973306
 20
193.3447950673633
 10
86.02979780519701
 20
193.1923950712514
 10
86.15679780195696
 20
193.0399950751394
 10
86.33459779742091
 20
192.8621950796755
 10
86.46159779418088
 20
192.6081950861556
 10
86.58859779094084
 20
192.3287950932836
 10
86.76639778640478
 20
191.9477951030038
 10
86.81719778510876
 20
191.5413951133719
 10
86.79179778575678
 20
191.160395123092
 10
86.76639778640478
 20
190.7793951328121
 10
86.63939778964481
 20
190.4491951412362
 10
86.43619779482888
 20
190.1697951483643
 10
86.20759780066094
 20
189.8903951554924
 10
85.92819780778903
 20
189.6617951613245
 10
85.59799781621313
 20
189.5347951645645
 10
85.49639781880548
 20
189.4839951658605
 10
85.4201978207492
 20
189.4585951665085
 10
85.31859782334123
 20
189.4331951671565
 10
85.31859782334123
 20
189.4331951671565
 10
85.31859782334123
 20
189.9411951541964
 10
85.31859782334123
 20
189.9411951541964
 10
85.34399782269323
 20
189.9411951541964
 10
85.36939782204521
 20
189.9411951541964
 10
85.3947978213972
 20
189.9665951535484
 10
85.77579781167708
 20
190.1189951496603
 10
86.02979780519701
 20
190.3983951425322
 10
86.18219780130896
 20
190.7793951328121
 10
86.30919779806893
 20
191.160395123092
 10
86.25839779936493
 20
191.6175951114279
 10
86.05519780454899
 20
192.1001950991157
 10
85.90279780843705
 20
192.4811950893956
 10
85.67419781426911
 20
192.7605950822675
 10
85.4201978207492
 20
192.9891950764354
 10
85.4201978207492
 20
192.9891950764354
 10
85.31859782334123
 20
192.7097950835635
 10
85.31859782334123
 20
192.7097950835635
 10
85.31859782334123
 20
192.7097950835635
 10
85.31859782334123
 20
193.8781950537555
 10
85.31859782334123
 20
193.8781950537555
 97
        0
 97
        1
330
BA
 75
     2
 76
     1
 98
        1
 10
0.0
 20
0.0
450
        0
451
        0
460
0.0
461
0.0
452
        0
462
0.0
453
        0
470

  0
SPLINE
  5
BC
330
70
100
AcDbEntity
  8
Capa 1
100
AcDbSpline
210
0.0
220
0.0
230
1.0
 70
    11
 71
     3
 72
    26
 73
    22
 74
     0
 42
0.0000000001
 43
0.0000000001
 40
0.0
 40
0.0
 40
0.0
 40
0.0
 40
1.0
 40
1.0
 40
1.0
 40
2.0
 40
2.0
 40
2.0
 40
3.0
 40
3.0
 40
3.0
 40
4.0
 40
4.0
 40
4.0
 40
5.0
 40
5.0
 40
5.0
 40
6.0
 40
6.0
 40
6.0
 40
7.0
 40
7.0
 40
7.0
 40
7.0
 10
41.98619892884282
 20
108.6357972284699
 30
0.0
 10
41.98619892884282
 20
108.6357972284699
 30
0.0
 10
40.20819897420338
 20
109.9057971960695
 30
0.0
 10
40.20819897420338
 20
109.9057971960695
 30
0.0
 10
40.20819897420338
 20
109.9057971960695
 30
0.0
 10
40.20819897420338
 20
110.3121971857014
 30
0.0
 10
40.20819897420338
 20
110.3121971857014
 30
0.0
 10
40.20819897420338
 20
110.3121971857014
 30
0.0
 10
41.98619892884282
 20
110.3121971857014
 30
0.0
 10
41.98619892884282
 20
110.3121971857014
 30
0.0
 10
41.98619892884282
 20
110.3121971857014
 30
0.0
 10
41.98619892884282
 20
109.8041971986615
 30
0.0
 10
41.98619892884282
 20
109.8041971986615
 30
0.0
 10
41.98619892884282
 20
109.8041971986615
 30
0.0
 10
41.04639895281912
 20
109.8041971986615
 30
0.0
 10
41.04639895281912
 20
109.8041971986615
 30
0.0
 10
41.04639895281912
 20
109.8041971986615
 30
0.0
 10
41.98619892884282
 20
109.1437972155097
 30
0.0
 10
41.98619892884282
 20
109.1437972155097
 30
0.0
 10
41.98619892884282
 20
109.1437972155097
 30
0.0
 10
41.98619892884282
 20
108.6357972284699
 30
0.0
 10
41.98619892884282
 20
108.6357972284699
 30
0.0
  0
SPLINE
  5
BD
330
70
100
AcDbEntity
  8
Capa 1
100
AcDbSpline
210
0.0
220
0.0
230
1.0
 70
    11
 71
     3
 72
    50
 73
    46
 74
     0
 42
0.0000000001
 43
0.0000000001
 40
0.0
 40
0.0
 40
0.0
 40
0.0
 40
1.0
 40
1.0
 40
1.0
 40
2.0
 40
2.0
 40
2.0
 40
3.0
 40
3.0
 40
3.0
 40
4.0
 40
4.0
 40
4.0
 40
5.0
 40
5.0
 40
5.0
 40
6.0
 40
6.0
 40
6.0
 40
7.0
 40
7.0
 40
7.0
 40
8.0
 40
8.0
 40
8.0
 40
9.0
 40
9.0
 40
9.0
 40
10.0
 40
10.0
 40
10.0
 40
11.0
 40
11.0
 40
11.0
 40
12.0
 40
12.0
 40
12.0
 40
13.0
 40
13.0
 40
13.0
 40
14.0
 40
14.0
 40
14.0
 40
15.0
 40
15.0
 40
15.0
 40
15.0
 10
44.44999886598605
 20
109.8041971986615
 30
0.0
 10
44.44999886598605
 20
109.8041971986615
 30
0.0
 10
43.43399889190637
 20
109.8041971986615
 30
0.0
 10
43.43399889190637
 20
109.8041971986615
 30
0.0
 10
43.43399889190637
 20
109.8041971986615
 30
0.0
 10
43.43399889190637
 20
107.9499972459661
 30
0.0
 10
43.43399889190637
 20
107.9499972459661
 30
0.0
 10
43.43399889190637
 20
107.9499972459661
 30
0.0
 10
42.95139890421852
 20
107.9499972459661
 30
0.0
 10
42.95139890421852
 20
107.9499972459661
 30
0.0
 10
42.95139890421852
 20
107.9499972459661
 30
0.0
 10
41.98619892884282
 20
108.6357972284699
 30
0.0
 10
41.98619892884282
 20
108.6357972284699
 30
0.0
 10
41.98619892884282
 20
108.6357972284699
 30
0.0
 10
41.98619892884282
 20
109.1437972155097
 30
0.0
 10
41.98619892884282
 20
109.1437972155097
 30
0.0
 10
41.98619892884282
 20
109.1437972155097
 30
0.0
 10
42.95139890421852
 20
108.4579972330059
 30
0.0
 10
42.95139890421852
 20
108.4579972330059
 30
0.0
 10
42.95139890421852
 20
108.4579972330059
 30
0.0
 10
42.95139890421852
 20
109.8041971986615
 30
0.0
 10
42.95139890421852
 20
109.8041971986615
 30
0.0
 10
42.95139890421852
 20
109.8041971986615
 30
0.0
 10
41.98619892884282
 20
109.8041971986615
 30
0.0
 10
41.98619892884282
 20
109.8041971986615
 30
0.0
 10
41.98619892884282
 20
109.8041971986615
 30
0.0
 10
41.98619892884282
 20
110.3121971857014
 30
0.0
 10
41.98619892884282
 20
110.3121971857014
 30
0.0
 10
41.98619892884282
 20
110.3121971857014
 30
0.0
 10
42.95139890421852
 20
110.3121971857014
 30
0.0
 10
42.95139890421852
 20
110.3121971857014
 30
0.0
 10
42.95139890421852
 20
110.3121971857014
 30
0.0
 10
42.95139890421852
 20
110.8963971707972
 30
0.0
 10
42.95139890421852
 20
110.8963971707972
 30
0.0
 10
42.95139890421852
 20
110.8963971707972
 30
0.0
 10
43.43399889190637
 20
110.8963971707972
 30
0.0
 10
43.43399889190637
 20
110.8963971707972
 30
0.0
 10
43.43399889190637
 20
110.8963971707972
 30
0.0
 10
43.43399889190637
 20
110.3121971857014
 30
0.0
 10
43.43399889190637
 20
110.3121971857014
 30
0.0
 10
43.43399889190637
 20
110.3121971857014
 30
0.0
 10
44.44999886598605
 20
110.3121971857014
 30
0.0
 10
44.44999886598605
 20
110.3121971857014
 30
0.0
 10
44.44999886598605
 20
110.3121971857014
 30
0.0
 10
44.44999886598605
 20
109.8041971986615
 30
0.0
 10
44.44999886598605
 20
109.8041971986615
 30
0.0
  0
HATCH
  5
BE
330
70
100
AcDbEntity
  8
Capa 1
 62
   250
420
  1907995
440
 33554687
100
AcDbHatch
 10
0.0
 20
0.0
 30
0.0
210
0.0
220
0.0
230
1.0
  2
SOLID
 70
     1
 71
     1
 91
        2
 92
        1
 93
        1
 72
     4
 94
        3
 73
     0
 74
     0
 95
       26
 96
       22
 40
0.0
 40
0.0
 40
0.0
 40
0.0
 40
1.0
 40
1.0
 40
1.0
 40
2.0
 40
2.0
 40
2.0
 40
3.0
 40
3.0
 40
3.0
 40
4.0
 40
4.0
 40
4.0
 40
5.0
 40
5.0
 40
5.0
 40
6.0
 40
6.0
 40
6.0
 40
7.0
 40
7.0
 40
7.0
 40
7.0
 10
41.98619892884282
 20
108.6357972284699
 10
41.98619892884282
 20
108.6357972284699
 10
40.20819897420338
 20
109.9057971960695
 10
40.20819897420338
 20
109.9057971960695
 10
40.20819897420338
 20
109.9057971960695
 10
40.20819897420338
 20
110.3121971857014
 10
40.20819897420338
 20
110.3121971857014
 10
40.20819897420338
 20
110.3121971857014
 10
41.98619892884282
 20
110.3121971857014
 10
41.98619892884282
 20
110.3121971857014
 10
41.98619892884282
 20
110.3121971857014
 10
41.98619892884282
 20
109.8041971986615
 10
41.98619892884282
 20
109.8041971986615
 10
41.98619892884282
 20
109.8041971986615
 10
41.04639895281912
 20
109.8041971986615
 10
41.04639895281912
 20
109.8041971986615
 10
41.04639895281912
 20
109.8041971986615
 10
41.98619892884282
 20
109.1437972155097
 10
41.98619892884282
 20
109.1437972155097
 10
41.98619892884282
 20
109.1437972155097
 10
41.98619892884282
 20
108.6357972284699
 10
41.98619892884282
 20
108.6357972284699
 97
        0
 97
        1
330
BC
 92
        1
 93
        1
 72
     4
 94
        3
 73
     0
 74
     0
 95
       50
 96
       46
 40
0.0
 40
0.0
 40
0.0
 40
0.0
 40
1.0
 40
1.0
 40
1.0
 40
2.0
 40
2.0
 40
2.0
 40
3.0
 40
3.0
 40
3.0
 40
4.0
 40
4.0
 40
4.0
 40
5.0
 40
5.0
 40
5.0
 40
6.0
 40
6.0
 40
6.0
 40
7.0
 40
7.0
 40
7.0
 40
8.0
 40
8.0
 40
8.0
 40
9.0
 40
9.0
 40
9.0
 40
10.0
 40
10.0
 40
10.0
 40
11.0
 40
11.0
 40
11.0
 40
12.0
 40
12.0
 40
12.0
 40
13.0
 40
13.0
 40
13.0
 40
14.0
 40
14.0
 40
14.0
 40
15.0
 40
15.0
 40
15.0
 40
15.0
 10
44.44999886598605
 20
109.8041971986615
 10
44.44999886598605
 20
109.8041971986615
 10
43.43399889190637
 20
109.8041971986615
 10
43.43399889190637
 20
109.8041971986615
 10
43.43399889190637
 20
109.8041971986615
 10
43.43399889190637
 20
107.9499972459661
 10
43.43399889190637
 20
107.9499972459661
 10
43.43399889190637
 20
107.9499972459661
 10
42.95139890421852
 20
107.9499972459661
 10
42.95139890421852
 20
107.9499972459661
 10
42.95139890421852
 20
107.9499972459661
 10
41.98619892884282
 20
108.6357972284699
 10
41.98619892884282
 20
108.6357972284699
 10
41.98619892884282
 20
108.6357972284699
 10
41.98619892884282
 20
109.1437972155097
 10
41.98619892884282
 20
109.1437972155097
 10
41.98619892884282
 20
109.1437972155097
 10
42.95139890421852
 20
108.4579972330059
 10
42.95139890421852
 20
108.4579972330059
 10
42.95139890421852
 20
108.4579972330059
 10
42.95139890421852
 20
109.8041971986615
 10
42.95139890421852
 20
109.8041971986615
 10
42.95139890421852
 20
109.8041971986615
 10
41.98619892884282
 20
109.8041971986615
 10
41.98619892884282
 20
109.8041971986615
 10
41.98619892884282
 20
109.8041971986615
 10
41.98619892884282
 20
110.3121971857014
 10
41.98619892884282
 20
110.3121971857014
 10
41.98619892884282
 20
110.3121971857014
 10
42.95139890421852
 20
110.3121971857014
 10
42.95139890421852
 20
110.3121971857014
 10
42.95139890421852
 20
110.3121971857014
 10
42.95139890421852
 20
110.8963971707972
 10
42.95139890421852
 20
110.8963971707972
 10
42.95139890421852
 20
110.8963971707972
 10
43.43399889190637
 20
110.8963971707972
 10
43.43399889190637
 20
110.8963971707972
 10
43.43399889190637
 20
110.8963971707972
 10
43.43399889190637
 20
110.3121971857014
 10
43.43399889190637
 20
110.3121971857014
 10
43.43399889190637
 20
110.3121971857014
 10
44.44999886598605
 20
110.3121971857014
 10
44.44999886598605
 20
110.3121971857014
 10
44.44999886598605
 20
110.3121971857014
 10
44.44999886598605
 20
109.8041971986615
 10
44.44999886598605
 20
109.8041971986615
 97
        0
 97
        1
330
BD
 75
     2
 76
     1
 98
        1
 10
0.0
 20
0.0
450
        0
451
        0
460
0.0
461
0.0
452
        0
462
0.0
453
        0
470

  0
SPLINE
  5
BF
330
70
100
AcDbEntity
  8
Capa 1
100
AcDbSpline
210
0.0
220
0.0
230
1.0
 70
     9
 71
     3
 72
    77
 73
    73
 74
     0
 42
0.0000000001
 43
0.0000000001
 40
0.0
 40
0.0
 40
0.0
 40
0.0
 40
1.0
 40
1.0
 40
1.0
 40
2.0
 40
2.0
 40
2.0
 40
3.0
 40
3.0
 40
3.0
 40
4.0
 40
4.0
 40
4.0
 40
5.0
 40
5.0
 40
5.0
 40
6.0
 40
6.0
 40
6.0
 40
7.0
 40
7.0
 40
7.0
 40
8.0
 40
8.0
 40
8.0
 40
9.0
 40
9.0
 40
9.0
 40
10.0
 40
10.0
 40
10.0
 40
11.0
 40
11.0
 40
11.0
 40
12.0
 40
12.0
 40
12.0
 40
13.0
 40
13.0
 40
13.0
 40
14.0
 40
14.0
 40
14.0
 40
15.0
 40
15.0
 40
15.0
 40
16.0
 40
16.0
 40
16.0
 40
17.0
 40
17.0
 40
17.0
 40
18.0
 40
18.0
 40
18.0
 40
19.0
 40
19.0
 40
19.0
 40
20.0
 40
20.0
 40
20.0
 40
21.0
 40
21.0
 40
21.0
 40
22.0
 40
22.0
 40
22.0
 40
23.0
 40
23.0
 40
23.0
 40
24.0
 40
24.0
 40
24.0
 40
24.0
 10
41.24959894763505
 20
114.1475970878522
 30
0.0
 10
41.24959894763505
 20
114.1475970878522
 30
0.0
 10
41.27499894698704
 20
113.6141971014603
 30
0.0
 10
41.27499894698704
 20
113.6141971014603
 30
0.0
 10
41.07179895217111
 20
113.5633971027564
 30
0.0
 10
40.91939895605916
 20
113.5125971040524
 30
0.0
 10
40.84319895800319
 20
113.4109971066444
 30
0.0
 10
40.69079896189091
 20
113.2839971098844
 30
0.0
 10
40.61459896383525
 20
113.1061971144205
 30
0.0
 10
40.61459896383525
 20
112.9029971196046
 30
0.0
 10
40.61459896383525
 20
112.7251971241406
 30
0.0
 10
40.66539896253924
 20
112.5981971273807
 30
0.0
 10
40.74159896059522
 20
112.4711971306207
 30
0.0
 10
40.86859895735517
 20
112.2933971351567
 30
0.0
 10
41.04639895281912
 20
112.1663971383968
 30
0.0
 10
41.27499894698704
 20
112.0647971409888
 30
0.0
 10
41.50359894115529
 20
111.9885971429328
 30
0.0
 10
41.83379893273087
 20
111.9377971442289
 30
0.0
 10
42.26559892171474
 20
111.9377971442289
 30
0.0
 10
42.0623989268988
 20
112.0393971416368
 30
0.0
 10
41.93539893013884
 20
112.1917971377488
 30
0.0
 10
41.83379893273087
 20
112.3949971325647
 30
0.0
 10
41.7321989353229
 20
112.5727971280287
 30
0.0
 10
41.70679893597092
 20
112.7505971234926
 30
0.0
 10
41.70679893597092
 20
112.9537971183085
 30
0.0
 10
41.70679893597092
 20
113.3093971092364
 30
0.0
 10
41.83379893273087
 20
113.6141971014603
 30
0.0
 10
42.08779892625079
 20
113.8427970956283
 30
0.0
 10
42.34179891977071
 20
114.0967970891482
 30
0.0
 10
42.67199891134661
 20
114.2237970859081
 30
0.0
 10
43.07839890097848
 20
114.2237970859081
 30
0.0
 10
43.07839890097848
 20
114.2237970859081
 30
0.0
 10
43.12919889968246
 20
114.2237970859081
 30
0.0
 10
43.12919889968246
 20
114.2237970859081
 30
0.0
 10
43.12919889968246
 20
114.2237970859081
 30
0.0
 10
43.12919889968246
 20
113.6903970995163
 30
0.0
 10
43.12919889968246
 20
113.6903970995163
 30
0.0
 10
43.12919889968246
 20
113.6903970995163
 30
0.0
 10
43.10379890033047
 20
113.6903970995163
 30
0.0
 10
43.10379890033047
 20
113.6903970995163
 30
0.0
 10
42.79899890810656
 20
113.6903970995163
 30
0.0
 10
42.57039891393865
 20
113.5887971021083
 30
0.0
 10
42.41799891782669
 20
113.4363971059964
 30
0.0
 10
42.24019892236274
 20
113.2839971098844
 30
0.0
 10
42.16399892430676
 20
113.0807971150685
 30
0.0
 10
42.16399892430676
 20
112.8521971209006
 30
0.0
 10
42.16399892430676
 20
112.6235971267326
 30
0.0
 10
42.24019892236274
 20
112.4203971319167
 30
0.0
 10
42.41799891782669
 20
112.2425971364528
 30
0.0
 10
42.57039891393865
 20
112.0901971403408
 30
0.0
 10
42.79899890810656
 20
112.0139971422848
 30
0.0
 10
43.07839890097848
 20
112.0139971422848
 30
0.0
 10
43.10379890033047
 20
112.0139971422848
 30
0.0
 10
43.10379890033047
 20
112.0139971422848
 30
0.0
 10
43.12919889968246
 20
112.0139971422848
 30
0.0
 10
43.12919889968246
 20
112.0139971422848
 30
0.0
 10
43.12919889968246
 20
111.455197156541
 30
0.0
 10
43.12919889968246
 20
111.455197156541
 30
0.0
 10
42.92599890486653
 20
111.429797157189
 30
0.0
 10
42.69739891069892
 20
111.404397157837
 30
0.0
 10
42.46879891653067
 20
111.404397157837
 30
0.0
 10
41.63059893791493
 20
111.404397157837
 30
0.0
 10
41.04639895281912
 20
111.556797153949
 30
0.0
 10
40.66539896253924
 20
111.8615971461729
 30
0.0
 10
40.33519897096335
 20
112.1155971396928
 30
0.0
 10
40.18279897485139
 20
112.4711971306207
 30
0.0
 10
40.18279897485139
 20
112.9283971189565
 30
0.0
 10
40.18279897485139
 20
113.2585971105324
 30
0.0
 10
40.28439897225935
 20
113.5379971034043
 30
0.0
 10
40.4621989677233
 20
113.7411970982203
 30
0.0
 10
40.63999896318724
 20
113.9697970923882
 30
0.0
 10
40.91939895605916
 20
114.0967970891482
 30
0.0
 10
41.24959894763505
 20
114.1475970878522
 30
0.0
  0
SPLINE
  5
C0
330
70
100
AcDbEntity
  8
Capa 1
100
AcDbSpline
210
0.0
220
0.0
230
1.0
 70
     9
 71
     3
 72
    41
 73
    37
 74
     0
 42
0.0000000001
 43
0.0000000001
 40
0.0
 40
0.0
 40
0.0
 40
0.0
 40
1.0
 40
1.0
 40
1.0
 40
2.0
 40
2.0
 40
2.0
 40
3.0
 40
3.0
 40
3.0
 40
4.0
 40
4.0
 40
4.0
 40
5.0
 40
5.0
 40
5.0
 40
6.0
 40
6.0
 40
6.0
 40
7.0
 40
7.0
 40
7.0
 40
8.0
 40
8.0
 40
8.0
 40
9.0
 40
9.0
 40
9.0
 40
10.0
 40
10.0
 40
10.0
 40
11.0
 40
11.0
 40
11.0
 40
12.0
 40
12.0
 40
12.0
 40
12.0
 10
43.12919889968246
 20
114.2237970859081
 30
0.0
 10
43.38319889320239
 20
114.1983970865561
 30
0.0
 10
43.61179888737032
 20
114.1475970878522
 30
0.0
 10
43.81499888218625
 20
114.0459970904442
 30
0.0
 10
44.04359887635417
 20
113.9189970936842
 30
0.0
 10
44.22139887181812
 20
113.7665970975723
 30
0.0
 10
44.34839886857808
 20
113.5633971027564
 30
0.0
 10
44.47539886533804
 20
113.3601971079404
 30
0.0
 10
44.52619886404202
 20
113.1315971137725
 30
0.0
 10
44.52619886404202
 20
112.8775971202526
 30
0.0
 10
44.52619886404202
 20
112.4457971312687
 30
0.0
 10
44.37379886793007
 20
112.0901971403408
 30
0.0
 10
44.04359887635417
 20
111.8107971474689
 30
0.0
 10
43.84039888153824
 20
111.632997152005
 30
0.0
 10
43.53559888931434
 20
111.505997155245
 30
0.0
 10
43.12919889968246
 20
111.455197156541
 30
0.0
 10
43.12919889968246
 20
111.455197156541
 30
0.0
 10
43.12919889968246
 20
112.0139971422848
 30
0.0
 10
43.12919889968246
 20
112.0139971422848
 30
0.0
 10
43.28159889579441
 20
112.0139971422848
 30
0.0
 10
43.43399889190637
 20
112.0647971409888
 30
0.0
 10
43.58639888801832
 20
112.1155971396928
 30
0.0
 10
43.76419888348226
 20
112.1917971377488
 30
0.0
 10
43.89119888024191
 20
112.2933971351567
 30
0.0
 10
43.9673988782982
 20
112.4457971312687
 30
0.0
 10
44.04359887635417
 20
112.5727971280287
 30
0.0
 10
44.09439887505849
 20
112.7251971241406
 30
0.0
 10
44.09439887505849
 20
112.8775971202526
 30
0.0
 10
44.09439887505849
 20
113.1061971144205
 30
0.0
 10
44.01819887700219
 20
113.2839971098844
 30
0.0
 10
43.84039888153824
 20
113.4363971059964
 30
0.0
 10
43.66259888607429
 20
113.5887971021083
 30
0.0
 10
43.40859889255438
 20
113.6649971001643
 30
0.0
 10
43.12919889968246
 20
113.6903970995163
 30
0.0
 10
43.12919889968246
 20
113.6903970995163
 30
0.0
 10
43.12919889968246
 20
114.2237970859081
 30
0.0
 10
43.12919889968246
 20
114.2237970859081
 30
0.0
  0
HATCH
  5
C1
330
70
100
AcDbEntity
  8
Capa 1
 62
   250
420
  1907995
440
 33554687
100
AcDbHatch
 10
0.0
 20
0.0
 30
0.0
210
0.0
220
0.0
230
1.0
  2
SOLID
 70
     1
 71
     1
 91
        2
 92
        1
 93
        1
 72
     4
 94
        3
 73
     0
 74
     0
 95
       77
 96
       73
 40
0.0
 40
0.0
 40
0.0
 40
0.0
 40
1.0
 40
1.0
 40
1.0
 40
2.0
 40
2.0
 40
2.0
 40
3.0
 40
3.0
 40
3.0
 40
4.0
 40
4.0
 40
4.0
 40
5.0
 40
5.0
 40
5.0
 40
6.0
 40
6.0
 40
6.0
 40
7.0
 40
7.0
 40
7.0
 40
8.0
 40
8.0
 40
8.0
 40
9.0
 40
9.0
 40
9.0
 40
10.0
 40
10.0
 40
10.0
 40
11.0
 40
11.0
 40
11.0
 40
12.0
 40
12.0
 40
12.0
 40
13.0
 40
13.0
 40
13.0
 40
14.0
 40
14.0
 40
14.0
 40
15.0
 40
15.0
 40
15.0
 40
16.0
 40
16.0
 40
16.0
 40
17.0
 40
17.0
 40
17.0
 40
18.0
 40
18.0
 40
18.0
 40
19.0
 40
19.0
 40
19.0
 40
20.0
 40
20.0
 40
20.0
 40
21.0
 40
21.0
 40
21.0
 40
22.0
 40
22.0
 40
22.0
 40
23.0
 40
23.0
 40
23.0
 40
24.0
 40
24.0
 40
24.0
 40
24.0
 10
41.24959894763505
 20
114.1475970878522
 10
41.24959894763505
 20
114.1475970878522
 10
41.27499894698704
 20
113.6141971014603
 10
41.27499894698704
 20
113.6141971014603
 10
41.07179895217111
 20
113.5633971027564
 10
40.91939895605916
 20
113.5125971040524
 10
40.84319895800319
 20
113.4109971066444
 10
40.69079896189091
 20
113.2839971098844
 10
40.61459896383525
 20
113.1061971144205
 10
40.61459896383525
 20
112.9029971196046
 10
40.61459896383525
 20
112.7251971241406
 10
40.66539896253924
 20
112.5981971273807
 10
40.74159896059522
 20
112.4711971306207
 10
40.86859895735517
 20
112.2933971351567
 10
41.04639895281912
 20
112.1663971383968
 10
41.27499894698704
 20
112.0647971409888
 10
41.50359894115529
 20
111.9885971429328
 10
41.83379893273087
 20
111.9377971442289
 10
42.26559892171474
 20
111.9377971442289
 10
42.0623989268988
 20
112.0393971416368
 10
41.93539893013884
 20
112.1917971377488
 10
41.83379893273087
 20
112.3949971325647
 10
41.7321989353229
 20
112.5727971280287
 10
41.70679893597092
 20
112.7505971234926
 10
41.70679893597092
 20
112.9537971183085
 10
41.70679893597092
 20
113.3093971092364
 10
41.83379893273087
 20
113.6141971014603
 10
42.08779892625079
 20
113.8427970956283
 10
42.34179891977071
 20
114.0967970891482
 10
42.67199891134661
 20
114.2237970859081
 10
43.07839890097848
 20
114.2237970859081
 10
43.07839890097848
 20
114.2237970859081
 10
43.12919889968246
 20
114.2237970859081
 10
43.12919889968246
 20
114.2237970859081
 10
43.12919889968246
 20
114.2237970859081
 10
43.12919889968246
 20
113.6903970995163
 10
43.12919889968246
 20
113.6903970995163
 10
43.12919889968246
 20
113.6903970995163
 10
43.10379890033047
 20
113.6903970995163
 10
43.10379890033047
 20
113.6903970995163
 10
42.79899890810656
 20
113.6903970995163
 10
42.57039891393865
 20
113.5887971021083
 10
42.41799891782669
 20
113.4363971059964
 10
42.24019892236274
 20
113.2839971098844
 10
42.16399892430676
 20
113.0807971150685
 10
42.16399892430676
 20
112.8521971209006
 10
42.16399892430676
 20
112.6235971267326
 10
42.24019892236274
 20
112.4203971319167
 10
42.41799891782669
 20
112.2425971364528
 10
42.57039891393865
 20
112.0901971403408
 10
42.79899890810656
 20
112.0139971422848
 10
43.07839890097848
 20
112.0139971422848
 10
43.10379890033047
 20
112.0139971422848
 10
43.10379890033047
 20
112.0139971422848
 10
43.12919889968246
 20
112.0139971422848
 10
43.12919889968246
 20
112.0139971422848
 10
43.12919889968246
 20
111.455197156541
 10
43.12919889968246
 20
111.455197156541
 10
42.92599890486653
 20
111.429797157189
 10
42.69739891069892
 20
111.404397157837
 10
42.46879891653067
 20
111.404397157837
 10
41.63059893791493
 20
111.404397157837
 10
41.04639895281912
 20
111.556797153949
 10
40.66539896253924
 20
111.8615971461729
 10
40.33519897096335
 20
112.1155971396928
 10
40.18279897485139
 20
112.4711971306207
 10
40.18279897485139
 20
112.9283971189565
 10
40.18279897485139
 20
113.2585971105324
 10
40.28439897225935
 20
113.5379971034043
 10
40.4621989677233
 20
113.7411970982203
 10
40.63999896318724
 20
113.9697970923882
 10
40.91939895605916
 20
114.0967970891482
 10
41.24959894763505
 20
114.1475970878522
 97
        0
 97
        1
330
BF
 92
        1
 93
        1
 72
     4
 94
        3
 73
     0
 74
     0
 95
       41
 96
       37
 40
0.0
 40
0.0
 40
0.0
 40
0.0
 40
1.0
 40
1.0
 40
1.0
 40
2.0
 40
2.0
 40
2.0
 40
3.0
 40
3.0
 40
3.0
 40
4.0
 40
4.0
 40
4.0
 40
5.0
 40
5.0
 40
5.0
 40
6.0
 40
6.0
 40
6.0
 40
7.0
 40
7.0
 40
7.0
 40
8.0
 40
8.0
 40
8.0
 40
9.0
 40
9.0
 40
9.0
 40
10.0
 40
10.0
 40
10.0
 40
11.0
 40
11.0
 40
11.0
 40
12.0
 40
12.0
 40
12.0
 40
12.0
 10
43.12919889968246
 20
114.2237970859081
 10
43.38319889320239
 20
114.1983970865561
 10
43.61179888737032
 20
114.1475970878522
 10
43.81499888218625
 20
114.0459970904442
 10
44.04359887635417
 20
113.9189970936842
 10
44.22139887181812
 20
113.7665970975723
 10
44.34839886857808
 20
113.5633971027564
 10
44.47539886533804
 20
113.3601971079404
 10
44.52619886404202
 20
113.1315971137725
 10
44.52619886404202
 20
112.8775971202526
 10
44.52619886404202
 20
112.4457971312687
 10
44.37379886793007
 20
112.0901971403408
 10
44.04359887635417
 20
111.8107971474689
 10
43.84039888153824
 20
111.632997152005
 10
43.53559888931434
 20
111.505997155245
 10
43.12919889968246
 20
111.455197156541
 10
43.12919889968246
 20
111.455197156541
 10
43.12919889968246
 20
112.0139971422848
 10
43.12919889968246
 20
112.0139971422848
 10
43.28159889579441
 20
112.0139971422848
 10
43.43399889190637
 20
112.0647971409888
 10
43.58639888801832
 20
112.1155971396928
 10
43.76419888348226
 20
112.1917971377488
 10
43.89119888024191
 20
112.2933971351567
 10
43.9673988782982
 20
112.4457971312687
 10
44.04359887635417
 20
112.5727971280287
 10
44.09439887505849
 20
112.7251971241406
 10
44.09439887505849
 20
112.8775971202526
 10
44.09439887505849
 20
113.1061971144205
 10
44.01819887700219
 20
113.2839971098844
 10
43.84039888153824
 20
113.4363971059964
 10
43.66259888607429
 20
113.5887971021083
 10
43.40859889255438
 20
113.6649971001643
 10
43.12919889968246
 20
113.6903970995163
 10
43.12919889968246
 20
113.6903970995163
 10
43.12919889968246
 20
114.2237970859081
 10
43.12919889968246
 20
114.2237970859081
 97
        0
 97
        1
330
C0
 75
     2
 76
     1
 98
        1
 10
0.0
 20
0.0
450
        0
451
        0
460
0.0
461
0.0
452
        0
462
0.0
453
        0
470

  0
MTEXT
  5
C2
330
70
100
AcDbEntity
  8
Capa 1
100
AcDbMText
 10
90.70970863617674
 20
236.5629936474565
 30
0.0
 40
0.2
 41
0.0
 46
0.0
 71
     7
 72
     1
  1
\C250;\c1776925;\FMyriad Pro|b0|i0|c1;\H4.495800;\W1.000000;100
 73
     1
 44
1.0
  0
MTEXT
  5
C3
330
70
100
AcDbEntity
  8
Capa 1
100
AcDbMText
 10
44.5514580509281
 20
186.4168727832569
 30
0.0
 40
0.2
 41
0.0
 46
0.0
 71
     7
 72
     1
  1
\C250;\c1776925;\FMyriad Pro|b0|i0|c1;\H4.495800;\W1.000000;79
 11
0.0000000000000001
 21
1.0
 31
0.0
 73
     1
 44
1.0
  0
MTEXT
  5
C4
330
70
100
AcDbEntity
  8
Capa 1
100
AcDbMText
 10
59.27726032046714
 20
135.0899454414879
 30
0.0
 40
0.2
 41
0.0
 46
0.0
 71
     7
 72
     1
  1
\C250;\c1776925;\FMyriad Pro|b0|i0|c1;\H4.495800;\W1.000000;26
 73
     1
 44
1.0
  0
MTEXT
  5
C5
330
70
100
AcDbEntity
  8
Capa 1
100
AcDbMText
 10
90.70970863617674
 20
135.8011854044177
 30
0.0
 40
0.2
 41
0.0
 46
0.0
 71
     7
 72
     1
  1
\C250;\c1776925;\FMyriad Pro|b0|i0|c1;\H4.495800;\W1.000000;48,5
 73
     1
 44
1.0
  0
MTEXT
  5
C6
330
70
100
AcDbEntity
  8
Capa 1
100
AcDbMText
 10
88.0741244625735
 20
191.0576747840498
 30
0.0
 40
0.2
 41
0.0
 46
0.0
 71
     7
 72
     1
  1
\C250;\c1776925;\FMyriad Pro|b0|i0|c1;\H4.495800;\W1.000000;35
 73
     1
 44
1.0
  0
ENDSEC
  0
SECTION
  2
OBJECTS
  0
DICTIONARY
  5
C
330
0
100
AcDbDictionary
281
     1
  3
ACAD_COLOR
350
63
  3
ACAD_DETAILVIEWSTYLE
350
6A
  3
ACAD_GROUP
350
D
  3
ACAD_LAYOUT
350
62
  3
ACAD_MATERIAL
350
10
  3
ACAD_MLEADERSTYLE
350
66
  3
ACAD_MLINESTYLE
350
5F
  3
ACAD_PLOTSETTINGS
350
61
  3
ACAD_PLOTSTYLENAME
350
E
  3
ACAD_SCALELIST
350
42
  3
ACAD_SECTIONVIEWSTYLE
350
68
  3
ACAD_TABLESTYLE
350
64
  3
ACAD_VISUALSTYLE
350
29
  3
ACDB_RECOMPOSE_DATA
350
D0
  3
AcDbVariableDictionary
350
C7
  0
DICTIONARY
  5
63
102
{ACAD_REACTORS
330
C
102
}
330
C
100
AcDbDictionary
281
     1
  0
DICTIONARY
  5
6A
102
{ACAD_REACTORS
330
C
102
}
330
C
100
AcDbDictionary
281
     1
  3
Imperial24
350
6B
  0
DICTIONARY
  5
D
102
{ACAD_REACTORS
330
C
102
}
330
C
100
AcDbDictionary
281
     1
  0
DICTIONARY
  5
62
102
{ACAD_REACTORS
330
C
102
}
330
C
100
AcDbDictionary
281
     1
  3
Layout1
350
6F
  3
Layout2
350
77
  3
Model
350
73
  0
DICTIONARY
  5
10
102
{ACAD_REACTORS
330
C
102
}
330
C
100
AcDbDictionary
281
     1
  3
ByBlock
350
19
  3
ByLayer
350
11
  3
Global
350
21
  0
DICTIONARY
  5
66
102
{ACAD_REACTORS
330
C
102
}
330
C
100
AcDbDictionary
281
     1
  3
Standard
350
67
  0
DICTIONARY
  5
5F
102
{ACAD_REACTORS
330
C
102
}
330
C
100
AcDbDictionary
281
     1
  3
Standard
350
60
  0
DICTIONARY
  5
61
102
{ACAD_REACTORS
330
C
102
}
330
C
100
AcDbDictionary
281
     1
  0
ACDBDICTIONARYWDFLT
  5
E
102
{ACAD_REACTORS
330
C
102
}
330
C
100
AcDbDictionary
281
     1
  3
Normal
350
F
100
AcDbDictionaryWithDefault
340
F
  0
DICTIONARY
  5
42
102
{ACAD_REACTORS
330
C
102
}
330
C
100
AcDbDictionary
281
     1
  3
A0
350
43
  3
A1
350
44
  3
A2
350
45
  3
A3
350
46
  3
A4
350
47
  3
A5
350
48
  3
A6
350
49
  3
A7
350
4A
  3
A8
350
4B
  3
A9
350
4C
  3
B0
350
4D
  3
B1
350
4E
  3
B2
350
4F
  3
B3
350
50
  3
B4
350
51
  3
B5
350
52
  3
B6
350
53
  0
DICTIONARY
  5
68
102
{ACAD_REACTORS
330
C
102
}
330
C
100
AcDbDictionary
281
     1
  3
Imperial24
350
69
  0
DICTIONARY
  5
64
102
{ACAD_REACTORS
330
C
102
}
330
C
100
AcDbDictionary
281
     1
  3
Standard
350
65
  0
DICTIONARY
  5
29
102
{ACAD_REACTORS
330
C
102
}
330
C
100
AcDbDictionary
281
     1
  3
2dWireframe
350
2F
  3
Basic
350
2E
  3
Brighten
350
35
  3
ColorChange
350
39
  3
Conceptual
350
32
  3
Dim
350
34
  3
EdgeColorOff
350
41
  3
Facepattern
350
38
  3
Flat
350
2A
  3
FlatWithEdges
350
2B
  3
Gouraud
350
2C
  3
GouraudWithEdges
350
2D
  3
Hidden
350
31
  3
JitterOff
350
3F
  3
Linepattern
350
37
  3
OverhangOff
350
40
  3
Realistic
350
33
  3
Shaded
350
3E
  3
Shaded with edges
350
3D
  3
Shades of Gray
350
3A
  3
Sketchy
350
3B
  3
Thicken
350
36
  3
Wireframe
350
30
  3
X-Ray
350
3C
  0
XRECORD
  5
D0
102
{ACAD_REACTORS
330
C
102
}
330
C
100
AcDbXrecord
280
     1
 90
        1
330
65
  0
DICTIONARY
  5
C7
102
{ACAD_REACTORS
330
C
102
}
330
C
100
AcDbDictionary
281
     1
  3
CANNOSCALE
350
CC
  3
CMLEADERSTYLE
350
C9
  3
CTABLESTYLE
350
C8
  3
CVIEWDETAILSTYLE
350
CA
  3
CVIEWSECTIONSTYLE
350
CB
  0
ACDBDETAILVIEWSTYLE
  5
6B
102
{ACAD_XDICTIONARY
360
D3
102
}
102
{ACAD_REACTORS
330
6A
102
}
330
6A
100
AcDbModelDocViewStyle
 70
     0
  3
Imperial24
290
     0
100
AcDbDetailViewStyle
 70
     0
 71
     0
 90
        3
 71
     1
340
55
 62
   256
 40
0.24
340
0
 62
   256
 40
0.24
300

 40
0.36
280
     3
 71
     2
340
5D
 90
       25
 62
   256
 71
     3
340
55
 62
   256
 40
0.24
 90
        1
 40
0.75
 90
        1
300
%<\AcVar ViewType \f "%tc1">% %<\AcVar ViewDetailId>%\PSCALE %<\AcVar ViewScale \f "%sn">%
 71
     4
340
5D
 90
       25
 62
   256
340
5D
 90
       25
 62
   256
280
     0
  0
LAYOUT
  5
6F
102
{ACAD_REACTORS
330
62
102
}
330
62
100
AcDbPlotSettings
  1

  2

  4

  6

 40
0.0
 41
0.0
 42
0.0
 43
0.0
 44
0.0
 45
0.0
 46
0.0
 47
0.0
 48
0.0
 49
0.0
140
0.0
141
0.0
142
1.0
143
1.0
 70
   688
 72
     0
 73
     0
 74
     5
  7

 75
    16
147
1.0
 76
     0
 77
     2
 78
   300
148
0.0
149
0.0
100
AcDbLayout
  1
Layout1
 70
     1
 71
     1
 10
0.0
 20
0.0
 11
12.0
 21
9.0
 12
0.0
 22
0.0
 32
0.0
 14
0.0
 24
0.0
 34
0.0
 15
0.0
 25
0.0
 35
0.0
146
0.0
 13
0.0
 23
0.0
 33
0.0
 16
1.0
 26
0.0
 36
0.0
 17
0.0
 27
1.0
 37
0.0
 76
     0
330
6C
  0
LAYOUT
  5
77
102
{ACAD_REACTORS
330
62
102
}
330
62
100
AcDbPlotSettings
  1

  2

  4

  6

 40
0.0
 41
0.0
 42
0.0
 43
0.0
 44
0.0
 45
0.0
 46
0.0
 47
0.0
 48
0.0
 49
0.0
140
0.0
141
0.0
142
1.0
143
1.0
 70
   688
 72
     0
 73
     0
 74
     5
  7

 75
    16
147
1.0
 76
     0
 77
     2
 78
   300
148
0.0
149
0.0
100
AcDbLayout
  1
Layout2
 70
     1
 71
     2
 10
0.0
 20
0.0
 11
12.0
 21
9.0
 12
0.0
 22
0.0
 32
0.0
 14
0.0
 24
0.0
 34
0.0
 15
0.0
 25
0.0
 35
0.0
146
0.0
 13
0.0
 23
0.0
 33
0.0
 16
1.0
 26
0.0
 36
0.0
 17
0.0
 27
1.0
 37
0.0
 76
     0
330
74
  0
LAYOUT
  5
73
102
{ACAD_REACTORS
330
62
102
}
330
62
100
AcDbPlotSettings
  1

  2

  4

  6

 40
0.0
 41
0.0
 42
0.0
 43
0.0
 44
0.0
 45
0.0
 46
0.0
 47
0.0
 48
0.0
 49
0.0
140
0.0
141
0.0
142
1.0
143
1.0
 70
  1712
 72
     0
 73
     0
 74
     0
  7

 75
     0
147
1.0
 76
     0
 77
     2
 78
   300
148
0.0
149
0.0
100
AcDbLayout
  1
Model
 70
     1
 71
     0
 10
0.0
 20
0.0
 11
12.0
 21
9.0
 12
0.0
 22
0.0
 32
0.0
 14
0.0
 24
0.0
 34
0.0
 15
0.0
 25
0.0
 35
0.0
146
0.0
 13
0.0
 23
0.0
 33
0.0
 16
1.0
 26
0.0
 36
0.0
 17
0.0
 27
1.0
 37
0.0
 76
     0
330
70
  0
MATERIAL
  5
19
102
{ACAD_XDICTIONARY
360
1A
102
}
102
{ACAD_REACTORS
330
10
102
}
330
10
100
AcDbMaterial
  1
ByBlock
 72
     0
 43
0.0208333333333333
 43
0.0
 43
0.0
 43
0.0
 43
0.0
 43
0.0208333333333333
 43
0.0
 43
0.0
 43
0.0
 43
0.0
 43
1.0
 43
0.0
 43
0.0
 43
0.0
 43
0.0
 43
1.0
 77
     0
 47
0.0208333333333333
 47
0.0
 47
0.0
 47
0.0
 47
0.0
 47
0.0208333333333333
 47
0.0
 47
0.0
 47
0.0
 47
0.0
 47
1.0
 47
0.0
 47
0.0
 47
0.0
 47
0.0
 47
1.0
171
     0
 49
0.0208333333333333
 49
0.0
 49
0.0
 49
0.0
 49
0.0
 49
0.0208333333333333
 49
0.0
 49
0.0
 49
0.0
 49
0.0
 49
1.0
 49
0.0
 49
0.0
 49
0.0
 49
0.0
 49
1.0
175
     0
142
0.0208333333333333
142
0.0
142
0.0
142
0.0
142
0.0
142
0.0208333333333333
142
0.0
142
0.0
142
0.0
142
0.0
142
1.0
142
0.0
142
0.0
142
0.0
142
0.0
142
1.0
179
     0
144
0.0208333333333333
144
0.0
144
0.0
144
0.0
144
0.0
144
0.0208333333333333
144
0.0
144
0.0
144
0.0
144
0.0
144
1.0
144
0.0
144
0.0
144
0.0
144
0.0
144
1.0
147
0.0208333333333333
147
0.0
147
0.0
147
0.0
147
0.0
147
0.0208333333333333
147
0.0
147
0.0
147
0.0
147
0.0
147
1.0
147
0.0
147
0.0
147
0.0
147
0.0
147
1.0
  0
MATERIAL
  5
11
102
{ACAD_XDICTIONARY
360
12
102
}
102
{ACAD_REACTORS
330
10
102
}
330
10
100
AcDbMaterial
  1
ByLayer
 72
     0
 43
0.0208333333333333
 43
0.0
 43
0.0
 43
0.0
 43
0.0
 43
0.0208333333333333
 43
0.0
 43
0.0
 43
0.0
 43
0.0
 43
1.0
 43
0.0
 43
0.0
 43
0.0
 43
0.0
 43
1.0
 77
     0
 47
0.0208333333333333
 47
0.0
 47
0.0
 47
0.0
 47
0.0
 47
0.0208333333333333
 47
0.0
 47
0.0
 47
0.0
 47
0.0
 47
1.0
 47
0.0
 47
0.0
 47
0.0
 47
0.0
 47
1.0
171
     0
 49
0.0208333333333333
 49
0.0
 49
0.0
 49
0.0
 49
0.0
 49
0.0208333333333333
 49
0.0
 49
0.0
 49
0.0
 49
0.0
 49
1.0
 49
0.0
 49
0.0
 49
0.0
 49
0.0
 49
1.0
175
     0
142
0.0208333333333333
142
0.0
142
0.0
142
0.0
142
0.0
142
0.0208333333333333
142
0.0
142
0.0
142
0.0
142
0.0
142
1.0
142
0.0
142
0.0
142
0.0
142
0.0
142
1.0
179
     0
144
0.0208333333333333
144
0.0
144
0.0
144
0.0
144
0.0
144
0.0208333333333333
144
0.0
144
0.0
144
0.0
144
0.0
144
1.0
144
0.0
144
0.0
144
0.0
144
0.0
144
1.0
147
0.0208333333333333
147
0.0
147
0.0
147
0.0
147
0.0
147
0.0208333333333333
147
0.0
147
0.0
147
0.0
147
0.0
147
1.0
147
0.0
147
0.0
147
0.0
147
0.0
147
1.0
  0
MATERIAL
  5
21
102
{ACAD_XDICTIONARY
360
22
102
}
102
{ACAD_REACTORS
330
10
102
}
330
10
100
AcDbMaterial
  1
Global
 72
     0
 43
0.0208333333333333
 43
0.0
 43
0.0
 43
0.0
 43
0.0
 43
0.0208333333333333
 43
0.0
 43
0.0
 43
0.0
 43
0.0
 43
1.0
 43
0.0
 43
0.0
 43
0.0
 43
0.0
 43
1.0
 77
     0
 47
0.0208333333333333
 47
0.0
 47
0.0
 47
0.0
 47
0.0
 47
0.0208333333333333
 47
0.0
 47
0.0
 47
0.0
 47
0.0
 47
1.0
 47
0.0
 47
0.0
 47
0.0
 47
0.0
 47
1.0
171
     0
 49
0.0208333333333333
 49
0.0
 49
0.0
 49
0.0
 49
0.0
 49
0.0208333333333333
 49
0.0
 49
0.0
 49
0.0
 49
0.0
 49
1.0
 49
0.0
 49
0.0
 49
0.0
 49
0.0
 49
1.0
175
     0
142
0.0208333333333333
142
0.0
142
0.0
142
0.0
142
0.0
142
0.0208333333333333
142
0.0
142
0.0
142
0.0
142
0.0
142
1.0
142
0.0
142
0.0
142
0.0
142
0.0
142
1.0
179
     0
144
0.0208333333333333
144
0.0
144
0.0
144
0.0
144
0.0
144
0.0208333333333333
144
0.0
144
0.0
144
0.0
144
0.0
144
1.0
144
0.0
144
0.0
144
0.0
144
0.0
144
1.0
147
0.0208333333333333
147
0.0
147
0.0
147
0.0
147
0.0
147
0.0208333333333333
147
0.0
147
0.0
147
0.0
147
0.0
147
1.0
147
0.0
147
0.0
147
0.0
147
0.0
147
1.0
  0
MLEADERSTYLE
  5
67
102
{ACAD_REACTORS
330
66
102
}
330
66
100
AcDbMLeaderStyle
179
     2
170
     2
171
     1
172
     0
 90
        2
 40
0.0
 41
0.0
173
     1
 91
-1056964608
340
5B
 92
       -2
290
     1
 42
0.09
291
     1
 43
0.36
  3
Standard
 44
0.18
300

342
55
174
     1
178
     6
175
     1
176
     0
 93
-1056964608
 45
0.18
292
     0
297
     0
 46
0.18
 94
-1056964608
 47
1.0
 49
1.0
140
1.0
293
     1
141
0.0
294
     1
177
     0
142
1.0
295
     0
296
     0
143
0.125
271
     0
272
     9
273
     9
298
     1
  0
MLINESTYLE
  5
60
102
{ACAD_REACTORS
330
5F
102
}
330
5F
100
AcDbMlineStyle
  2
STANDARD
 70
     0
  3

 62
   256
 51
90.0
 52
90.0
 71
     2
 49
0.5
 62
   256
  6
BYLAYER
 49
-0.5
 62
   256
  6
BYLAYER
  0
ACDBPLACEHOLDER
  5
F
102
{ACAD_REACTORS
330
E
102
}
330
E
  0
SCALE
  5
43
102
{ACAD_REACTORS
330
42
102
}
330
42
100
AcDbScale
 70
     0
300
1:1
140
1.0
141
1.0
290
     1
  0
SCALE
  5
44
102
{ACAD_REACTORS
330
42
102
}
330
42
100
AcDbScale
 70
     0
300
1/128" = 1'-0"
140
0.0078125
141
12.0
290
     0
  0
SCALE
  5
45
102
{ACAD_REACTORS
330
42
102
}
330
42
100
AcDbScale
 70
     0
300
1/64" = 1'-0"
140
0.015625
141
12.0
290
     0
  0
SCALE
  5
46
102
{ACAD_REACTORS
330
42
102
}
330
42
100
AcDbScale
 70
     0
300
1/32" = 1'-0"
140
0.03125
141
12.0
290
     0
  0
SCALE
  5
47
102
{ACAD_REACTORS
330
42
102
}
330
42
100
AcDbScale
 70
     0
300
1/16" = 1'-0"
140
0.0625
141
12.0
290
     0
  0
SCALE
  5
48
102
{ACAD_REACTORS
330
42
102
}
330
42
100
AcDbScale
 70
     0
300
3/32" = 1'-0"
140
0.09375
141
12.0
290
     0
  0
SCALE
  5
49
102
{ACAD_REACTORS
330
42
102
}
330
42
100
AcDbScale
 70
     0
300
1/8" = 1'-0"
140
0.125
141
12.0
290
     0
  0
SCALE
  5
4A
102
{ACAD_REACTORS
330
42
102
}
330
42
100
AcDbScale
 70
     0
300
3/16" = 1'-0"
140
0.1875
141
12.0
290
     0
  0
SCALE
  5
4B
102
{ACAD_REACTORS
330
42
102
}
330
42
100
AcDbScale
 70
     0
300
1/4" = 1'-0"
140
0.25
141
12.0
290
     0
  0
SCALE
  5
4C
102
{ACAD_REACTORS
330
42
102
}
330
42
100
AcDbScale
 70
     0
300
3/8" = 1'-0"
140
0.375
141
12.0
290
     0
  0
SCALE
  5
4D
102
{ACAD_REACTORS
330
42
102
}
330
42
100
AcDbScale
 70
     0
300
1/2" = 1'-0"
140
0.5
141
12.0
290
     0
  0
SCALE
  5
4E
102
{ACAD_REACTORS
330
42
102
}
330
42
100
AcDbScale
 70
     0
300
3/4" = 1'-0"
140
0.75
141
12.0
290
     0
  0
SCALE
  5
4F
102
{ACAD_REACTORS
330
42
102
}
330
42
100
AcDbScale
 70
     0
300
1" = 1'-0"
140
1.0
141
12.0
290
     0
  0
SCALE
  5
50
102
{ACAD_REACTORS
330
42
102
}
330
42
100
AcDbScale
 70
     0
300
1-1/2" = 1'-0"
140
1.5
141
12.0
290
     0
  0
SCALE
  5
51
102
{ACAD_REACTORS
330
42
102
}
330
42
100
AcDbScale
 70
     0
300
3" = 1'-0"
140
3.0
141
12.0
290
     0
  0
SCALE
  5
52
102
{ACAD_REACTORS
330
42
102
}
330
42
100
AcDbScale
 70
     0
300
6" = 1'-0"
140
6.0
141
12.0
290
     0
  0
SCALE
  5
53
102
{ACAD_REACTORS
330
42
102
}
330
42
100
AcDbScale
 70
     0
300
1'-0" = 1'-0"
140
12.0
141
12.0
290
     0
  0
ACDBSECTIONVIEWSTYLE
  5
69
102
{ACAD_XDICTIONARY
360
D1
102
}
102
{ACAD_REACTORS
330
68
102
}
330
68
100
AcDbModelDocViewStyle
 70
     0
  3
Imperial24
290
     0
100
AcDbSectionViewStyle
 70
     0
 71
     0
 90
       78
 71
     1
340
55
 62
   256
 40
0.24
340
0
340
0
 62
   256
 40
0.24
300
I, O, Q, S, X, Z
 40
0.48
 90
        3
 40
0.18
 90
        1
 71
     2
340
5D
 90
       25
 62
   256
340
5D
 90
       50
 62
   256
 40
0.24
 40
0.0
 40
0.24
 71
     3
340
55
 62
   256
 40
0.24
 90
        1
 40
0.75
 90
        1
300
%<\AcVar ViewType \f "%tc1">% %<\AcVar ViewSectionStartId>%-%<\AcVar ViewSectionEndId>%\PSCALE %<\AcVar ViewScale \f "%sn">%
 71
     4
 62
   256
 62
   257
300
ANSI31
 40
1.0
 90
        0
290
     0
290
     0
 90
        6
 40
0.0
 40
1.570796326794896
 40
0.2617993877991494
 40
1.308996938995747
 40
-0.2617993877991494
 40
1.832595714594046
  0
TABLESTYLE
  5
65
102
{ACAD_XDICTIONARY
360
CD
102
}
102
{ACAD_REACTORS
330
64
102
}
330
64
100
AcDbTableStyle
280
     0
  3
Standard
 70
     0
 71
     0
 40
0.06
 41
0.06
280
     0
281
     0
  7
Standard
140
0.18
170
     2
 62
     0
 63
     7
283
     0
 90
      512
 91
        0
  1

274
    -2
284
     1
 64
     0
275
    -2
285
     1
 65
     0
276
    -2
286
     1
 66
     0
277
    -2
287
     1
 67
     0
278
    -2
288
     1
 68
     0
279
    -2
289
     1
 69
     0
  7
Standard
140
0.25
170
     5
 62
     0
 63
     7
283
     0
 90
      512
 91
        0
  1

274
    -2
284
     1
 64
     0
275
    -2
285
     1
 65
     0
276
    -2
286
     1
 66
     0
277
    -2
287
     1
 67
     0
278
    -2
288
     1
 68
     0
279
    -2
289
     1
 69
     0
  7
Standard
140
0.18
170
     5
 62
     0
 63
     7
283
     0
 90
      512
 91
        0
  1

274
    -2
284
     1
 64
     0
275
    -2
285
     1
 65
     0
276
    -2
286
     1
 66
     0
277
    -2
287
     1
 67
     0
278
    -2
288
     1
 68
     0
279
    -2
289
     1
 69
     0
  0
VISUALSTYLE
  5
2F
102
{ACAD_REACTORS
330
29
102
}
330
29
100
AcDbVisualStyle
  2
2dWireframe
 70
     4
177
     3
291
     0
 70
    58
 90
        0
176
     1
 90
        2
176
     1
 90
        0
176
     1
 90
        0
176
     1
 40
0.6
176
     1
 40
30.0
176
     1
 62
     7
420
 16777215
176
     1
 90
        1
176
     1
 90
        4
176
     1
 62
     7
176
     1
 62
   257
176
     1
 90
        1
176
     1
 90
        1
176
     1
 40
1.0
176
     1
 90
        0
176
     1
 62
   257
176
     1
 40
1.0
176
     1
 90
        1
176
     1
 90
        6
176
     1
 90
        2
176
     1
 62
     7
176
     1
 90
        5
176
     1
 90
        0
176
     1
 90
        0
176
     1
290
     0
176
     1
 90
        1
176
     1
 40
0.0
176
     1
 90
        0
176
     1
290
     1
176
     1
290
     1
176
     1
290
     0
176
     1
290
     0
176
     1
290
     0
176
     1
290
     0
176
     1
290
     0
176
     1
290
     0
176
     1
290
     0
176
     1
 90
       50
176
     1
 40
0.0
176
     1
 40
1.0
176
     1
 90
        0
176
     1
 62
    18
420
        0
176
     1
 90
       50
176
     1
 90
        3
176
     1
 62
     5
420
      255
176
     1
290
     0
176
     1
 90
       50
176
     1
 90
       50
176
     1
 90
       50
176
     1
290
     0
176
     1
 90
       50
176
     1
 62
   256
176
     0
 40
1.0
176
     0
 90
        2
176
     1
  1
strokes_ogs.tif
176
     1
290
     0
176
     1
 40
1.0
176
     1
 40
1.0
176
     1
1001
ACAD
1000
AcDbSavedByObjectVersion
1070
     0
  0
VISUALSTYLE
  5
2E
102
{ACAD_REACTORS
330
29
102
}
330
29
100
AcDbVisualStyle
  2
Basic
 70
     7
177
     3
291
     1
 70
    58
 90
        1
176
     1
 90
        0
176
     1
 90
        1
176
     1
 90
        0
176
     1
 40
0.6
176
     1
 40
30.0
176
     1
 62
     7
420
 16777215
176
     1
 90
        0
176
     1
 90
        4
176
     1
 62
     7
176
     1
 62
   257
176
     1
 90
        1
176
     1
 90
        1
176
     1
 40
1.0
176
     1
 90
        8
176
     1
 62
     7
176
     1
 40
1.0
176
     1
 90
        1
176
     1
 90
        6
176
     1
 90
        2
176
     1
 62
     7
176
     1
 90
        5
176
     1
 90
        0
176
     1
 90
        0
176
     1
290
     0
176
     1
 90
        1
176
     1
 40
0.0
176
     1
 90
        0
176
     1
290
     0
176
     1
290
     1
176
     1
290
     1
176
     1
290
     0
176
     1
290
     0
176
     1
290
     0
176
     1
290
     0
176
     1
290
     0
176
     1
290
     0
176
     1
 90
       50
176
     1
 40
0.0
176
     1
 40
1.0
176
     1
 90
        0
176
     1
 62
    18
420
        0
176
     1
 90
       50
176
     1
 90
        3
176
     1
 62
     5
420
      255
176
     1
290
     0
176
     1
 90
       50
176
     1
 90
       50
176
     1
 90
       50
176
     1
290
     0
176
     1
 90
       50
176
     1
 62
   256
176
     0
 40
1.0
176
     0
 90
        2
176
     1
  1
strokes_ogs.tif
176
     1
290
     0
176
     1
 40
1.0
176
     1
 40
1.0
176
     1
1001
ACAD
1000
AcDbSavedByObjectVersion
1070
     0
  0
VISUALSTYLE
  5
35
102
{ACAD_REACTORS
330
29
102
}
330
29
100
AcDbVisualStyle
  2
Brighten
 70
    12
177
     3
291
     1
 70
    58
 90
        2
176
     1
 90
        2
176
     1
 90
        0
176
     1
 90
        0
176
     1
 40
0.6
176
     1
 40
30.0
176
     1
 62
     7
420
 16777215
176
     1
 90
        1
176
     1
 90
        4
176
     1
 62
     7
176
     1
 62
   257
176
     1
 90
        1
176
     1
 90
        1
176
     1
 40
1.0
176
     1
 90
        8
176
     1
 62
     7
176
     1
 40
1.0
176
     1
 90
        1
176
     1
 90
        6
176
     1
 90
        2
176
     1
 62
     7
176
     1
 90
        5
176
     1
 90
        0
176
     1
 90
        0
176
     1
290
     0
176
     1
 90
        1
176
     1
 40
50.0
176
     1
 90
        0
176
     1
290
     0
176
     1
290
     1
176
     1
290
     1
176
     1
290
     0
176
     1
290
     0
176
     1
290
     0
176
     1
290
     0
176
     1
290
     0
176
     1
290
     0
176
     1
 90
       50
176
     1
 40
0.0
176
     1
 40
1.0
176
     1
 90
        0
176
     1
 62
    18
420
        0
176
     1
 90
       50
176
     1
 90
        3
176
     1
 62
     5
420
      255
176
     1
290
     0
176
     1
 90
       50
176
     1
 90
       50
176
     1
 90
       50
176
     1
290
     0
176
     1
 90
       50
176
     1
 62
   256
176
     0
 40
1.0
176
     0
 90
        2
176
     1
  1
strokes_ogs.tif
176
     1
290
     0
176
     1
 40
1.0
176
     1
 40
1.0
176
     1
1001
ACAD
1000
AcDbSavedByObjectVersion
1070
     0
  0
VISUALSTYLE
  5
39
102
{ACAD_REACTORS
330
29
102
}
330
29
100
AcDbVisualStyle
  2
ColorChange
 70
    16
177
     3
291
     1
 70
    58
 90
        2
176
     1
 90
        2
176
     1
 90
        3
176
     1
 90
        0
176
     1
 40
0.6
176
     1
 40
30.0
176
     1
 62
     8
420
  8421504
176
     1
 90
        1
176
     1
 90
        4
176
     1
 62
     7
176
     1
 62
   257
176
     1
 90
        1
176
     1
 90
        1
176
     1
 40
1.0
176
     1
 90
        8
176
     1
 62
     8
420
  8421504
176
     1
 40
1.0
176
     1
 90
        1
176
     1
 90
        6
176
     1
 90
        2
176
     1
 62
     7
176
     1
 90
        5
176
     1
 90
        0
176
     1
 90
        0
176
     1
290
     0
176
     1
 90
        1
176
     1
 40
0.0
176
     1
 90
        0
176
     1
290
     0
176
     1
290
     1
176
     1
290
     1
176
     1
290
     0
176
     1
290
     0
176
     1
290
     0
176
     1
290
     0
176
     1
290
     0
176
     1
290
     0
176
     1
 90
       50
176
     1
 40
0.0
176
     1
 40
1.0
176
     1
 90
        0
176
     1
 62
    18
420
        0
176
     1
 90
       50
176
     1
 90
        3
176
     1
 62
     5
420
      255
176
     1
290
     0
176
     1
 90
       50
176
     1
 90
       50
176
     1
 90
       50
176
     1
290
     0
176
     1
 90
       50
176
     1
 62
   256
176
     0
 40
1.0
176
     0
 90
        2
176
     1
  1
strokes_ogs.tif
176
     1
290
     0
176
     1
 40
1.0
176
     1
 40
1.0
176
     1
1001
ACAD
1000
AcDbSavedByObjectVersion
1070
     0
  0
VISUALSTYLE
  5
32
102
{ACAD_REACTORS
330
29
102
}
330
29
100
AcDbVisualStyle
  2
Conceptual
 70
     9
177
     3
291
     0
 70
    58
 90
        3
176
     1
 90
        2
176
     1
 90
        0
176
     1
 90
        0
176
     1
 40
0.6
176
     1
 40
30.0
176
     1
 62
     7
420
 16777215
176
     1
 90
        2
176
     1
 90
        2
176
     1
 62
     7
176
     1
 62
   257
176
     1
 90
        1
176
     1
 90
        1
176
     1
 40
179.0
176
     1
 90
        8
176
     1
 62
     7
176
     1
 40
1.0
176
     1
 90
        1
176
     1
 90
        6
176
     1
 90
        2
176
     1
 62
     7
176
     1
 90
        3
176
     1
 90
        0
176
     1
 90
        0
176
     1
290
     0
176
     1
 90
        1
176
     1
 40
0.0
176
     1
 90
        0
176
     1
290
     0
176
     1
290
     1
176
     1
290
     1
176
     1
290
     0
176
     1
290
     0
176
     1
290
     0
176
     1
290
     0
176
     1
290
     0
176
     1
290
     0
176
     1
 90
       50
176
     1
 40
0.0
176
     1
 40
1.0
176
     1
 90
        0
176
     1
 62
    18
420
        0
176
     1
 90
       50
176
     1
 90
        3
176
     1
 62
     5
420
      255
176
     1
290
     0
176
     1
 90
       50
176
     1
 90
       50
176
     1
 90
       50
176
     1
290
     0
176
     1
 90
       50
176
     1
 62
   256
176
     0
 40
1.0
176
     0
 90
        2
176
     1
  1
strokes_ogs.tif
176
     1
290
     0
176
     1
 40
1.0
176
     1
 40
1.0
176
     1
1001
ACAD
1000
AcDbSavedByObjectVersion
1070
     0
  0
VISUALSTYLE
  5
34
102
{ACAD_REACTORS
330
29
102
}
330
29
100
AcDbVisualStyle
  2
Dim
 70
    11
177
     3
291
     1
 70
    58
 90
        2
176
     1
 90
        2
176
     1
 90
        0
176
     1
 90
        0
176
     1
 40
0.6
176
     1
 40
30.0
176
     1
 62
     7
420
 16777215
176
     1
 90
        1
176
     1
 90
        4
176
     1
 62
     7
176
     1
 62
   257
176
     1
 90
        1
176
     1
 90
        1
176
     1
 40
1.0
176
     1
 90
        8
176
     1
 62
     7
176
     1
 40
1.0
176
     1
 90
        1
176
     1
 90
        6
176
     1
 90
        2
176
     1
 62
     7
176
     1
 90
        5
176
     1
 90
        0
176
     1
 90
        0
176
     1
290
     0
176
     1
 90
        1
176
     1
 40
-50.0
176
     1
 90
        0
176
     1
290
     0
176
     1
290
     1
176
     1
290
     1
176
     1
290
     0
176
     1
290
     0
176
     1
290
     0
176
     1
290
     0
176
     1
290
     0
176
     1
290
     0
176
     1
 90
       50
176
     1
 40
0.0
176
     1
 40
1.0
176
     1
 90
        0
176
     1
 62
    18
420
        0
176
     1
 90
       50
176
     1
 90
        3
176
     1
 62
     5
420
      255
176
     1
290
     0
176
     1
 90
       50
176
     1
 90
       50
176
     1
 90
       50
176
     1
290
     0
176
     1
 90
       50
176
     1
 62
   256
176
     0
 40
1.0
176
     0
 90
        2
176
     1
  1
strokes_ogs.tif
176
     1
290
     0
176
     1
 40
1.0
176
     1
 40
1.0
176
     1
1001
ACAD
1000
AcDbSavedByObjectVersion
1070
     0
  0
VISUALSTYLE
  5
41
102
{ACAD_REACTORS
330
29
102
}
330
29
100
AcDbVisualStyle
  2
EdgeColorOff
 70
    22
177
     3
291
     1
 70
    58
 90
        2
176
     0
 90
        2
176
     0
 90
        0
176
     0
 90
        0
176
     0
 40
0.6
176
     0
 40
30.0
176
     0
 62
     7
420
 16777215
176
     0
 90
        1
176
     0
 90
        4
176
     0
 62
     7
176
     0
 62
   257
176
     0
 90
        1
176
     0
 90
        1
176
     0
 40
1.0
176
     0
 90
        8
176
     2
 62
     7
176
     0
 40
1.0
176
     0
 90
        1
176
     0
 90
        6
176
     0
 90
        2
176
     0
 62
     7
176
     0
 90
        5
176
     0
 90
        0
176
     0
 90
        0
176
     0
290
     0
176
     0
 90
        1
176
     0
 40
0.0
176
     0
 90
        0
176
     0
290
     0
176
     0
290
     1
176
     0
290
     1
176
     0
290
     0
176
     0
290
     0
176
     0
290
     0
176
     0
290
     0
176
     0
290
     0
176
     0
290
     0
176
     0
 90
       50
176
     0
 40
0.0
176
     0
 40
1.0
176
     0
 90
        0
176
     0
 62
    18
420
        0
176
     0
 90
       50
176
     0
 90
        3
176
     0
 62
     5
420
      255
176
     0
290
     0
176
     0
 90
       50
176
     0
 90
       50
176
     0
 90
       50
176
     0
290
     0
176
     0
 90
       50
176
     0
 62
   256
176
     0
 40
1.0
176
     0
 90
        2
176
     0
  1
strokes_ogs.tif
176
     0
290
     0
176
     0
 40
1.0
176
     0
 40
1.0
176
     0
1001
ACAD
1000
AcDbSavedByObjectVersion
1070
     0
  0
VISUALSTYLE
  5
38
102
{ACAD_REACTORS
330
29
102
}
330
29
100
AcDbVisualStyle
  2
Facepattern
 70
    15
177
     3
291
     1
 70
    58
 90
        2
176
     1
 90
        2
176
     1
 90
        0
176
     1
 90
        0
176
     1
 40
0.6
176
     1
 40
30.0
176
     1
 62
     7
420
 16777215
176
     1
 90
        1
176
     1
 90
        4
176
     1
 62
     7
176
     1
 62
   257
176
     1
 90
        1
176
     1
 90
        1
176
     1
 40
1.0
176
     1
 90
        8
176
     1
 62
     7
176
     1
 40
1.0
176
     1
 90
        1
176
     1
 90
        6
176
     1
 90
        2
176
     1
 62
     7
176
     1
 90
        5
176
     1
 90
        0
176
     1
 90
        0
176
     1
290
     0
176
     1
 90
        1
176
     1
 40
0.0
176
     1
 90
        0
176
     1
290
     0
176
     1
290
     1
176
     1
290
     1
176
     1
290
     0
176
     1
290
     0
176
     1
290
     0
176
     1
290
     0
176
     1
290
     0
176
     1
290
     0
176
     1
 90
       50
176
     1
 40
0.0
176
     1
 40
1.0
176
     1
 90
        0
176
     1
 62
    18
420
        0
176
     1
 90
       50
176
     1
 90
        3
176
     1
 62
     5
420
      255
176
     1
290
     0
176
     1
 90
       50
176
     1
 90
       50
176
     1
 90
       50
176
     1
290
     0
176
     1
 90
       50
176
     1
 62
   256
176
     0
 40
1.0
176
     0
 90
        2
176
     1
  1
strokes_ogs.tif
176
     1
290
     0
176
     1
 40
1.0
176
     1
 40
1.0
176
     1
1001
ACAD
1000
AcDbSavedByObjectVersion
1070
     0
  0
VISUALSTYLE
  5
2A
102
{ACAD_REACTORS
330
29
102
}
330
29
100
AcDbVisualStyle
  2
Flat
 70
     0
177
     3
291
     1
 70
    58
 90
        2
176
     1
 90
        1
176
     1
 90
        1
176
     1
 90
        2
176
     1
 40
0.6
176
     1
 40
30.0
176
     1
 62
     7
420
 16777215
176
     1
 90
        0
176
     1
 90
        0
176
     1
 62
     7
176
     1
 62
   257
176
     1
 90
        1
176
     1
 90
        1
176
     1
 40
1.0
176
     1
 90
        8
176
     1
 62
     7
176
     1
 40
1.0
176
     1
 90
        1
176
     1
 90
        6
176
     1
 90
        2
176
     1
 62
     7
176
     1
 90
        5
176
     1
 90
        0
176
     1
 90
        0
176
     1
290
     0
176
     1
 90
       13
176
     1
 40
0.0
176
     1
 90
        0
176
     1
290
     0
176
     1
290
     1
176
     1
290
     1
176
     1
290
     0
176
     1
290
     0
176
     1
290
     0
176
     1
290
     0
176
     1
290
     0
176
     1
290
     0
176
     1
 90
       50
176
     1
 40
0.0
176
     1
 40
1.0
176
     1
 90
        0
176
     1
 62
    18
420
        0
176
     1
 90
       50
176
     1
 90
        3
176
     1
 62
     5
420
      255
176
     1
290
     0
176
     1
 90
       50
176
     1
 90
       50
176
     1
 90
       50
176
     1
290
     0
176
     1
 90
       50
176
     1
 62
   256
176
     0
 40
1.0
176
     0
 90
        2
176
     1
  1
strokes_ogs.tif
176
     1
290
     0
176
     1
 40
1.0
176
     1
 40
1.0
176
     1
1001
ACAD
1000
AcDbSavedByObjectVersion
1070
     0
  0
VISUALSTYLE
  5
2B
102
{ACAD_REACTORS
330
29
102
}
330
29
100
AcDbVisualStyle
  2
FlatWithEdges
 70
     1
177
     3
291
     1
 70
    58
 90
        2
176
     1
 90
        1
176
     1
 90
        1
176
     1
 90
        2
176
     1
 40
0.6
176
     1
 40
30.0
176
     1
 62
     7
420
 16777215
176
     1
 90
        1
176
     1
 90
        0
176
     1
 62
     7
176
     1
 62
   257
176
     1
 90
        1
176
     1
 90
        1
176
     1
 40
1.0
176
     1
 90
        0
176
     1
 62
   257
176
     1
 40
1.0
176
     1
 90
        1
176
     1
 90
        6
176
     1
 90
        2
176
     1
 62
     7
176
     1
 90
        5
176
     1
 90
        0
176
     1
 90
        0
176
     1
290
     0
176
     1
 90
       13
176
     1
 40
0.0
176
     1
 90
        0
176
     1
290
     0
176
     1
290
     1
176
     1
290
     1
176
     1
290
     0
176
     1
290
     0
176
     1
290
     0
176
     1
290
     0
176
     1
290
     0
176
     1
290
     0
176
     1
 90
       50
176
     1
 40
0.0
176
     1
 40
1.0
176
     1
 90
        0
176
     1
 62
    18
420
        0
176
     1
 90
       50
176
     1
 90
        3
176
     1
 62
     5
420
      255
176
     1
290
     0
176
     1
 90
       50
176
     1
 90
       50
176
     1
 90
       50
176
     1
290
     0
176
     1
 90
       50
176
     1
 62
   256
176
     0
 40
1.0
176
     0
 90
        2
176
     1
  1
strokes_ogs.tif
176
     1
290
     0
176
     1
 40
1.0
176
     1
 40
1.0
176
     1
1001
ACAD
1000
AcDbSavedByObjectVersion
1070
     0
  0
VISUALSTYLE
  5
2C
102
{ACAD_REACTORS
330
29
102
}
330
29
100
AcDbVisualStyle
  2
Gouraud
 70
     2
177
     3
291
     1
 70
    58
 90
        2
176
     1
 90
        2
176
     1
 90
        1
176
     1
 90
        2
176
     1
 40
0.6
176
     1
 40
30.0
176
     1
 62
     7
420
 16777215
176
     1
 90
        0
176
     1
 90
        0
176
     1
 62
     7
176
     1
 62
   257
176
     1
 90
        1
176
     1
 90
        1
176
     1
 40
1.0
176
     1
 90
        0
176
     1
 62
     7
176
     1
 40
1.0
176
     1
 90
        1
176
     1
 90
        6
176
     1
 90
        2
176
     1
 62
     7
176
     1
 90
        5
176
     1
 90
        0
176
     1
 90
        0
176
     1
290
     0
176
     1
 90
       13
176
     1
 40
0.0
176
     1
 90
        0
176
     1
290
     0
176
     1
290
     1
176
     1
290
     1
176
     1
290
     0
176
     1
290
     0
176
     1
290
     0
176
     1
290
     0
176
     1
290
     0
176
     1
290
     0
176
     1
 90
       50
176
     1
 40
0.0
176
     1
 40
1.0
176
     1
 90
        0
176
     1
 62
    18
420
        0
176
     1
 90
       50
176
     1
 90
        3
176
     1
 62
     5
420
      255
176
     1
290
     0
176
     1
 90
       50
176
     1
 90
       50
176
     1
 90
       50
176
     1
290
     0
176
     1
 90
       50
176
     1
 62
   256
176
     0
 40
1.0
176
     0
 90
        2
176
     1
  1
strokes_ogs.tif
176
     1
290
     0
176
     1
 40
1.0
176
     1
 40
1.0
176
     1
1001
ACAD
1000
AcDbSavedByObjectVersion
1070
     0
  0
VISUALSTYLE
  5
2D
102
{ACAD_REACTORS
330
29
102
}
330
29
100
AcDbVisualStyle
  2
GouraudWithEdges
 70
     3
177
     3
291
     1
 70
    58
 90
        2
176
     1
 90
        2
176
     1
 90
        1
176
     1
 90
        2
176
     1
 40
0.6
176
     1
 40
30.0
176
     1
 62
     7
420
 16777215
176
     1
 90
        1
176
     1
 90
        0
176
     1
 62
     7
176
     1
 62
   257
176
     1
 90
        1
176
     1
 90
        1
176
     1
 40
1.0
176
     1
 90
        0
176
     1
 62
   257
176
     1
 40
1.0
176
     1
 90
        1
176
     1
 90
        6
176
     1
 90
        2
176
     1
 62
     7
176
     1
 90
        5
176
     1
 90
        0
176
     1
 90
        0
176
     1
290
     0
176
     1
 90
       13
176
     1
 40
0.0
176
     1
 90
        0
176
     1
290
     0
176
     1
290
     1
176
     1
290
     1
176
     1
290
     0
176
     1
290
     0
176
     1
290
     0
176
     1
290
     0
176
     1
290
     0
176
     1
290
     0
176
     1
 90
       50
176
     1
 40
0.0
176
     1
 40
1.0
176
     1
 90
        0
176
     1
 62
    18
420
        0
176
     1
 90
       50
176
     1
 90
        3
176
     1
 62
     5
420
      255
176
     1
290
     0
176
     1
 90
       50
176
     1
 90
       50
176
     1
 90
       50
176
     1
290
     0
176
     1
 90
       50
176
     1
 62
   256
176
     0
 40
1.0
176
     0
 90
        2
176
     1
  1
strokes_ogs.tif
176
     1
290
     0
176
     1
 40
1.0
176
     1
 40
1.0
176
     1
1001
ACAD
1000
AcDbSavedByObjectVersion
1070
     0
  0
VISUALSTYLE
  5
31
102
{ACAD_REACTORS
330
29
102
}
330
29
100
AcDbVisualStyle
  2
Hidden
 70
     6
177
     3
291
     0
 70
    58
 90
        1
176
     1
 90
        2
176
     1
 90
        2
176
     1
 90
        0
176
     1
 40
0.6
176
     1
 40
30.0
176
     1
 62
     7
420
 16777215
176
     1
 90
        2
176
     1
 90
        2
176
     1
 62
     7
176
     1
 62
   257
176
     1
 90
        2
176
     1
 90
        1
176
     1
 40
40.0
176
     1
 90
        0
176
     1
 62
   257
176
     1
 40
1.0
176
     1
 90
        1
176
     1
 90
        6
176
     1
 90
        2
176
     1
 62
     7
176
     1
 90
        3
176
     1
 90
        0
176
     1
 90
        0
176
     1
290
     0
176
     1
 90
        1
176
     1
 40
0.0
176
     1
 90
        0
176
     1
290
     0
176
     1
290
     1
176
     1
290
     1
176
     1
290
     0
176
     1
290
     0
176
     1
290
     0
176
     1
290
     0
176
     1
290
     0
176
     1
290
     0
176
     1
 90
       50
176
     1
 40
0.0
176
     1
 40
1.0
176
     1
 90
        0
176
     1
 62
    18
420
        0
176
     1
 90
       50
176
     1
 90
        3
176
     1
 62
     5
420
      255
176
     1
290
     0
176
     1
 90
       50
176
     1
 90
       50
176
     1
 90
       50
176
     1
290
     0
176
     1
 90
       50
176
     1
 62
   256
176
     0
 40
1.0
176
     0
 90
        2
176
     1
  1
strokes_ogs.tif
176
     1
290
     0
176
     1
 40
1.0
176
     1
 40
1.0
176
     1
1001
ACAD
1000
AcDbSavedByObjectVersion
1070
     0
  0
VISUALSTYLE
  5
3F
102
{ACAD_REACTORS
330
29
102
}
330
29
100
AcDbVisualStyle
  2
JitterOff
 70
    20
177
     3
291
     1
 70
    58
 90
        2
176
     0
 90
        2
176
     0
 90
        0
176
     0
 90
        0
176
     0
 40
0.6
176
     0
 40
30.0
176
     0
 62
     7
420
 16777215
176
     0
 90
        1
176
     0
 90
        4
176
     0
 62
     7
176
     0
 62
   257
176
     0
 90
        1
176
     0
 90
        1
176
     0
 40
1.0
176
     0
 90
       10
176
     2
 62
     7
176
     0
 40
1.0
176
     0
 90
        1
176
     0
 90
        6
176
     0
 90
        2
176
     0
 62
     7
176
     0
 90
        5
176
     0
 90
        0
176
     0
 90
        0
176
     0
290
     0
176
     0
 90
        1
176
     0
 40
0.0
176
     0
 90
        0
176
     0
290
     0
176
     0
290
     1
176
     0
290
     1
176
     0
290
     0
176
     0
290
     0
176
     0
290
     0
176
     0
290
     0
176
     0
290
     0
176
     0
290
     0
176
     0
 90
       50
176
     0
 40
0.0
176
     0
 40
1.0
176
     0
 90
        0
176
     0
 62
    18
420
        0
176
     0
 90
       50
176
     0
 90
        3
176
     0
 62
     5
420
      255
176
     0
290
     0
176
     0
 90
       50
176
     0
 90
       50
176
     0
 90
       50
176
     0
290
     0
176
     0
 90
       50
176
     0
 62
   256
176
     0
 40
1.0
176
     0
 90
        2
176
     0
  1
strokes_ogs.tif
176
     0
290
     0
176
     0
 40
1.0
176
     0
 40
1.0
176
     0
1001
ACAD
1000
AcDbSavedByObjectVersion
1070
     0
  0
VISUALSTYLE
  5
37
102
{ACAD_REACTORS
330
29
102
}
330
29
100
AcDbVisualStyle
  2
Linepattern
 70
    14
177
     3
291
     1
 70
    58
 90
        2
176
     1
 90
        2
176
     1
 90
        0
176
     1
 90
        0
176
     1
 40
0.6
176
     1
 40
30.0
176
     1
 62
     7
420
 16777215
176
     1
 90
        1
176
     1
 90
        4
176
     1
 62
     7
176
     1
 62
   257
176
     1
 90
        7
176
     1
 90
        7
176
     1
 40
1.0
176
     1
 90
        8
176
     1
 62
     7
176
     1
 40
1.0
176
     1
 90
        1
176
     1
 90
        6
176
     1
 90
        2
176
     1
 62
     7
176
     1
 90
        5
176
     1
 90
        0
176
     1
 90
        0
176
     1
290
     0
176
     1
 90
        1
176
     1
 40
0.0
176
     1
 90
        0
176
     1
290
     0
176
     1
290
     1
176
     1
290
     1
176
     1
290
     0
176
     1
290
     0
176
     1
290
     0
176
     1
290
     0
176
     1
290
     0
176
     1
290
     0
176
     1
 90
       50
176
     1
 40
0.0
176
     1
 40
1.0
176
     1
 90
        0
176
     1
 62
    18
420
        0
176
     1
 90
       50
176
     1
 90
        3
176
     1
 62
     5
420
      255
176
     1
290
     0
176
     1
 90
       50
176
     1
 90
       50
176
     1
 90
       50
176
     1
290
     0
176
     1
 90
       50
176
     1
 62
   256
176
     0
 40
1.0
176
     0
 90
        2
176
     1
  1
strokes_ogs.tif
176
     1
290
     0
176
     1
 40
1.0
176
     1
 40
1.0
176
     1
1001
ACAD
1000
AcDbSavedByObjectVersion
1070
     0
  0
VISUALSTYLE
  5
40
102
{ACAD_REACTORS
330
29
102
}
330
29
100
AcDbVisualStyle
  2
OverhangOff
 70
    21
177
     3
291
     1
 70
    58
 90
        2
176
     0
 90
        2
176
     0
 90
        0
176
     0
 90
        0
176
     0
 40
0.6
176
     0
 40
30.0
176
     0
 62
     7
420
 16777215
176
     0
 90
        1
176
     0
 90
        4
176
     0
 62
     7
176
     0
 62
   257
176
     0
 90
        1
176
     0
 90
        1
176
     0
 40
1.0
176
     0
 90
        9
176
     2
 62
     7
176
     0
 40
1.0
176
     0
 90
        1
176
     0
 90
        6
176
     0
 90
        2
176
     0
 62
     7
176
     0
 90
        5
176
     0
 90
        0
176
     0
 90
        0
176
     0
290
     0
176
     0
 90
        1
176
     0
 40
0.0
176
     0
 90
        0
176
     0
290
     0
176
     0
290
     1
176
     0
290
     1
176
     0
290
     0
176
     0
290
     0
176
     0
290
     0
176
     0
290
     0
176
     0
290
     0
176
     0
290
     0
176
     0
 90
       50
176
     0
 40
0.0
176
     0
 40
1.0
176
     0
 90
        0
176
     0
 62
    18
420
        0
176
     0
 90
       50
176
     0
 90
        3
176
     0
 62
     5
420
      255
176
     0
290
     0
176
     0
 90
       50
176
     0
 90
       50
176
     0
 90
       50
176
     0
290
     0
176
     0
 90
       50
176
     0
 62
   256
176
     0
 40
1.0
176
     0
 90
        2
176
     0
  1
strokes_ogs.tif
176
     0
290
     0
176
     0
 40
1.0
176
     0
 40
1.0
176
     0
1001
ACAD
1000
AcDbSavedByObjectVersion
1070
     0
  0
VISUALSTYLE
  5
33
102
{ACAD_REACTORS
330
29
102
}
330
29
100
AcDbVisualStyle
  2
Realistic
 70
     8
177
     3
291
     0
 70
    58
 90
        2
176
     1
 90
        3
176
     1
 90
        0
176
     1
 90
        2
176
     1
 40
0.6
176
     1
 40
30.0
176
     1
 62
     7
420
 16777215
176
     1
 90
        0
176
     1
 90
        0
176
     1
 62
     7
176
     1
 62
   257
176
     1
 90
        1
176
     1
 90
        1
176
     1
 40
1.0
176
     1
 90
        8
176
     1
 62
   257
176
     1
 40
1.0
176
     1
 90
        1
176
     1
 90
        6
176
     1
 90
        2
176
     1
 62
     7
176
     1
 90
        3
176
     1
 90
        0
176
     1
 90
        0
176
     1
290
     0
176
     1
 90
       13
176
     1
 40
0.0
176
     1
 90
        0
176
     1
290
     0
176
     1
290
     1
176
     1
290
     1
176
     1
290
     0
176
     1
290
     0
176
     1
290
     0
176
     1
290
     0
176
     1
290
     0
176
     1
290
     0
176
     1
 90
       50
176
     1
 40
0.0
176
     1
 40
1.0
176
     1
 90
        0
176
     1
 62
    18
420
        0
176
     1
 90
       50
176
     1
 90
        3
176
     1
 62
     5
420
      255
176
     1
290
     0
176
     1
 90
       50
176
     1
 90
       50
176
     1
 90
       50
176
     1
290
     0
176
     1
 90
       50
176
     1
 62
   256
176
     0
 40
1.0
176
     0
 90
        2
176
     1
  1
strokes_ogs.tif
176
     1
290
     0
176
     1
 40
1.0
176
     1
 40
1.0
176
     1
1001
ACAD
1000
AcDbSavedByObjectVersion
1070
     0
  0
VISUALSTYLE
  5
3E
102
{ACAD_REACTORS
330
29
102
}
330
29
100
AcDbVisualStyle
  2
Shaded
 70
    27
177
     3
291
     0
 70
    58
 90
        2
176
     1
 90
        2
176
     1
 90
        1
176
     1
 90
        2
176
     1
 40
0.6
176
     1
 40
30.0
176
     1
 62
     7
420
 16777215
176
     1
 90
        0
176
     1
 90
        4
176
     1
 62
     7
176
     1
 62
   257
176
     1
 90
        1
176
     1
 90
        1
176
     1
 40
1.0
176
     1
 90
        8
176
     1
 62
   257
176
     1
 40
1.0
176
     1
 90
        1
176
     1
 90
        6
176
     1
 90
        2
176
     1
 62
     8
420
  7895160
176
     1
 90
        3
176
     1
 90
        0
176
     1
 90
        0
176
     1
290
     0
176
     1
 90
        5
176
     1
 40
0.0
176
     1
 90
        0
176
     1
290
     0
176
     1
290
     1
176
     1
290
     1
176
     1
290
     0
176
     1
290
     0
176
     1
290
     0
176
     1
290
     0
176
     1
290
     0
176
     1
290
     0
176
     1
 90
       50
176
     1
 40
0.0
176
     1
 40
1.0
176
     1
 90
        0
176
     1
 62
    18
420
        0
176
     1
 90
       50
176
     1
 90
        3
176
     1
 62
     5
420
      255
176
     1
290
     0
176
     1
 90
       50
176
     1
 90
       50
176
     1
 90
       50
176
     1
290
     0
176
     1
 90
       50
176
     1
 62
   256
176
     0
 40
1.0
176
     0
 90
        2
176
     1
  1
strokes_ogs.tif
176
     1
290
     0
176
     1
 40
1.0
176
     1
 40
1.0
176
     1
1001
ACAD
1000
AcDbSavedByObjectVersion
1070
     0
  0
VISUALSTYLE
  5
3D
102
{ACAD_REACTORS
330
29
102
}
330
29
100
AcDbVisualStyle
  2
Shaded with edges
 70
    26
177
     3
291
     0
 70
    58
 90
        2
176
     1
 90
        2
176
     1
 90
        1
176
     1
 90
        2
176
     1
 40
0.6
176
     1
 40
30.0
176
     1
 62
     7
420
 16777215
176
     1
 90
        1
176
     1
 90
        2
176
     1
 62
     7
176
     1
 62
   257
176
     1
 90
        2
176
     1
 90
        1
176
     1
 40
1.0
176
     1
 90
        8
176
     1
 62
   257
176
     1
 40
1.0
176
     1
 90
        1
176
     1
 90
        6
176
     1
 90
        2
176
     1
 62
     7
176
     1
 90
        3
176
     1
 90
        0
176
     1
 90
        0
176
     1
290
     0
176
     1
 90
        5
176
     1
 40
0.0
176
     1
 90
        0
176
     1
290
     0
176
     1
290
     1
176
     1
290
     1
176
     1
290
     0
176
     1
290
     0
176
     1
290
     0
176
     1
290
     0
176
     1
290
     0
176
     1
290
     0
176
     1
 90
       50
176
     1
 40
0.0
176
     1
 40
1.0
176
     1
 90
        0
176
     1
 62
    18
420
        0
176
     1
 90
       50
176
     1
 90
        3
176
     1
 62
     5
420
      255
176
     1
290
     0
176
     1
 90
       50
176
     1
 90
       50
176
     1
 90
       50
176
     1
290
     0
176
     1
 90
       50
176
     1
 62
   256
176
     0
 40
1.0
176
     0
 90
        2
176
     1
  1
strokes_ogs.tif
176
     1
290
     0
176
     1
 40
1.0
176
     1
 40
1.0
176
     1
1001
ACAD
1000
AcDbSavedByObjectVersion
1070
     0
  0
VISUALSTYLE
  5
3A
102
{ACAD_REACTORS
330
29
102
}
330
29
100
AcDbVisualStyle
  2
Shades of Gray
 70
    23
177
     3
291
     0
 70
    58
 90
        2
176
     1
 90
        2
176
     1
 90
        3
176
     1
 90
        0
176
     1
 40
0.6
176
     1
 40
30.0
176
     1
 62
     7
420
 16777215
176
     1
 90
        2
176
     1
 90
        2
176
     1
 62
     7
176
     1
 62
     7
176
     1
 90
        1
176
     1
 90
        1
176
     1
 40
40.0
176
     1
 90
        8
176
     1
 62
     7
176
     1
 40
1.0
176
     1
 90
        1
176
     1
 90
        6
176
     1
 90
        2
176
     1
 62
     7
176
     1
 90
        3
176
     1
 90
        0
176
     1
 90
        0
176
     1
290
     0
176
     1
 90
        1
176
     1
 40
0.0
176
     1
 90
        0
176
     1
290
     0
176
     1
290
     1
176
     1
290
     1
176
     1
290
     0
176
     1
290
     0
176
     1
290
     0
176
     1
290
     0
176
     1
290
     0
176
     1
290
     0
176
     1
 90
       50
176
     1
 40
0.0
176
     1
 40
1.0
176
     1
 90
        0
176
     1
 62
    18
420
        0
176
     1
 90
       50
176
     1
 90
        3
176
     1
 62
     5
420
      255
176
     1
290
     0
176
     1
 90
       50
176
     1
 90
       50
176
     1
 90
       50
176
     1
290
     0
176
     1
 90
       50
176
     1
 62
   256
176
     0
 40
1.0
176
     0
 90
        2
176
     1
  1
strokes_ogs.tif
176
     1
290
     0
176
     1
 40
1.0
176
     1
 40
1.0
176
     1
1001
ACAD
1000
AcDbSavedByObjectVersion
1070
     0
  0
VISUALSTYLE
  5
3B
102
{ACAD_REACTORS
330
29
102
}
330
29
100
AcDbVisualStyle
  2
Sketchy
 70
    24
177
     3
291
     0
 70
    58
 90
        1
176
     1
 90
        2
176
     1
 90
        2
176
     1
 90
        0
176
     1
 40
0.6
176
     1
 40
30.0
176
     1
 62
     7
420
 16777215
176
     1
 90
        2
176
     1
 90
        2
176
     1
 62
     7
176
     1
 62
     7
176
     1
 90
        1
176
     1
 90
        1
176
     1
 40
40.0
176
     1
 90
       11
176
     1
 62
     7
176
     1
 40
1.0
176
     1
 90
        1
176
     1
 90
        6
176
     1
 90
        2
176
     1
 62
     7
176
     1
 90
        6
176
     1
 90
        0
176
     1
 90
        0
176
     1
290
     0
176
     1
 90
        1
176
     1
 40
0.0
176
     1
 90
        0
176
     1
290
     0
176
     1
290
     1
176
     1
290
     1
176
     1
290
     0
176
     1
290
     0
176
     1
290
     0
176
     1
290
     0
176
     1
290
     0
176
     1
290
     0
176
     1
 90
       50
176
     1
 40
0.0
176
     1
 40
1.0
176
     1
 90
        0
176
     1
 62
    18
420
        0
176
     1
 90
       50
176
     1
 90
        3
176
     1
 62
     5
420
      255
176
     1
290
     0
176
     1
 90
       50
176
     1
 90
       50
176
     1
 90
       50
176
     1
290
     0
176
     1
 90
       50
176
     1
 62
   256
176
     0
 40
1.0
176
     0
 90
        2
176
     1
  1
strokes_ogs.tif
176
     1
290
     0
176
     1
 40
1.0
176
     1
 40
1.0
176
     1
1001
ACAD
1000
AcDbSavedByObjectVersion
1070
     0
  0
VISUALSTYLE
  5
36
102
{ACAD_REACTORS
330
29
102
}
330
29
100
AcDbVisualStyle
  2
Thicken
 70
    13
177
     3
291
     1
 70
    58
 90
        2
176
     1
 90
        2
176
     1
 90
        0
176
     1
 90
        0
176
     1
 40
0.6
176
     1
 40
30.0
176
     1
 62
     7
420
 16777215
176
     1
 90
        1
176
     1
 90
        4
176
     1
 62
     7
176
     1
 62
   257
176
     1
 90
        1
176
     1
 90
        1
176
     1
 40
1.0
176
     1
 90
       12
176
     1
 62
     7
176
     1
 40
1.0
176
     1
 90
        1
176
     1
 90
        6
176
     1
 90
        2
176
     1
 62
     7
176
     1
 90
        5
176
     1
 90
        0
176
     1
 90
        0
176
     1
290
     0
176
     1
 90
        1
176
     1
 40
0.0
176
     1
 90
        0
176
     1
290
     0
176
     1
290
     1
176
     1
290
     1
176
     1
290
     0
176
     1
290
     0
176
     1
290
     0
176
     1
290
     0
176
     1
290
     0
176
     1
290
     0
176
     1
 90
       50
176
     1
 40
0.0
176
     1
 40
1.0
176
     1
 90
        0
176
     1
 62
    18
420
        0
176
     1
 90
       50
176
     1
 90
        3
176
     1
 62
     5
420
      255
176
     1
290
     0
176
     1
 90
       50
176
     1
 90
       50
176
     1
 90
       50
176
     1
290
     0
176
     1
 90
       50
176
     1
 62
   256
176
     0
 40
1.0
176
     0
 90
        2
176
     1
  1
strokes_ogs.tif
176
     1
290
     0
176
     1
 40
1.0
176
     1
 40
1.0
176
     1
1001
ACAD
1000
AcDbSavedByObjectVersion
1070
     0
  0
VISUALSTYLE
  5
30
102
{ACAD_REACTORS
330
29
102
}
330
29
100
AcDbVisualStyle
  2
Wireframe
 70
     5
177
     3
291
     0
 70
    58
 90
        0
176
     1
 90
        2
176
     1
 90
        0
176
     1
 90
        0
176
     1
 40
0.6
176
     1
 40
30.0
176
     1
 62
     7
420
 16777215
176
     1
 90
        1
176
     1
 90
        4
176
     1
 62
     7
176
     1
 62
   257
176
     1
 90
        1
176
     1
 90
        1
176
     1
 40
1.0
176
     1
 90
        0
176
     1
 62
   257
176
     1
 40
1.0
176
     1
 90
        1
176
     1
 90
        6
176
     1
 90
        2
176
     1
 62
     7
176
     1
 90
        3
176
     1
 90
        0
176
     1
 90
        0
176
     1
290
     0
176
     1
 90
        1
176
     1
 40
0.0
176
     1
 90
        0
176
     1
290
     0
176
     1
290
     1
176
     1
290
     1
176
     1
290
     0
176
     1
290
     0
176
     1
290
     0
176
     1
290
     0
176
     1
290
     0
176
     1
290
     0
176
     1
 90
       50
176
     1
 40
0.0
176
     1
 40
1.0
176
     1
 90
        0
176
     1
 62
    18
420
        0
176
     1
 90
       50
176
     1
 90
        3
176
     1
 62
     5
420
      255
176
     1
290
     0
176
     1
 90
       50
176
     1
 90
       50
176
     1
 90
       50
176
     1
290
     0
176
     1
 90
       50
176
     1
 62
   256
176
     0
 40
1.0
176
     0
 90
        2
176
     1
  1
strokes_ogs.tif
176
     1
290
     0
176
     1
 40
1.0
176
     1
 40
1.0
176
     1
1001
ACAD
1000
AcDbSavedByObjectVersion
1070
     0
  0
VISUALSTYLE
  5
3C
102
{ACAD_REACTORS
330
29
102
}
330
29
100
AcDbVisualStyle
  2
X-Ray
 70
    25
177
     3
291
     0
 70
    58
 90
        2
176
     1
 90
        2
176
     1
 90
        1
176
     1
 90
        1
176
     1
 40
0.5
176
     1
 40
30.0
176
     1
 62
     7
420
 16777215
176
     1
 90
        1
176
     1
 90
        0
176
     1
 62
     7
176
     1
 62
   257
176
     1
 90
        1
176
     1
 90
        1
176
     1
 40
1.0
176
     1
 90
        8
176
     1
 62
     7
176
     1
 40
1.0
176
     1
 90
        1
176
     1
 90
        6
176
     1
 90
        2
176
     1
 62
     7
176
     1
 90
        3
176
     1
 90
        0
176
     1
 90
        0
176
     1
290
     0
176
     1
 90
       13
176
     1
 40
0.0
176
     1
 90
        0
176
     1
290
     0
176
     1
290
     1
176
     1
290
     1
176
     1
290
     0
176
     1
290
     0
176
     1
290
     0
176
     1
290
     0
176
     1
290
     0
176
     1
290
     0
176
     1
 90
       50
176
     1
 40
0.0
176
     1
 40
1.0
176
     1
 90
        0
176
     1
 62
    18
420
        0
176
     1
 90
       50
176
     1
 90
        3
176
     1
 62
     5
420
      255
176
     1
290
     0
176
     1
 90
       50
176
     1
 90
       50
176
     1
 90
       50
176
     1
290
     0
176
     1
 90
       50
176
     1
 62
   256
176
     0
 40
1.0
176
     0
 90
        2
176
     1
  1
strokes_ogs.tif
176
     1
290
     0
176
     1
 40
1.0
176
     1
 40
1.0
176
     1
1001
ACAD
1000
AcDbSavedByObjectVersion
1070
     0
  0
DICTIONARYVAR
  5
CC
102
{ACAD_REACTORS
330
C7
102
}
330
C7
100
DictionaryVariables
280
     0
  1
1:1
  0
DICTIONARYVAR
  5
C9
102
{ACAD_REACTORS
330
C7
102
}
330
C7
100
DictionaryVariables
280
     0
  1
STANDARD
  0
DICTIONARYVAR
  5
C8
102
{ACAD_REACTORS
330
C7
102
}
330
C7
100
DictionaryVariables
280
     0
  1
STANDARD
  0
DICTIONARYVAR
  5
CA
102
{ACAD_REACTORS
330
C7
102
}
330
C7
100
DictionaryVariables
280
     0
  1
Imperial24
  0
DICTIONARYVAR
  5
CB
102
{ACAD_REACTORS
330
C7
102
}
330
C7
100
DictionaryVariables
280
     0
  1
Imperial24
  0
DICTIONARY
  5
D3
330
6B
100
AcDbDictionary
280
     1
281
     1
  3
ACAD_XREC_ROUNDTRIP
360
D4
  0
DICTIONARY
  5
1A
330
19
100
AcDbDictionary
280
     1
281
     1
  3
BUMPTILE
360
1C
  3
DIFFUSETILE
360
1B
  3
OPACITYTILE
360
1F
  3
REFLECTIONTILE
360
1E
  3
REFRACTIONTILE
360
20
  3
SPECULARTILE
360
1D
  0
DICTIONARY
  5
12
330
11
100
AcDbDictionary
280
     1
281
     1
  3
BUMPTILE
360
14
  3
DIFFUSETILE
360
13
  3
OPACITYTILE
360
17
  3
REFLECTIONTILE
360
16
  3
REFRACTIONTILE
360
18
  3
SPECULARTILE
360
15
  0
DICTIONARY
  5
22
330
21
100
AcDbDictionary
280
     1
281
     1
  3
BUMPTILE
360
24
  3
DIFFUSETILE
360
23
  3
OPACITYTILE
360
27
  3
REFLECTIONTILE
360
26
  3
REFRACTIONTILE
360
28
  3
SPECULARTILE
360
25
  0
DICTIONARY
  5
D1
330
69
100
AcDbDictionary
280
     1
281
     1
  3
ACAD_XREC_ROUNDTRIP
360
D2
  0
DICTIONARY
  5
CD
330
65
100
AcDbDictionary
280
     1
281
     1
  3
ACAD_ROUNDTRIP_2008_TABLESTYLE_CELLSTYLEMAP
360
CE
  0
XRECORD
  5
D4
102
{ACAD_REACTORS
330
D3
102
}
330
D3
100
AcDbXrecord
280
     1
102
DISPLAYNAME
  1
Imperial24
102
FLAGS
 90
        0
  0
XRECORD
  5
1C
102
{ACAD_REACTORS
330
1A
102
}
330
1A
100
AcDbXrecord
280
     1
270
     1
271
     1
  0
XRECORD
  5
1B
102
{ACAD_REACTORS
330
1A
102
}
330
1A
100
AcDbXrecord
280
     1
270
     1
271
     1
  0
XRECORD
  5
1F
102
{ACAD_REACTORS
330
1A
102
}
330
1A
100
AcDbXrecord
280
     1
270
     1
271
     1
  0
XRECORD
  5
1E
102
{ACAD_REACTORS
330
1A
102
}
330
1A
100
AcDbXrecord
280
     1
270
     1
271
     1
  0
XRECORD
  5
20
102
{ACAD_REACTORS
330
1A
102
}
330
1A
100
AcDbXrecord
280
     1
270
     1
271
     1
  0
XRECORD
  5
1D
102
{ACAD_REACTORS
330
1A
102
}
330
1A
100
AcDbXrecord
280
     1
270
     1
271
     1
  0
XRECORD
  5
14
102
{ACAD_REACTORS
330
12
102
}
330
12
100
AcDbXrecord
280
     1
270
     1
271
     1
  0
XRECORD
  5
13
102
{ACAD_REACTORS
330
12
102
}
330
12
100
AcDbXrecord
280
     1
270
     1
271
     1
  0
XRECORD
  5
17
102
{ACAD_REACTORS
330
12
102
}
330
12
100
AcDbXrecord
280
     1
270
     1
271
     1
  0
XRECORD
  5
16
102
{ACAD_REACTORS
330
12
102
}
330
12
100
AcDbXrecord
280
     1
270
     1
271
     1
  0
XRECORD
  5
18
102
{ACAD_REACTORS
330
12
102
}
330
12
100
AcDbXrecord
280
     1
270
     1
271
     1
  0
XRECORD
  5
15
102
{ACAD_REACTORS
330
12
102
}
330
12
100
AcDbXrecord
280
     1
270
     1
271
     1
  0
XRECORD
  5
24
102
{ACAD_REACTORS
330
22
102
}
330
22
100
AcDbXrecord
280
     1
270
     1
271
     1
  0
XRECORD
  5
23
102
{ACAD_REACTORS
330
22
102
}
330
22
100
AcDbXrecord
280
     1
270
     1
271
     1
  0
XRECORD
  5
27
102
{ACAD_REACTORS
330
22
102
}
330
22
100
AcDbXrecord
280
     1
270
     1
271
     1
  0
XRECORD
  5
26
102
{ACAD_REACTORS
330
22
102
}
330
22
100
AcDbXrecord
280
     1
270
     1
271
     1
  0
XRECORD
  5
28
102
{ACAD_REACTORS
330
22
102
}
330
22
100
AcDbXrecord
280
     1
270
     1
271
     1
  0
XRECORD
  5
25
102
{ACAD_REACTORS
330
22
102
}
330
22
100
AcDbXrecord
280
     1
270
     1
271
     1
  0
XRECORD
  5
D2
102
{ACAD_REACTORS
330
D1
102
}
330
D1
100
AcDbXrecord
280
     1
102
DISPLAYNAME
  1
Imperial24
102
FLAGS
 90
        0
  0
CELLSTYLEMAP
  5
CE
102
{ACAD_REACTORS
330
CD
102
}
330
CD
100
AcDbCellStyleMap
 90
        3
300
CELLSTYLE
  1
TABLEFORMAT_BEGIN
 90
        5
170
     1
 91
        0
 92
    32768
 62
   257
 93
        1
300
CONTENTFORMAT
  1
CONTENTFORMAT_BEGIN
 90
        0
 91
        0
 92
      512
 93
        0
300

 40
0.0
140
1.0
 94
        5
 62
     0
340
55
144
0.25
309
CONTENTFORMAT_END
171
     0
 94
        0
309
TABLEFORMAT_END
  1
CELLSTYLE_BEGIN
 90
        1
 91
        1
300
_TITLE
309
CELLSTYLE_END
300
CELLSTYLE
  1
TABLEFORMAT_BEGIN
 90
        5
170
     1
 91
        0
 92
        0
 62
   257
 93
        1
300
CONTENTFORMAT
  1
CONTENTFORMAT_BEGIN
 90
        0
 91
        0
 92
      512
 93
        0
300

 40
0.0
140
1.0
 94
        5
 62
     0
340
55
144
0.18
309
CONTENTFORMAT_END
171
     0
 94
        0
309
TABLEFORMAT_END
  1
CELLSTYLE_BEGIN
 90
        2
 91
        1
300
_HEADER
309
CELLSTYLE_END
300
CELLSTYLE
  1
TABLEFORMAT_BEGIN
 90
        5
170
     1
 91
        0
 92
        0
 62
   257
 93
        1
300
CONTENTFORMAT
  1
CONTENTFORMAT_BEGIN
 90
        0
 91
        0
 92
      512
 93
        0
300

 40
0.0
140
1.0
 94
        2
 62
     0
340
55
144
0.18
309
CONTENTFORMAT_END
171
     0
 94
        0
309
TABLEFORMAT_END
  1
CELLSTYLE_BEGIN
 90
        3
 91
        2
300
_DATA
309
CELLSTYLE_END
  0
ENDSEC
  0
EOF
