  0
SECTION
  2
HEADER
  9
$ACADVER
  1
AC1015
  9
$ACADMAINTVER
 70
     6
  9
$DWGCODEPAGE
  3
ANSI_1252
  9
$INSBASE
 10
0.0
 20
0.0
 30
0.0
  9
$EXTMIN
 10
1.000000000000000E+20
 20
1.000000000000000E+20
 30
1.000000000000000E+20
  9
$EXTMAX
 10
-1.000000000000000E+20
 20
-1.000000000000000E+20
 30
-1.000000000000000E+20
  9
$LIMMIN
 10
0.0
 20
0.0
  9
$LIMMAX
 10
12.0
 20
9.0
  9
$ORTHOMODE
 70
     0
  9
$REGENMODE
 70
     1
  9
$FILLMODE
 70
     1
  9
$QTEXTMODE
 70
     0
  9
$MIRRTEXT
 70
     1
  9
$LTSCALE
 40
1.0
  9
$ATTMODE
 70
     1
  9
$TEXTSIZE
 40
0.2
  9
$TRACEWID
 40
0.05
  9
$TEXTSTYLE
  7
Standard
  9
$CLAYER
  8
0
  9
$CELTYPE
  6
ByLayer
  9
$CECOLOR
 62
   256
  9
$CELTSCALE
 40
1.0
  9
$DISPSILH
 70
     0
  9
$DIMSCALE
 40
1.0
  9
$DIMASZ
 40
0.18
  9
$DIMEXO
 40
0.0625
  9
$DIMDLI
 40
0.38
  9
$DIMRND
 40
0.0
  9
$DIMDLE
 40
0.0
  9
$DIMEXE
 40
0.18
  9
$DIMTP
 40
0.0
  9
$DIMTM
 40
0.0
  9
$DIMTXT
 40
0.18
  9
$DIMCEN
 40
0.09
  9
$DIMTSZ
 40
0.0
  9
$DIMTOL
 70
     0
  9
$DIMLIM
 70
     0
  9
$DIMTIH
 70
     1
  9
$DIMTOH
 70
     1
  9
$DIMSE1
 70
     0
  9
$DIMSE2
 70
     0
  9
$DIMTAD
 70
     0
  9
$DIMZIN
 70
     0
  9
$DIMBLK
  1

  9
$DIMASO
 70
     1
  9
$DIMSHO
 70
     1
  9
$DIMPOST
  1

  9
$DIMAPOST
  1

  9
$DIMALT
 70
     0
  9
$DIMALTD
 70
     2
  9
$DIMALTF
 40
25.4
  9
$DIMLFAC
 40
1.0
  9
$DIMTOFL
 70
     0
  9
$DIMTVP
 40
0.0
  9
$DIMTIX
 70
     0
  9
$DIMSOXD
 70
     0
  9
$DIMSAH
 70
     0
  9
$DIMBLK1
  1

  9
$DIMBLK2
  1

  9
$DIMSTYLE
  2
Standard
  9
$DIMCLRD
 70
     0
  9
$DIMCLRE
 70
     0
  9
$DIMCLRT
 70
     0
  9
$DIMTFAC
 40
1.0
  9
$DIMGAP
 40
0.09
  9
$DIMJUST
 70
     0
  9
$DIMSD1
 70
     0
  9
$DIMSD2
 70
     0
  9
$DIMTOLJ
 70
     1
  9
$DIMTZIN
 70
     0
  9
$DIMALTZ
 70
     0
  9
$DIMALTTZ
 70
     0
  9
$DIMUPT
 70
     0
  9
$DIMDEC
 70
     4
  9
$DIMTDEC
 70
     4
  9
$DIMALTU
 70
     2
  9
$DIMALTTD
 70
     2
  9
$DIMTXSTY
  7
Standard
  9
$DIMAUNIT
 70
     0
  9
$DIMADEC
 70
     0
  9
$DIMALTRND
 40
0.0
  9
$DIMAZIN
 70
     0
  9
$DIMDSEP
 70
    46
  9
$DIMATFIT
 70
     3
  9
$DIMFRAC
 70
     0
  9
$DIMLDRBLK
  1

  9
$DIMLUNIT
 70
     2
  9
$DIMLWD
 70
    -2
  9
$DIMLWE
 70
    -2
  9
$DIMTMOVE
 70
     0
  9
$LUNITS
 70
     2
  9
$LUPREC
 70
     4
  9
$SKETCHINC
 40
0.1
  9
$FILLETRAD
 40
0.5
  9
$AUNITS
 70
     0
  9
$AUPREC
 70
     0
  9
$MENU
  1
.
  9
$ELEVATION
 40
0.0
  9
$PELEVATION
 40
0.0
  9
$THICKNESS
 40
0.0
  9
$LIMCHECK
 70
     0
  9
$CHAMFERA
 40
0.5
  9
$CHAMFERB
 40
0.5
  9
$CHAMFERC
 40
1.0
  9
$CHAMFERD
 40
0.0
  9
$SKPOLY
 70
     0
  9
$TDCREATE
 40
2459236.606833345
  9
$TDUCREATE
 40
2459236.565166678
  9
$TDUPDATE
 40
2459236.606833704
  9
$TDUUPDATE
 40
2459236.565167037
  9
$TDINDWG
 40
0.0000000116
  9
$TDUSRTIMER
 40
0.0000000116
  9
$USRTIMER
 70
     1
  9
$ANGBASE
 50
0.0
  9
$ANGDIR
 70
     0
  9
$PDMODE
 70
     0
  9
$PDSIZE
 40
0.0
  9
$PLINEWID
 40
0.0
  9
$SPLFRAME
 70
     0
  9
$SPLINETYPE
 70
     6
  9
$SPLINESEGS
 70
     8
  9
$HANDSEED
  5
15E
  9
$SURFTAB1
 70
     6
  9
$SURFTAB2
 70
     6
  9
$SURFTYPE
 70
     6
  9
$SURFU
 70
     6
  9
$SURFV
 70
     6
  9
$UCSBASE
  2

  9
$UCSNAME
  2

  9
$UCSORG
 10
0.0
 20
0.0
 30
0.0
  9
$UCSXDIR
 10
1.0
 20
0.0
 30
0.0
  9
$UCSYDIR
 10
0.0
 20
1.0
 30
0.0
  9
$UCSORTHOREF
  2

  9
$UCSORTHOVIEW
 70
     0
  9
$UCSORGTOP
 10
0.0
 20
0.0
 30
0.0
  9
$UCSORGBOTTOM
 10
0.0
 20
0.0
 30
0.0
  9
$UCSORGLEFT
 10
0.0
 20
0.0
 30
0.0
  9
$UCSORGRIGHT
 10
0.0
 20
0.0
 30
0.0
  9
$UCSORGFRONT
 10
0.0
 20
0.0
 30
0.0
  9
$UCSORGBACK
 10
0.0
 20
0.0
 30
0.0
  9
$PUCSBASE
  2

  9
$PUCSNAME
  2

  9
$PUCSORG
 10
0.0
 20
0.0
 30
0.0
  9
$PUCSXDIR
 10
1.0
 20
0.0
 30
0.0
  9
$PUCSYDIR
 10
0.0
 20
1.0
 30
0.0
  9
$PUCSORTHOREF
  2

  9
$PUCSORTHOVIEW
 70
     0
  9
$PUCSORGTOP
 10
0.0
 20
0.0
 30
0.0
  9
$PUCSORGBOTTOM
 10
0.0
 20
0.0
 30
0.0
  9
$PUCSORGLEFT
 10
0.0
 20
0.0
 30
0.0
  9
$PUCSORGRIGHT
 10
0.0
 20
0.0
 30
0.0
  9
$PUCSORGFRONT
 10
0.0
 20
0.0
 30
0.0
  9
$PUCSORGBACK
 10
0.0
 20
0.0
 30
0.0
  9
$USERI1
 70
     0
  9
$USERI2
 70
     0
  9
$USERI3
 70
     0
  9
$USERI4
 70
     0
  9
$USERI5
 70
     0
  9
$USERR1
 40
0.0
  9
$USERR2
 40
0.0
  9
$USERR3
 40
0.0
  9
$USERR4
 40
0.0
  9
$USERR5
 40
0.0
  9
$WORLDVIEW
 70
     1
  9
$SHADEDGE
 70
     3
  9
$SHADEDIF
 70
    70
  9
$TILEMODE
 70
     1
  9
$MAXACTVP
 70
    64
  9
$PINSBASE
 10
0.0
 20
0.0
 30
0.0
  9
$PLIMCHECK
 70
     0
  9
$PEXTMIN
 10
1.000000000000000E+20
 20
1.000000000000000E+20
 30
1.000000000000000E+20
  9
$PEXTMAX
 10
-1.000000000000000E+20
 20
-1.000000000000000E+20
 30
-1.000000000000000E+20
  9
$PLIMMIN
 10
0.0
 20
0.0
  9
$PLIMMAX
 10
12.0
 20
9.0
  9
$UNITMODE
 70
     0
  9
$VISRETAIN
 70
     1
  9
$PLINEGEN
 70
     0
  9
$PSLTSCALE
 70
     1
  9
$TREEDEPTH
 70
  3020
  9
$CMLSTYLE
  2
Standard
  9
$CMLJUST
 70
     0
  9
$CMLSCALE
 40
1.0
  9
$PROXYGRAPHICS
 70
     1
  9
$MEASUREMENT
 70
     0
  9
$CELWEIGHT
370
    -1
  9
$ENDCAPS
280
     0
  9
$JOINSTYLE
280
     0
  9
$LWDISPLAY
290
     1
  9
$INSUNITS
 70
     4
  9
$HYPERLINKBASE
  1

  9
$STYLESHEET
  1

  9
$XEDIT
290
     1
  9
$CEPSNTYPE
380
     0
  9
$PSTYLEMODE
290
     1
  9
$FINGERPRINTGUID
  2
{DC4CF51D-BF57-4949-B661-B8B6667D2DB4}
  9
$VERSIONGUID
  2
{FAEB1C32-E019-11D5-929B-00C0DF256EC4}
  9
$EXTNAMES
290
     1
  9
$PSVPSCALE
 40
0.0
  9
$OLESTARTUP
290
     0
  0
ENDSEC
  0
SECTION
  2
CLASSES
  0
CLASS
  1
ACDBDICTIONARYWDFLT
  2
AcDbDictionaryWithDefault
  3
ObjectDBX Classes
 90
        0
280
     0
281
     0
  0
CLASS
  1
VISUALSTYLE
  2
AcDbVisualStyle
  3
ObjectDBX Classes
 90
     4095
280
     0
281
     0
  0
CLASS
  1
MATERIAL
  2
AcDbMaterial
  3
ObjectDBX Classes
 90
     1153
280
     0
281
     0
  0
CLASS
  1
SUN
  2
AcDbSun
  3
SCENEOE
 90
     1024
280
     0
281
     0
  0
CLASS
  1
DICTIONARYVAR
  2
AcDbDictionaryVar
  3
ObjectDBX Classes
 90
        0
280
     0
281
     0
  0
CLASS
  1
ACDBPLACEHOLDER
  2
AcDbPlaceHolder
  3
ObjectDBX Classes
 90
        0
280
     0
281
     0
  0
CLASS
  1
LAYOUT
  2
AcDbLayout
  3
ObjectDBX Classes
 90
        0
280
     0
281
     0
  0
ENDSEC
  0
SECTION
  2
TABLES
  0
TABLE
  2
VPORT
  5
8
330
0
100
AcDbSymbolTable
 70
     1
  0
VPORT
  5
29
330
8
100
AcDbSymbolTableRecord
100
AcDbViewportTableRecord
  2
*Active
 70
     0
 10
0.0
 20
0.0
 11
1.0
 21
1.0
 12
0.0
 22
0.0
 13
0.0
 23
0.0
 14
0.5
 24
0.5
 15
0.5
 25
0.5
 16
0.0
 26
0.0
 36
1.0
 17
178.681944399774
 27
113.0367077182199
 37
0.0
 40
67.79047337898314
 41
1.051196540477157
 42
50.0
 43
0.0
 44
0.0
 50
0.0
 51
0.0
 71
     0
 72
   100
 73
     1
 74
     3
 75
     0
 76
     0
 77
     0
 78
     0
281
     0
 65
     1
110
0.0
120
0.0
130
0.0
111
1.0
121
0.0
131
0.0
112
0.0
122
1.0
132
0.0
 79
     0
146
0.0
  0
ENDTAB
  0
TABLE
  2
LTYPE
  5
5
330
0
100
AcDbSymbolTable
 70
     1
  0
LTYPE
  5
14
330
5
100
AcDbSymbolTableRecord
100
AcDbLinetypeTableRecord
  2
ByBlock
 70
     0
  3

 72
    65
 73
     0
 40
0.0
  0
LTYPE
  5
15
330
5
100
AcDbSymbolTableRecord
100
AcDbLinetypeTableRecord
  2
ByLayer
 70
     0
  3

 72
    65
 73
     0
 40
0.0
  0
LTYPE
  5
16
330
5
100
AcDbSymbolTableRecord
100
AcDbLinetypeTableRecord
  2
Continuous
 70
     0
  3
Solid line
 72
    65
 73
     0
 40
0.0
  0
ENDTAB
  0
TABLE
  2
LAYER
  5
2
330
0
100
AcDbSymbolTable
 70
     4
  0
LAYER
  5
10
330
2
100
AcDbSymbolTableRecord
100
AcDbLayerTableRecord
  2
0
 70
     0
 62
     7
  6
Continuous
370
    -3
390
F
  0
LAYER
  5
5A
330
2
100
AcDbSymbolTableRecord
100
AcDbLayerTableRecord
  2
E_GB
 70
     0
 62
     7
  6
Continuous
370
    -3
390
F
  0
LAYER
  5
5B
330
2
100
AcDbSymbolTableRecord
100
AcDbLayerTableRecord
  2
_U+5207_U+7EBF
 70
     0
 62
     7
  6
Continuous
370
    -3
390
F
  0
LAYER
  5
5C
330
2
100
AcDbSymbolTableRecord
100
AcDbLayerTableRecord
  2
DEFPOINTS
 70
     0
 62
     7
  6
Continuous
290
     0
370
    -3
390
F
  0
ENDTAB
  0
TABLE
  2
STYLE
  5
3
330
0
100
AcDbSymbolTable
 70
     1
  0
STYLE
  5
11
330
3
100
AcDbSymbolTableRecord
100
AcDbTextStyleTableRecord
  2
Standard
 70
     0
 40
0.0
 41
1.0
 50
0.0
 71
     0
 42
0.2
  3
txt
  4

  0
ENDTAB
  0
TABLE
  2
VIEW
  5
6
330
0
100
AcDbSymbolTable
 70
     0
  0
ENDTAB
  0
TABLE
  2
UCS
  5
7
330
0
100
AcDbSymbolTable
 70
     0
  0
ENDTAB
  0
TABLE
  2
APPID
  5
9
330
0
100
AcDbSymbolTable
 70
     1
  0
APPID
  5
12
330
9
100
AcDbSymbolTableRecord
100
AcDbRegAppTableRecord
  2
ACAD
 70
     0
  0
ENDTAB
  0
TABLE
  2
DIMSTYLE
  5
A
330
0
100
AcDbSymbolTable
 70
     1
100
AcDbDimStyleTable
  0
DIMSTYLE
105
27
330
A
100
AcDbSymbolTableRecord
100
AcDbDimStyleTableRecord
  2
Standard
 70
     0
178
     0
340
11
  0
ENDTAB
  0
TABLE
  2
BLOCK_RECORD
  5
1
330
0
100
AcDbSymbolTable
 70
    16
  0
BLOCK_RECORD
  5
1F
330
1
100
AcDbSymbolTableRecord
100
AcDbBlockTableRecord
  2
*Model_Space
340
22
  0
BLOCK_RECORD
  5
1B
330
1
100
AcDbSymbolTableRecord
100
AcDbBlockTableRecord
  2
*Paper_Space
340
1E
  0
BLOCK_RECORD
  5
23
330
1
100
AcDbSymbolTableRecord
100
AcDbBlockTableRecord
  2
*Paper_Space0
340
26
  0
BLOCK_RECORD
  5
40
330
1
100
AcDbSymbolTableRecord
100
AcDbBlockTableRecord
  2
block 2
340
0
102
{BLKREFS
331
41
102
}
  0
BLOCK_RECORD
  5
44
330
1
100
AcDbSymbolTableRecord
100
AcDbBlockTableRecord
  2
block 3
340
0
102
{BLKREFS
331
45
102
}
  0
BLOCK_RECORD
  5
4D
330
1
100
AcDbSymbolTableRecord
100
AcDbBlockTableRecord
  2
block 4
340
0
102
{BLKREFS
331
4E
102
}
  0
BLOCK_RECORD
  5
51
330
1
100
AcDbSymbolTableRecord
100
AcDbBlockTableRecord
  2
block 5
340
0
102
{BLKREFS
331
52
102
}
  0
BLOCK_RECORD
  5
5D
330
1
100
AcDbSymbolTableRecord
100
AcDbBlockTableRecord
  2
block 6
340
0
102
{BLKREFS
331
5E
102
}
  0
BLOCK_RECORD
  5
61
330
1
100
AcDbSymbolTableRecord
100
AcDbBlockTableRecord
  2
block 7
340
0
102
{BLKREFS
331
62
102
}
  0
BLOCK_RECORD
  5
6B
330
1
100
AcDbSymbolTableRecord
100
AcDbBlockTableRecord
  2
block 8
340
0
102
{BLKREFS
331
6C
102
}
  0
BLOCK_RECORD
  5
6F
330
1
100
AcDbSymbolTableRecord
100
AcDbBlockTableRecord
  2
block 9
340
0
102
{BLKREFS
331
70
102
}
  0
BLOCK_RECORD
  5
79
330
1
100
AcDbSymbolTableRecord
100
AcDbBlockTableRecord
  2
block 10
340
0
102
{BLKREFS
331
7A
102
}
  0
BLOCK_RECORD
  5
7D
330
1
100
AcDbSymbolTableRecord
100
AcDbBlockTableRecord
  2
block 11
340
0
102
{BLKREFS
331
7E
102
}
  0
BLOCK_RECORD
  5
A1
330
1
100
AcDbSymbolTableRecord
100
AcDbBlockTableRecord
  2
block 12
340
0
102
{BLKREFS
331
A2
102
}
  0
BLOCK_RECORD
  5
A5
330
1
100
AcDbSymbolTableRecord
100
AcDbBlockTableRecord
  2
block 13
340
0
102
{BLKREFS
331
A6
102
}
  0
BLOCK_RECORD
  5
C0
330
1
100
AcDbSymbolTableRecord
100
AcDbBlockTableRecord
  2
block 14
340
0
102
{BLKREFS
331
C1
102
}
  0
BLOCK_RECORD
  5
C4
330
1
100
AcDbSymbolTableRecord
100
AcDbBlockTableRecord
  2
block 15
340
0
102
{BLKREFS
331
C5
102
}
  0
BLOCK_RECORD
  5
E9
330
1
100
AcDbSymbolTableRecord
100
AcDbBlockTableRecord
  2
block 16
340
0
102
{BLKREFS
331
EA
102
}
  0
ENDTAB
  0
ENDSEC
  0
SECTION
  2
BLOCKS
  0
BLOCK
  5
20
330
1F
100
AcDbEntity
  8
0
100
AcDbBlockBegin
  2
*Model_Space
 70
     0
 10
0.0
 20
0.0
 30
0.0
  3
*Model_Space
  1

  0
ENDBLK
  5
21
330
1F
100
AcDbEntity
  8
0
100
AcDbBlockEnd
  0
BLOCK
  5
1C
330
1B
100
AcDbEntity
 67
     1
  8
0
100
AcDbBlockBegin
  2
*Paper_Space
 70
     0
 10
0.0
 20
0.0
 30
0.0
  3
*Paper_Space
  1

  0
ENDBLK
  5
1D
330
1B
100
AcDbEntity
 67
     1
  8
0
100
AcDbBlockEnd
  0
BLOCK
  5
24
330
23
100
AcDbEntity
  8
0
100
AcDbBlockBegin
  2
*Paper_Space0
 70
     0
 10
0.0
 20
0.0
 30
0.0
  3
*Paper_Space0
  1

  0
ENDBLK
  5
25
330
23
100
AcDbEntity
  8
0
100
AcDbBlockEnd
  0
BLOCK
  5
42
330
40
100
AcDbEntity
  8
0
100
AcDbBlockBegin
  2
block 2
 70
     0
 10
0.0
 20
0.0
 30
0.0
  3
block 2
  1

  0
INSERT
  5
45
330
40
100
AcDbEntity
  8
0
100
AcDbBlockReference
  2
block 3
 10
0.0
 20
0.0
 30
0.0
  0
ENDBLK
  5
43
330
40
100
AcDbEntity
  8
0
100
AcDbBlockEnd
  0
BLOCK
  5
46
330
44
100
AcDbEntity
  8
0
100
AcDbBlockBegin
  2
block 3
 70
     0
 10
0.0
 20
0.0
 30
0.0
  3
block 3
  1

  0
SPLINE
  5
48
330
44
100
AcDbEntity
  8
0
370
     0
100
AcDbSpline
210
0.0
220
0.0
230
1.0
 70
    11
 71
     3
 72
    71
 73
    67
 74
     0
 42
0.0000000001
 43
0.0000000001
 12
1.0
 22
0.0
 32
0.0
 13
1.0
 23
0.0
 33
0.0
 40
0.0
 40
0.0
 40
0.0
 40
0.0
 40
1.0
 40
1.0
 40
1.0
 40
2.0
 40
2.0
 40
2.0
 40
3.0
 40
3.0
 40
3.0
 40
4.0
 40
4.0
 40
4.0
 40
5.0
 40
5.0
 40
5.0
 40
6.0
 40
6.0
 40
6.0
 40
7.0
 40
7.0
 40
7.0
 40
8.0
 40
8.0
 40
8.0
 40
9.0
 40
9.0
 40
9.0
 40
10.0
 40
10.0
 40
10.0
 40
11.0
 40
11.0
 40
11.0
 40
12.0
 40
12.0
 40
12.0
 40
13.0
 40
13.0
 40
13.0
 40
14.0
 40
14.0
 40
14.0
 40
15.0
 40
15.0
 40
15.0
 40
16.0
 40
16.0
 40
16.0
 40
17.0
 40
17.0
 40
17.0
 40
18.0
 40
18.0
 40
18.0
 40
19.0
 40
19.0
 40
19.0
 40
20.0
 40
20.0
 40
20.0
 40
21.0
 40
21.0
 40
21.0
 40
22.0
 40
22.0
 40
22.0
 40
22.0
 10
176.7843858064984
 20
140.0892957549082
 30
0.0
 10
176.7843858064984
 20
140.0892957549082
 30
0.0
 10
177.0992675338502
 20
140.1185790665329
 30
0.0
 10
177.0992675338502
 20
140.1185790665329
 30
0.0
 10
177.1257947690866
 20
139.9704399606671
 30
0.0
 10
177.1767821822683
 20
139.8629529815273
 30
0.0
 10
177.2522297733953
 20
139.796462638662
 30
0.0
 10
177.3273328549737
 20
139.7296277862482
 30
0.0
 10
177.4237955285607
 20
139.6962103600412
 30
0.0
 10
177.5416177941563
 20
139.6962103600412
 30
0.0
 10
177.6422145823256
 20
139.6962103600412
 30
0.0
 10
177.730409026748
 20
139.7192924997924
 30
0.0
 10
177.806545636972
 20
139.7654567792948
 30
0.0
 10
177.8823377376475
 20
139.8116210587971
 30
0.0
 10
177.944349456382
 20
139.8729437584346
 30
0.0
 10
177.992925302724
 20
139.9501138973041
 30
0.0
 10
178.041501149066
 20
140.0272840361737
 30
0.0
 10
178.082153275792
 20
140.1313259198283
 30
0.0
 10
178.1148816829019
 20
140.2622395482678
 30
0.0
 10
178.1476100900117
 20
140.3934976862558
 30
0.0
 10
178.1641465483409
 20
140.526822881535
 30
0.0
 10
178.1641465483409
 20
140.6629041532023
 30
0.0
 10
178.1641465483409
 20
140.6773735542404
 30
0.0
 10
178.1634575292439
 20
140.6990776557975
 30
0.0
 10
178.1624240005983
 20
140.7283609674221
 30
0.0
 10
178.09662267683
 20
140.623974574219
 30
0.0
 10
178.0073947037621
 20
140.5392252252819
 30
0.0
 10
177.8937065527488
 20
140.4744574301592
 30
0.0
 10
177.7803629112841
 20
140.409345125488
 30
0.0
 10
177.6573730024607
 20
140.3769612279266
 30
0.0
 10
177.5250813358271
 20
140.3769612279266
 30
0.0
 10
177.3042507152226
 20
140.3769612279266
 30
0.0
 10
177.117526539922
 20
140.4572319527329
 30
0.0
 10
176.9645643003769
 20
140.6174288927971
 30
0.0
 10
176.8116020608318
 20
140.7776258328612
 30
0.0
 10
176.7351209410593
 20
140.988810186107
 30
0.0
 10
176.7351209410593
 20
141.2509819525345
 30
0.0
 10
176.7351209410593
 20
141.5214219481266
 30
0.0
 10
176.8147026467686
 20
141.7391519827944
 30
0.0
 10
176.9745550772842
 20
141.9045165660864
 30
0.0
 10
177.1340629982512
 20
142.0695366398298
 30
0.0
 10
177.3338785363957
 20
142.1518744219273
 30
0.0
 10
177.5743462012661
 20
142.1518744219273
 30
0.0
 10
177.7479790137227
 20
142.1518744219273
 30
0.0
 10
177.9064534060442
 20
142.1053656328764
 30
0.0
 10
178.0504583973277
 20
142.0116590356776
 30
0.0
 10
178.1941188790626
 20
141.9182969480274
 30
0.0
 10
178.303328405945
 20
141.7849717527482
 30
0.0
 10
178.3780869779749
 20
141.6120279593887
 30
0.0
 10
178.4525010404563
 20
141.4390841660291
 30
0.0
 10
178.4900525812455
 20
141.1889702338
 30
0.0
 10
178.4900525812455
 20
140.8613416531527
 30
0.0
 10
178.4900525812455
 20
140.520277200113
 30
0.0
 10
178.4528455500049
 20
140.2488036758753
 30
0.0
 10
178.378775997072
 20
140.0465765708911
 30
0.0
 10
178.3050509536876
 20
139.8446939754555
 30
0.0
 10
178.1948078981596
 20
139.6906982072648
 30
0.0
 10
178.0483913400365
 20
139.5852782854162
 30
0.0
 10
177.9023192914619
 20
139.479513854019
 30
0.0
 10
177.7307535362965
 20
139.4268038930947
 30
0.0
 10
177.5343830936372
 20
139.4268038930947
 30
0.0
 10
177.3256103072311
 20
139.4268038930947
 30
0.0
 10
177.1550780807112
 20
139.4846814972469
 30
0.0
 10
177.0227864140776
 20
139.6007812150998
 30
0.0
 10
176.8904947474441
 20
139.7165364234042
 30
0.0
 10
176.8109130417348
 20
139.8794894398565
 30
0.0
 10
176.7843858064984
 20
140.0892957549082
 30
0.0
  0
SPLINE
  5
49
330
44
100
AcDbEntity
  8
0
370
     0
100
AcDbSpline
210
0.0
220
0.0
230
1.0
 70
    11
 71
     3
 72
    29
 73
    25
 74
     0
 42
0.0000000001
 43
0.0000000001
 12
1.0
 22
0.0
 32
0.0
 13
1.0
 23
0.0
 33
0.0
 40
0.0
 40
0.0
 40
0.0
 40
0.0
 40
1.0
 40
1.0
 40
1.0
 40
2.0
 40
2.0
 40
2.0
 40
3.0
 40
3.0
 40
3.0
 40
4.0
 40
4.0
 40
4.0
 40
5.0
 40
5.0
 40
5.0
 40
6.0
 40
6.0
 40
6.0
 40
7.0
 40
7.0
 40
7.0
 40
8.0
 40
8.0
 40
8.0
 40
8.0
 10
178.1259059884546
 20
141.2671739013151
 30
0.0
 10
178.1259059884546
 20
141.4552761148098
 30
0.0
 10
178.0759521039185
 20
141.6044487493211
 30
0.0
 10
177.9756998252977
 20
141.7150363143976
 30
0.0
 10
177.875447546677
 20
141.8256238794742
 30
0.0
 10
177.7552137142418
 20
141.8807454072382
 30
0.0
 10
177.614309308895
 20
141.8807454072382
 30
0.0
 10
177.468581769869
 20
141.8807454072382
 30
0.0
 10
177.3418022560118
 20
141.8211452553433
 30
0.0
 10
177.2339707673235
 20
141.7022894611022
 30
0.0
 10
177.1257947690866
 20
141.5834336668611
 30
0.0
 10
177.0717067699682
 20
141.4290933891219
 30
0.0
 10
177.0717067699682
 20
141.2399576469817
 30
0.0
 10
177.0717067699682
 20
141.0701144395589
 30
0.0
 10
177.1230386926984
 20
140.9319661106003
 30
0.0
 10
177.2257025381589
 20
140.8258571696547
 30
0.0
 10
177.3283663836193
 20
140.7194037191604
 30
0.0
 10
177.454801387928
 20
140.6663492486876
 30
0.0
 10
177.6053520606334
 20
140.6663492486876
 30
0.0
 10
177.7569362619844
 20
140.6663492486876
 30
0.0
 10
177.8816487185504
 20
140.7194037191604
 30
0.0
 10
177.9794894303315
 20
140.8258571696547
 30
0.0
 10
178.0769856325641
 20
140.9319661106003
 30
0.0
 10
178.1259059884546
 20
141.0790716878205
 30
0.0
 10
178.1259059884546
 20
141.2671739013151
 30
0.0
  0
HATCH
  5
4A
330
44
100
AcDbEntity
  8
0
 62
     7
100
AcDbHatch
 10
0.0
 20
0.0
 30
0.0
210
0.0
220
0.0
230
1.0
  2
SOLID
 70
     1
 71
     0
 91
        2
 92
        1
 93
        1
 72
     4
 94
        3
 73
     0
 74
     1
 95
       71
 96
       67
 40
0.0
 40
0.0
 40
0.0
 40
0.0
 40
1.0
 40
1.0
 40
1.0
 40
2.0
 40
2.0
 40
2.0
 40
3.0
 40
3.0
 40
3.0
 40
4.0
 40
4.0
 40
4.0
 40
5.0
 40
5.0
 40
5.0
 40
6.0
 40
6.0
 40
6.0
 40
7.0
 40
7.0
 40
7.0
 40
8.0
 40
8.0
 40
8.0
 40
9.0
 40
9.0
 40
9.0
 40
10.0
 40
10.0
 40
10.0
 40
11.0
 40
11.0
 40
11.0
 40
12.0
 40
12.0
 40
12.0
 40
13.0
 40
13.0
 40
13.0
 40
14.0
 40
14.0
 40
14.0
 40
15.0
 40
15.0
 40
15.0
 40
16.0
 40
16.0
 40
16.0
 40
17.0
 40
17.0
 40
17.0
 40
18.0
 40
18.0
 40
18.0
 40
19.0
 40
19.0
 40
19.0
 40
20.0
 40
20.0
 40
20.0
 40
21.0
 40
21.0
 40
21.0
 40
22.0
 40
22.0
 40
22.0
 40
22.0
 10
176.7843858064984
 20
140.0892957549082
 10
176.7843858064984
 20
140.0892957549082
 10
177.0992675338502
 20
140.1185790665329
 10
177.0992675338502
 20
140.1185790665329
 10
177.1257947690866
 20
139.9704399606671
 10
177.1767821822683
 20
139.8629529815273
 10
177.2522297733953
 20
139.796462638662
 10
177.3273328549737
 20
139.7296277862482
 10
177.4237955285607
 20
139.6962103600412
 10
177.5416177941563
 20
139.6962103600412
 10
177.6422145823256
 20
139.6962103600412
 10
177.730409026748
 20
139.7192924997924
 10
177.806545636972
 20
139.7654567792948
 10
177.8823377376475
 20
139.8116210587971
 10
177.944349456382
 20
139.8729437584346
 10
177.992925302724
 20
139.9501138973041
 10
178.041501149066
 20
140.0272840361737
 10
178.082153275792
 20
140.1313259198283
 10
178.1148816829019
 20
140.2622395482678
 10
178.1476100900117
 20
140.3934976862558
 10
178.1641465483409
 20
140.526822881535
 10
178.1641465483409
 20
140.6629041532023
 10
178.1641465483409
 20
140.6773735542404
 10
178.1634575292439
 20
140.6990776557975
 10
178.1624240005983
 20
140.7283609674221
 10
178.09662267683
 20
140.623974574219
 10
178.0073947037621
 20
140.5392252252819
 10
177.8937065527488
 20
140.4744574301592
 10
177.7803629112841
 20
140.409345125488
 10
177.6573730024607
 20
140.3769612279266
 10
177.5250813358271
 20
140.3769612279266
 10
177.3042507152226
 20
140.3769612279266
 10
177.117526539922
 20
140.4572319527329
 10
176.9645643003769
 20
140.6174288927971
 10
176.8116020608318
 20
140.7776258328612
 10
176.7351209410593
 20
140.988810186107
 10
176.7351209410593
 20
141.2509819525345
 10
176.7351209410593
 20
141.5214219481266
 10
176.8147026467686
 20
141.7391519827944
 10
176.9745550772842
 20
141.9045165660864
 10
177.1340629982512
 20
142.0695366398298
 10
177.3338785363957
 20
142.1518744219273
 10
177.5743462012661
 20
142.1518744219273
 10
177.7479790137227
 20
142.1518744219273
 10
177.9064534060442
 20
142.1053656328764
 10
178.0504583973277
 20
142.0116590356776
 10
178.1941188790626
 20
141.9182969480274
 10
178.303328405945
 20
141.7849717527482
 10
178.3780869779749
 20
141.6120279593887
 10
178.4525010404563
 20
141.4390841660291
 10
178.4900525812455
 20
141.1889702338
 10
178.4900525812455
 20
140.8613416531527
 10
178.4900525812455
 20
140.520277200113
 10
178.4528455500049
 20
140.2488036758753
 10
178.378775997072
 20
140.0465765708911
 10
178.3050509536876
 20
139.8446939754555
 10
178.1948078981596
 20
139.6906982072648
 10
178.0483913400365
 20
139.5852782854162
 10
177.9023192914619
 20
139.479513854019
 10
177.7307535362965
 20
139.4268038930947
 10
177.5343830936372
 20
139.4268038930947
 10
177.3256103072311
 20
139.4268038930947
 10
177.1550780807112
 20
139.4846814972469
 10
177.0227864140776
 20
139.6007812150998
 10
176.8904947474441
 20
139.7165364234042
 10
176.8109130417348
 20
139.8794894398565
 10
176.7843858064984
 20
140.0892957549082
 97
        0
 92
        1
 93
        1
 72
     4
 94
        3
 73
     0
 74
     1
 95
       29
 96
       25
 40
0.0
 40
0.0
 40
0.0
 40
0.0
 40
1.0
 40
1.0
 40
1.0
 40
2.0
 40
2.0
 40
2.0
 40
3.0
 40
3.0
 40
3.0
 40
4.0
 40
4.0
 40
4.0
 40
5.0
 40
5.0
 40
5.0
 40
6.0
 40
6.0
 40
6.0
 40
7.0
 40
7.0
 40
7.0
 40
8.0
 40
8.0
 40
8.0
 40
8.0
 10
178.1259059884546
 20
141.2671739013151
 10
178.1259059884546
 20
141.4552761148098
 10
178.0759521039185
 20
141.6044487493211
 10
177.9756998252977
 20
141.7150363143976
 10
177.875447546677
 20
141.8256238794742
 10
177.7552137142418
 20
141.8807454072382
 10
177.614309308895
 20
141.8807454072382
 10
177.468581769869
 20
141.8807454072382
 10
177.3418022560118
 20
141.8211452553433
 10
177.2339707673235
 20
141.7022894611022
 10
177.1257947690866
 20
141.5834336668611
 10
177.0717067699682
 20
141.4290933891219
 10
177.0717067699682
 20
141.2399576469817
 10
177.0717067699682
 20
141.0701144395589
 10
177.1230386926984
 20
140.9319661106003
 10
177.2257025381589
 20
140.8258571696547
 10
177.3283663836193
 20
140.7194037191604
 10
177.454801387928
 20
140.6663492486876
 10
177.6053520606334
 20
140.6663492486876
 10
177.7569362619844
 20
140.6663492486876
 10
177.8816487185504
 20
140.7194037191604
 10
177.9794894303315
 20
140.8258571696547
 10
178.0769856325641
 20
140.9319661106003
 10
178.1259059884546
 20
141.0790716878205
 10
178.1259059884546
 20
141.2671739013151
 97
        0
 75
     2
 76
     1
 98
        0
  0
SPLINE
  5
4B
330
44
100
AcDbEntity
  8
0
370
     0
100
AcDbSpline
210
0.0
220
0.0
230
1.0
 70
    11
 71
     3
 72
    32
 73
    28
 74
     0
 42
0.0000000001
 43
0.0000000001
 12
1.0
 22
0.0
 32
0.0
 13
1.0
 23
0.0
 33
0.0
 40
0.0
 40
0.0
 40
0.0
 40
0.0
 40
1.0
 40
1.0
 40
1.0
 40
2.0
 40
2.0
 40
2.0
 40
3.0
 40
3.0
 40
3.0
 40
4.0
 40
4.0
 40
4.0
 40
5.0
 40
5.0
 40
5.0
 40
6.0
 40
6.0
 40
6.0
 40
7.0
 40
7.0
 40
7.0
 40
8.0
 40
8.0
 40
8.0
 40
9.0
 40
9.0
 40
9.0
 40
9.0
 10
180.0427571164477
 20
139.4722791535
 30
0.0
 10
180.0427571164477
 20
139.4722791535
 30
0.0
 10
179.7151285358004
 20
139.4722791535
 30
0.0
 10
179.7151285358004
 20
139.4722791535
 30
0.0
 10
179.7151285358004
 20
139.4722791535
 30
0.0
 10
179.7151285358004
 20
141.5603515271099
 30
0.0
 10
179.7151285358004
 20
141.5603515271099
 30
0.0
 10
179.6362358491882
 20
141.4849039359829
 30
0.0
 10
179.5328829846307
 20
141.4098008544045
 30
0.0
 10
179.4047254325794
 20
141.334697772826
 30
0.0
 10
179.2765678805281
 20
141.2592501816991
 30
0.0
 10
179.1618462008693
 20
141.202750615741
 30
0.0
 10
179.0598713745059
 20
141.1651990749518
 30
0.0
 10
179.0598713745059
 20
141.1651990749518
 30
0.0
 10
179.0598713745059
 20
141.4821478595948
 30
0.0
 10
179.0598713745059
 20
141.4821478595948
 30
0.0
 10
179.2428059447726
 20
141.568275246726
 30
0.0
 10
179.4030028848368
 20
141.6726616399291
 30
0.0
 10
179.5404621946982
 20
141.7953070392039
 30
0.0
 10
179.6775769950112
 20
141.9176079289303
 30
0.0
 10
179.7743841781467
 20
142.0364637231714
 30
0.0
 10
179.8315727632018
 20
142.1518744219273
 30
0.0
 10
179.8315727632018
 20
142.1518744219273
 30
0.0
 10
180.0427571164477
 20
142.1518744219273
 30
0.0
 10
180.0427571164477
 20
142.1518744219273
 30
0.0
 10
180.0427571164477
 20
142.1518744219273
 30
0.0
 10
180.0427571164477
 20
139.4722791535
 30
0.0
 10
180.0427571164477
 20
139.4722791535
 30
0.0
  0
HATCH
  5
4C
330
44
100
AcDbEntity
  8
0
 62
     7
100
AcDbHatch
 10
0.0
 20
0.0
 30
0.0
210
0.0
220
0.0
230
1.0
  2
SOLID
 70
     1
 71
     0
 91
        1
 92
        1
 93
        1
 72
     4
 94
        3
 73
     0
 74
     1
 95
       32
 96
       28
 40
0.0
 40
0.0
 40
0.0
 40
0.0
 40
1.0
 40
1.0
 40
1.0
 40
2.0
 40
2.0
 40
2.0
 40
3.0
 40
3.0
 40
3.0
 40
4.0
 40
4.0
 40
4.0
 40
5.0
 40
5.0
 40
5.0
 40
6.0
 40
6.0
 40
6.0
 40
7.0
 40
7.0
 40
7.0
 40
8.0
 40
8.0
 40
8.0
 40
9.0
 40
9.0
 40
9.0
 40
9.0
 10
180.0427571164477
 20
139.4722791535
 10
180.0427571164477
 20
139.4722791535
 10
179.7151285358004
 20
139.4722791535
 10
179.7151285358004
 20
139.4722791535
 10
179.7151285358004
 20
139.4722791535
 10
179.7151285358004
 20
141.5603515271099
 10
179.7151285358004
 20
141.5603515271099
 10
179.6362358491882
 20
141.4849039359829
 10
179.5328829846307
 20
141.4098008544045
 10
179.4047254325794
 20
141.334697772826
 10
179.2765678805281
 20
141.2592501816991
 10
179.1618462008693
 20
141.202750615741
 10
179.0598713745059
 20
141.1651990749518
 10
179.0598713745059
 20
141.1651990749518
 10
179.0598713745059
 20
141.4821478595948
 10
179.0598713745059
 20
141.4821478595948
 10
179.2428059447726
 20
141.568275246726
 10
179.4030028848368
 20
141.6726616399291
 10
179.5404621946982
 20
141.7953070392039
 10
179.6775769950112
 20
141.9176079289303
 10
179.7743841781467
 20
142.0364637231714
 10
179.8315727632018
 20
142.1518744219273
 10
179.8315727632018
 20
142.1518744219273
 10
180.0427571164477
 20
142.1518744219273
 10
180.0427571164477
 20
142.1518744219273
 10
180.0427571164477
 20
142.1518744219273
 10
180.0427571164477
 20
139.4722791535
 10
180.0427571164477
 20
139.4722791535
 97
        0
 75
     2
 76
     1
 98
        0
  0
ENDBLK
  5
47
330
44
100
AcDbEntity
  8
0
100
AcDbBlockEnd
  0
BLOCK
  5
4F
330
4D
100
AcDbEntity
  8
0
100
AcDbBlockBegin
  2
block 4
 70
     0
 10
0.0
 20
0.0
 30
0.0
  3
block 4
  1

  0
INSERT
  5
52
330
4D
100
AcDbEntity
  8
0
100
AcDbBlockReference
  2
block 5
 10
0.0
 20
0.0
 30
0.0
  0
ENDBLK
  5
50
330
4D
100
AcDbEntity
  8
0
100
AcDbBlockEnd
  0
BLOCK
  5
53
330
51
100
AcDbEntity
  8
0
100
AcDbBlockBegin
  2
block 5
 70
     0
 10
0.0
 20
0.0
 30
0.0
  3
block 5
  1

  0
SPLINE
  5
55
330
51
100
AcDbEntity
  8
0
370
     0
100
AcDbSpline
210
0.0
220
0.0
230
1.0
 70
    11
 71
     3
 72
    71
 73
    67
 74
     0
 42
0.0000000001
 43
0.0000000001
 12
1.0
 22
0.0
 32
0.0
 13
1.0
 23
0.0
 33
0.0
 40
0.0
 40
0.0
 40
0.0
 40
0.0
 40
1.0
 40
1.0
 40
1.0
 40
2.0
 40
2.0
 40
2.0
 40
3.0
 40
3.0
 40
3.0
 40
4.0
 40
4.0
 40
4.0
 40
5.0
 40
5.0
 40
5.0
 40
6.0
 40
6.0
 40
6.0
 40
7.0
 40
7.0
 40
7.0
 40
8.0
 40
8.0
 40
8.0
 40
9.0
 40
9.0
 40
9.0
 40
10.0
 40
10.0
 40
10.0
 40
11.0
 40
11.0
 40
11.0
 40
12.0
 40
12.0
 40
12.0
 40
13.0
 40
13.0
 40
13.0
 40
14.0
 40
14.0
 40
14.0
 40
15.0
 40
15.0
 40
15.0
 40
16.0
 40
16.0
 40
16.0
 40
17.0
 40
17.0
 40
17.0
 40
18.0
 40
18.0
 40
18.0
 40
19.0
 40
19.0
 40
19.0
 40
20.0
 40
20.0
 40
20.0
 40
21.0
 40
21.0
 40
21.0
 40
22.0
 40
22.0
 40
22.0
 40
22.0
 10
204.8998100616223
 20
110.7667100417528
 30
0.0
 10
204.8998100616223
 20
110.7667100417528
 30
0.0
 10
204.8705267499977
 20
111.0815917691046
 30
0.0
 10
204.8705267499977
 20
111.0815917691046
 30
0.0
 10
205.0186658558634
 20
111.1084635138896
 30
0.0
 10
205.1261528350032
 20
111.1594509270712
 30
0.0
 10
205.1926431778685
 20
111.2345540086497
 30
0.0
 10
205.2594780302824
 20
111.3096570902281
 30
0.0
 10
205.2928954564893
 20
111.4061197638151
 30
0.0
 10
205.2928954564893
 20
111.5239420294107
 30
0.0
 10
205.2928954564893
 20
111.62453881758
 30
0.0
 10
205.2698133167381
 20
111.7127332620024
 30
0.0
 10
205.2236490372358
 20
111.7888698722264
 30
0.0
 10
205.1774847577334
 20
111.8646619729019
 30
0.0
 10
205.116162058096
 20
111.9270182011849
 30
0.0
 10
205.0389919192264
 20
111.9752495379784
 30
0.0
 10
204.9618217803568
 20
112.024169893869
 30
0.0
 10
204.8577798967022
 20
112.0648220205949
 30
0.0
 10
204.7268662682627
 20
112.0972059181563
 30
0.0
 10
204.5956081302747
 20
112.1302788348147
 30
0.0
 10
204.4622829349956
 20
112.1464707835953
 30
0.0
 10
204.3262016633282
 20
112.1464707835953
 30
0.0
 10
204.3117322622901
 20
112.1464707835953
 30
0.0
 10
204.290028160733
 20
112.1461262740468
 30
0.0
 10
204.2607448491084
 20
112.1447482358527
 30
0.0
 10
204.3651312423115
 20
112.079291421633
 30
0.0
 10
204.4498805912486
 20
111.9897189390165
 30
0.0
 10
204.5146483863713
 20
111.8760307880032
 30
0.0
 10
204.5797606910426
 20
111.7626871465385
 30
0.0
 10
204.6121445886039
 20
111.6396972377151
 30
0.0
 10
204.6121445886039
 20
111.5074055710815
 30
0.0
 10
204.6121445886039
 20
111.2869194600255
 30
0.0
 10
204.5318738637976
 20
111.0998507751764
 30
0.0
 10
204.3716769237335
 20
110.9468885356313
 30
0.0
 10
204.2114799836694
 20
110.7939262960862
 30
0.0
 10
204.0002956304236
 20
110.7174451763137
 30
0.0
 10
203.738123863996
 20
110.7174451763137
 30
0.0
 10
203.4676838684039
 20
110.7174451763137
 30
0.0
 10
203.2499538337361
 20
110.797026882023
 30
0.0
 10
203.0845892504441
 20
110.9568793125386
 30
0.0
 10
202.9195691767007
 20
111.1163872335056
 30
0.0
 10
202.8372313946032
 20
111.3165472811987
 30
0.0
 10
202.8372313946032
 20
111.5566704365206
 30
0.0
 10
202.8372313946032
 20
111.7303032489772
 30
0.0
 10
202.8837401836541
 20
111.8891221508472
 30
0.0
 10
202.9774467808529
 20
112.0327826325821
 30
0.0
 10
203.0708088685031
 20
112.176443114317
 30
0.0
 10
203.2041340637823
 20
112.2859971507479
 30
0.0
 10
203.3770778571418
 20
112.3604112132293
 30
0.0
 10
203.5500216505014
 20
112.4348252757108
 30
0.0
 10
203.8001355827305
 20
112.4723768165
 30
0.0
 10
204.1277641633778
 20
112.4723768165
 30
0.0
 10
204.4688286164175
 20
112.4723768165
 30
0.0
 10
204.7403021406552
 20
112.4355142948078
 30
0.0
 10
204.9425292456394
 20
112.3611002323264
 30
0.0
 10
205.144411841075
 20
112.2873751889421
 30
0.0
 10
205.2984076092657
 20
112.1771321334141
 30
0.0
 10
205.4038275311143
 20
112.0310600848395
 30
0.0
 10
205.5095919625115
 20
111.8846435267163
 30
0.0
 10
205.5623019234358
 20
111.7134222810994
 30
0.0
 10
205.5623019234358
 20
111.5167073288917
 30
0.0
 10
205.5623019234358
 20
111.3079345424855
 30
0.0
 10
205.5044243192836
 20
111.1374023159657
 30
0.0
 10
205.3883246014307
 20
111.0051106493321
 30
0.0
 10
205.2725693931263
 20
110.8728189826985
 30
0.0
 10
205.109616376674
 20
110.7935817865377
 30
0.0
 10
204.8998100616223
 20
110.7667100417528
 30
0.0
  0
SPLINE
  5
56
330
51
100
AcDbEntity
  8
0
370
     0
100
AcDbSpline
210
0.0
220
0.0
230
1.0
 70
    11
 71
     3
 72
    29
 73
    25
 74
     0
 42
0.0000000001
 43
0.0000000001
 12
1.0
 22
0.0
 32
0.0
 13
1.0
 23
0.0
 33
0.0
 40
0.0
 40
0.0
 40
0.0
 40
0.0
 40
1.0
 40
1.0
 40
1.0
 40
2.0
 40
2.0
 40
2.0
 40
3.0
 40
3.0
 40
3.0
 40
4.0
 40
4.0
 40
4.0
 40
5.0
 40
5.0
 40
5.0
 40
6.0
 40
6.0
 40
6.0
 40
7.0
 40
7.0
 40
7.0
 40
8.0
 40
8.0
 40
8.0
 40
8.0
 10
203.7219319152154
 20
112.1082302237091
 30
0.0
 10
203.5338297017207
 20
112.1082302237091
 30
0.0
 10
203.3846570672094
 20
112.0582763391729
 30
0.0
 10
203.2740695021329
 20
111.9580240605522
 30
0.0
 10
203.1634819370564
 20
111.8581162914799
 30
0.0
 10
203.1083604092924
 20
111.7375379494962
 30
0.0
 10
203.1083604092924
 20
111.596978053698
 30
0.0
 10
203.1083604092924
 20
111.4509060051234
 30
0.0
 10
203.1679605611872
 20
111.3241264912662
 30
0.0
 10
203.2868163554283
 20
111.2162950025779
 30
0.0
 10
203.4056721496694
 20
111.1084635138896
 30
0.0
 10
203.5600124274086
 20
111.0540310052226
 30
0.0
 10
203.7491481695488
 20
111.0540310052226
 30
0.0
 10
203.9189913769717
 20
111.0540310052226
 30
0.0
 10
204.0571397059302
 20
111.1057074375014
 30
0.0
 10
204.1632486468759
 20
111.2080267734133
 30
0.0
 10
204.2697020973701
 20
111.3106906188737
 30
0.0
 10
204.3227565678429
 20
111.4371256231824
 30
0.0
 10
204.3227565678429
 20
111.5876762958878
 30
0.0
 10
204.3227565678429
 20
111.7396050067873
 30
0.0
 10
204.2697020973701
 20
111.8639729538048
 30
0.0
 10
204.1632486468759
 20
111.9618136655859
 30
0.0
 10
204.0571397059302
 20
112.0593098678185
 30
0.0
 10
203.91003412871
 20
112.1082302237091
 30
0.0
 10
203.7219319152154
 20
112.1082302237091
 30
0.0
  0
HATCH
  5
57
330
51
100
AcDbEntity
  8
0
 62
     7
100
AcDbHatch
 10
0.0
 20
0.0
 30
0.0
210
0.0
220
0.0
230
1.0
  2
SOLID
 70
     1
 71
     0
 91
        2
 92
        1
 93
        1
 72
     4
 94
        3
 73
     0
 74
     1
 95
       71
 96
       67
 40
0.0
 40
0.0
 40
0.0
 40
0.0
 40
1.0
 40
1.0
 40
1.0
 40
2.0
 40
2.0
 40
2.0
 40
3.0
 40
3.0
 40
3.0
 40
4.0
 40
4.0
 40
4.0
 40
5.0
 40
5.0
 40
5.0
 40
6.0
 40
6.0
 40
6.0
 40
7.0
 40
7.0
 40
7.0
 40
8.0
 40
8.0
 40
8.0
 40
9.0
 40
9.0
 40
9.0
 40
10.0
 40
10.0
 40
10.0
 40
11.0
 40
11.0
 40
11.0
 40
12.0
 40
12.0
 40
12.0
 40
13.0
 40
13.0
 40
13.0
 40
14.0
 40
14.0
 40
14.0
 40
15.0
 40
15.0
 40
15.0
 40
16.0
 40
16.0
 40
16.0
 40
17.0
 40
17.0
 40
17.0
 40
18.0
 40
18.0
 40
18.0
 40
19.0
 40
19.0
 40
19.0
 40
20.0
 40
20.0
 40
20.0
 40
21.0
 40
21.0
 40
21.0
 40
22.0
 40
22.0
 40
22.0
 40
22.0
 10
204.8998100616223
 20
110.7667100417528
 10
204.8998100616223
 20
110.7667100417528
 10
204.8705267499977
 20
111.0815917691046
 10
204.8705267499977
 20
111.0815917691046
 10
205.0186658558634
 20
111.1084635138896
 10
205.1261528350032
 20
111.1594509270712
 10
205.1926431778685
 20
111.2345540086497
 10
205.2594780302824
 20
111.3096570902281
 10
205.2928954564893
 20
111.4061197638151
 10
205.2928954564893
 20
111.5239420294107
 10
205.2928954564893
 20
111.62453881758
 10
205.2698133167381
 20
111.7127332620024
 10
205.2236490372358
 20
111.7888698722264
 10
205.1774847577334
 20
111.8646619729019
 10
205.116162058096
 20
111.9270182011849
 10
205.0389919192264
 20
111.9752495379784
 10
204.9618217803568
 20
112.024169893869
 10
204.8577798967022
 20
112.0648220205949
 10
204.7268662682627
 20
112.0972059181563
 10
204.5956081302747
 20
112.1302788348147
 10
204.4622829349956
 20
112.1464707835953
 10
204.3262016633282
 20
112.1464707835953
 10
204.3117322622901
 20
112.1464707835953
 10
204.290028160733
 20
112.1461262740468
 10
204.2607448491084
 20
112.1447482358527
 10
204.3651312423115
 20
112.079291421633
 10
204.4498805912486
 20
111.9897189390165
 10
204.5146483863713
 20
111.8760307880032
 10
204.5797606910426
 20
111.7626871465385
 10
204.6121445886039
 20
111.6396972377151
 10
204.6121445886039
 20
111.5074055710815
 10
204.6121445886039
 20
111.2869194600255
 10
204.5318738637976
 20
111.0998507751764
 10
204.3716769237335
 20
110.9468885356313
 10
204.2114799836694
 20
110.7939262960862
 10
204.0002956304236
 20
110.7174451763137
 10
203.738123863996
 20
110.7174451763137
 10
203.4676838684039
 20
110.7174451763137
 10
203.2499538337361
 20
110.797026882023
 10
203.0845892504441
 20
110.9568793125386
 10
202.9195691767007
 20
111.1163872335056
 10
202.8372313946032
 20
111.3165472811987
 10
202.8372313946032
 20
111.5566704365206
 10
202.8372313946032
 20
111.7303032489772
 10
202.8837401836541
 20
111.8891221508472
 10
202.9774467808529
 20
112.0327826325821
 10
203.0708088685031
 20
112.176443114317
 10
203.2041340637823
 20
112.2859971507479
 10
203.3770778571418
 20
112.3604112132293
 10
203.5500216505014
 20
112.4348252757108
 10
203.8001355827305
 20
112.4723768165
 10
204.1277641633778
 20
112.4723768165
 10
204.4688286164175
 20
112.4723768165
 10
204.7403021406552
 20
112.4355142948078
 10
204.9425292456394
 20
112.3611002323264
 10
205.144411841075
 20
112.2873751889421
 10
205.2984076092657
 20
112.1771321334141
 10
205.4038275311143
 20
112.0310600848395
 10
205.5095919625115
 20
111.8846435267163
 10
205.5623019234358
 20
111.7134222810994
 10
205.5623019234358
 20
111.5167073288917
 10
205.5623019234358
 20
111.3079345424855
 10
205.5044243192836
 20
111.1374023159657
 10
205.3883246014307
 20
111.0051106493321
 10
205.2725693931263
 20
110.8728189826985
 10
205.109616376674
 20
110.7935817865377
 10
204.8998100616223
 20
110.7667100417528
 97
        0
 92
        1
 93
        1
 72
     4
 94
        3
 73
     0
 74
     1
 95
       29
 96
       25
 40
0.0
 40
0.0
 40
0.0
 40
0.0
 40
1.0
 40
1.0
 40
1.0
 40
2.0
 40
2.0
 40
2.0
 40
3.0
 40
3.0
 40
3.0
 40
4.0
 40
4.0
 40
4.0
 40
5.0
 40
5.0
 40
5.0
 40
6.0
 40
6.0
 40
6.0
 40
7.0
 40
7.0
 40
7.0
 40
8.0
 40
8.0
 40
8.0
 40
8.0
 10
203.7219319152154
 20
112.1082302237091
 10
203.5338297017207
 20
112.1082302237091
 10
203.3846570672094
 20
112.0582763391729
 10
203.2740695021329
 20
111.9580240605522
 10
203.1634819370564
 20
111.8581162914799
 10
203.1083604092924
 20
111.7375379494962
 10
203.1083604092924
 20
111.596978053698
 10
203.1083604092924
 20
111.4509060051234
 10
203.1679605611872
 20
111.3241264912662
 10
203.2868163554283
 20
111.2162950025779
 10
203.4056721496694
 20
111.1084635138896
 10
203.5600124274086
 20
111.0540310052226
 10
203.7491481695488
 20
111.0540310052226
 10
203.9189913769717
 20
111.0540310052226
 10
204.0571397059302
 20
111.1057074375014
 10
204.1632486468759
 20
111.2080267734133
 10
204.2697020973701
 20
111.3106906188737
 10
204.3227565678429
 20
111.4371256231824
 10
204.3227565678429
 20
111.5876762958878
 10
204.3227565678429
 20
111.7396050067873
 10
204.2697020973701
 20
111.8639729538048
 10
204.1632486468759
 20
111.9618136655859
 10
204.0571397059302
 20
112.0593098678185
 10
203.91003412871
 20
112.1082302237091
 10
203.7219319152154
 20
112.1082302237091
 97
        0
 75
     2
 76
     1
 98
        0
  0
SPLINE
  5
58
330
51
100
AcDbEntity
  8
0
370
     0
100
AcDbSpline
210
0.0
220
0.0
230
1.0
 70
    11
 71
     3
 72
    32
 73
    28
 74
     0
 42
0.0000000001
 43
0.0000000001
 12
1.0
 22
0.0
 32
0.0
 13
1.0
 23
0.0
 33
0.0
 40
0.0
 40
0.0
 40
0.0
 40
0.0
 40
1.0
 40
1.0
 40
1.0
 40
2.0
 40
2.0
 40
2.0
 40
3.0
 40
3.0
 40
3.0
 40
4.0
 40
4.0
 40
4.0
 40
5.0
 40
5.0
 40
5.0
 40
6.0
 40
6.0
 40
6.0
 40
7.0
 40
7.0
 40
7.0
 40
8.0
 40
8.0
 40
8.0
 40
9.0
 40
9.0
 40
9.0
 40
9.0
 10
205.5168266630305
 20
114.0250813517021
 30
0.0
 10
205.5168266630305
 20
114.0250813517021
 30
0.0
 10
205.5168266630305
 20
113.6974527710548
 30
0.0
 10
205.5168266630305
 20
113.6974527710548
 30
0.0
 10
205.5168266630305
 20
113.6974527710548
 30
0.0
 10
203.4287542894206
 20
113.6974527710548
 30
0.0
 10
203.4287542894206
 20
113.6974527710548
 30
0.0
 10
203.5042018805476
 20
113.6185600844426
 30
0.0
 10
203.579304962126
 20
113.5152072198851
 30
0.0
 10
203.6544080437044
 20
113.3870496678338
 30
0.0
 10
203.7298556348314
 20
113.2588921157825
 30
0.0
 10
203.7863552007895
 20
113.1441704361237
 30
0.0
 10
203.8239067415788
 20
113.0421956097603
 30
0.0
 10
203.8239067415788
 20
113.0421956097603
 30
0.0
 10
203.5069579569358
 20
113.0421956097603
 30
0.0
 10
203.5069579569358
 20
113.0421956097603
 30
0.0
 10
203.4208305698045
 20
113.2251301800271
 30
0.0
 10
203.3164441766015
 20
113.3856716296397
 30
0.0
 10
203.1937987773265
 20
113.5227864299526
 30
0.0
 10
203.0714978876002
 20
113.6599012302656
 30
0.0
 10
202.9526420933591
 20
113.7570529229496
 30
0.0
 10
202.8372313946032
 20
113.8142415080048
 30
0.0
 10
202.8372313946032
 20
113.8142415080048
 30
0.0
 10
202.8372313946032
 20
114.0250813517021
 30
0.0
 10
202.8372313946032
 20
114.0250813517021
 30
0.0
 10
202.8372313946032
 20
114.0250813517021
 30
0.0
 10
205.5168266630305
 20
114.0250813517021
 30
0.0
 10
205.5168266630305
 20
114.0250813517021
 30
0.0
  0
HATCH
  5
59
330
51
100
AcDbEntity
  8
0
 62
     7
100
AcDbHatch
 10
0.0
 20
0.0
 30
0.0
210
0.0
220
0.0
230
1.0
  2
SOLID
 70
     1
 71
     0
 91
        1
 92
        1
 93
        1
 72
     4
 94
        3
 73
     0
 74
     1
 95
       32
 96
       28
 40
0.0
 40
0.0
 40
0.0
 40
0.0
 40
1.0
 40
1.0
 40
1.0
 40
2.0
 40
2.0
 40
2.0
 40
3.0
 40
3.0
 40
3.0
 40
4.0
 40
4.0
 40
4.0
 40
5.0
 40
5.0
 40
5.0
 40
6.0
 40
6.0
 40
6.0
 40
7.0
 40
7.0
 40
7.0
 40
8.0
 40
8.0
 40
8.0
 40
9.0
 40
9.0
 40
9.0
 40
9.0
 10
205.5168266630305
 20
114.0250813517021
 10
205.5168266630305
 20
114.0250813517021
 10
205.5168266630305
 20
113.6974527710548
 10
205.5168266630305
 20
113.6974527710548
 10
205.5168266630305
 20
113.6974527710548
 10
203.4287542894206
 20
113.6974527710548
 10
203.4287542894206
 20
113.6974527710548
 10
203.5042018805476
 20
113.6185600844426
 10
203.579304962126
 20
113.5152072198851
 10
203.6544080437044
 20
113.3870496678338
 10
203.7298556348314
 20
113.2588921157825
 10
203.7863552007895
 20
113.1441704361237
 10
203.8239067415788
 20
113.0421956097603
 10
203.8239067415788
 20
113.0421956097603
 10
203.5069579569358
 20
113.0421956097603
 10
203.5069579569358
 20
113.0421956097603
 10
203.4208305698045
 20
113.2251301800271
 10
203.3164441766015
 20
113.3856716296397
 10
203.1937987773265
 20
113.5227864299526
 10
203.0714978876002
 20
113.6599012302656
 10
202.9526420933591
 20
113.7570529229496
 10
202.8372313946032
 20
113.8142415080048
 10
202.8372313946032
 20
113.8142415080048
 10
202.8372313946032
 20
114.0250813517021
 10
202.8372313946032
 20
114.0250813517021
 10
202.8372313946032
 20
114.0250813517021
 10
205.5168266630305
 20
114.0250813517021
 10
205.5168266630305
 20
114.0250813517021
 97
        0
 75
     2
 76
     1
 98
        0
  0
ENDBLK
  5
54
330
51
100
AcDbEntity
  8
0
100
AcDbBlockEnd
  0
BLOCK
  5
5F
330
5D
100
AcDbEntity
  8
0
100
AcDbBlockBegin
  2
block 6
 70
     0
 10
0.0
 20
0.0
 30
0.0
  3
block 6
  1

  0
INSERT
  5
62
330
5D
100
AcDbEntity
  8
DEFPOINTS
100
AcDbBlockReference
  2
block 7
 10
0.0
 20
0.0
 30
0.0
  0
ENDBLK
  5
60
330
5D
100
AcDbEntity
  8
0
100
AcDbBlockEnd
  0
BLOCK
  5
63
330
61
100
AcDbEntity
  8
0
100
AcDbBlockBegin
  2
block 7
 70
     0
 10
0.0
 20
0.0
 30
0.0
  3
block 7
  1

  0
SPLINE
  5
65
330
61
100
AcDbEntity
  8
DEFPOINTS
370
     0
100
AcDbSpline
210
0.0
220
0.0
230
1.0
 70
    11
 71
     3
 72
    71
 73
    67
 74
     0
 42
0.0000000001
 43
0.0000000001
 12
1.0
 22
0.0
 32
0.0
 13
1.0
 23
0.0
 33
0.0
 40
0.0
 40
0.0
 40
0.0
 40
0.0
 40
1.0
 40
1.0
 40
1.0
 40
2.0
 40
2.0
 40
2.0
 40
3.0
 40
3.0
 40
3.0
 40
4.0
 40
4.0
 40
4.0
 40
5.0
 40
5.0
 40
5.0
 40
6.0
 40
6.0
 40
6.0
 40
7.0
 40
7.0
 40
7.0
 40
8.0
 40
8.0
 40
8.0
 40
9.0
 40
9.0
 40
9.0
 40
10.0
 40
10.0
 40
10.0
 40
11.0
 40
11.0
 40
11.0
 40
12.0
 40
12.0
 40
12.0
 40
13.0
 40
13.0
 40
13.0
 40
14.0
 40
14.0
 40
14.0
 40
15.0
 40
15.0
 40
15.0
 40
16.0
 40
16.0
 40
16.0
 40
17.0
 40
17.0
 40
17.0
 40
18.0
 40
18.0
 40
18.0
 40
19.0
 40
19.0
 40
19.0
 40
20.0
 40
20.0
 40
20.0
 40
21.0
 40
21.0
 40
21.0
 40
22.0
 40
22.0
 40
22.0
 40
22.0
 10
254.5195203356757
 20
140.6970105985063
 30
0.0
 10
254.5195203356757
 20
140.6970105985063
 30
0.0
 10
254.8344020630275
 20
140.7262939101309
 30
0.0
 10
254.8344020630275
 20
140.7262939101309
 30
0.0
 10
254.8612738078125
 20
140.5781548042652
 30
0.0
 10
254.9122612209942
 20
140.4706678251254
 30
0.0
 10
254.9873643025726
 20
140.4041774822601
 30
0.0
 10
255.0624673841511
 20
140.3373426298462
 30
0.0
 10
255.158930057738
 20
140.3039252036393
 30
0.0
 10
255.2767523233336
 20
140.3039252036393
 30
0.0
 10
255.3773491115029
 20
140.3039252036393
 30
0.0
 10
255.4655435559253
 20
140.3270073433905
 30
0.0
 10
255.5416801661493
 20
140.3731716228928
 30
0.0
 10
255.6174722668248
 20
140.4193359023952
 30
0.0
 10
255.6798284951078
 20
140.4806586020326
 30
0.0
 10
255.7280598319013
 20
140.5578287409022
 30
0.0
 10
255.7769801877919
 20
140.6349988797718
 30
0.0
 10
255.8176323145178
 20
140.7390407634263
 30
0.0
 10
255.8500162120792
 20
140.8699543918659
 30
0.0
 10
255.8830891287376
 20
141.0012125298539
 30
0.0
 10
255.8992810775183
 20
141.134537725133
 30
0.0
 10
255.8992810775183
 20
141.2706189968004
 30
0.0
 10
255.8992810775183
 20
141.2850883978385
 30
0.0
 10
255.8989365679697
 20
141.3067924993955
 30
0.0
 10
255.8975585297756
 20
141.3360758110202
 30
0.0
 10
255.8321017155559
 20
141.2316894178171
 30
0.0
 10
255.7425292329394
 20
141.1469400688799
 30
0.0
 10
255.6288410819261
 20
141.0821722737572
 30
0.0
 10
255.5154974404614
 20
141.017059969086
 30
0.0
 10
255.392507531638
 20
140.9846760715247
 30
0.0
 10
255.2602158650044
 20
140.9846760715247
 30
0.0
 10
255.0397297539484
 20
140.9846760715247
 30
0.0
 10
254.8526610690994
 20
141.064946796331
 30
0.0
 10
254.6996988295543
 20
141.2251437363951
 30
0.0
 10
254.5467365900092
 20
141.3853406764592
 30
0.0
 10
254.4702554702366
 20
141.596525029705
 30
0.0
 10
254.4702554702366
 20
141.8586967961326
 30
0.0
 10
254.4702554702366
 20
142.1291367917247
 30
0.0
 10
254.5498371759459
 20
142.3468668263924
 30
0.0
 10
254.7096896064615
 20
142.5122314096845
 30
0.0
 10
254.8691975274286
 20
142.6772514834279
 30
0.0
 10
255.0693575751216
 20
142.7595892655254
 30
0.0
 10
255.3094807304435
 20
142.7595892655254
 30
0.0
 10
255.4831135429001
 20
142.7595892655254
 30
0.0
 10
255.6419324447701
 20
142.7130804764745
 30
0.0
 10
255.785592926505
 20
142.6193738792757
 30
0.0
 10
255.9292534082399
 20
142.5260117916255
 30
0.0
 10
256.0388074446709
 20
142.3926865963463
 30
0.0
 10
256.1132215071523
 20
142.2197428029867
 30
0.0
 10
256.1876355696336
 20
142.0467990096272
 30
0.0
 10
256.2251871104229
 20
141.7966850773981
 30
0.0
 10
256.2251871104229
 20
141.4690564967508
 30
0.0
 10
256.2251871104229
 20
141.1279920437111
 30
0.0
 10
256.1883245887307
 20
140.8565185194734
 30
0.0
 10
256.1139105262493
 20
140.6542914144892
 30
0.0
 10
256.040185482865
 20
140.4524088190536
 30
0.0
 10
255.929942427337
 20
140.2984130508629
 30
0.0
 10
255.7838703787624
 20
140.1929931290143
 30
0.0
 10
255.6374538206393
 20
140.0872286976171
 30
0.0
 10
255.4662325750223
 20
140.0345187366928
 30
0.0
 10
255.2695176228146
 20
140.0345187366928
 30
0.0
 10
255.0607448364084
 20
140.0345187366928
 30
0.0
 10
254.8902126098886
 20
140.092396340845
 30
0.0
 10
254.757920943255
 20
140.2084960586979
 30
0.0
 10
254.6256292766214
 20
140.3242512670023
 30
0.0
 10
254.5463920804606
 20
140.4872042834546
 30
0.0
 10
254.5195203356757
 20
140.6970105985063
 30
0.0
  0
SPLINE
  5
66
330
61
100
AcDbEntity
  8
DEFPOINTS
370
     0
100
AcDbSpline
210
0.0
220
0.0
230
1.0
 70
    11
 71
     3
 72
    29
 73
    25
 74
     0
 42
0.0000000001
 43
0.0000000001
 12
1.0
 22
0.0
 32
0.0
 13
1.0
 23
0.0
 33
0.0
 40
0.0
 40
0.0
 40
0.0
 40
0.0
 40
1.0
 40
1.0
 40
1.0
 40
2.0
 40
2.0
 40
2.0
 40
3.0
 40
3.0
 40
3.0
 40
4.0
 40
4.0
 40
4.0
 40
5.0
 40
5.0
 40
5.0
 40
6.0
 40
6.0
 40
6.0
 40
7.0
 40
7.0
 40
7.0
 40
8.0
 40
8.0
 40
8.0
 40
8.0
 10
255.861040517632
 20
141.8748887449132
 30
0.0
 10
255.861040517632
 20
142.0629909584079
 30
0.0
 10
255.8110866330958
 20
142.2121635929192
 30
0.0
 10
255.7108343544751
 20
142.3227511579957
 30
0.0
 10
255.6109265854028
 20
142.4333387230722
 30
0.0
 10
255.4903482434191
 20
142.4884602508362
 30
0.0
 10
255.3497883476209
 20
142.4884602508362
 30
0.0
 10
255.2037162990463
 20
142.4884602508362
 30
0.0
 10
255.0769367851891
 20
142.4288600989414
 30
0.0
 10
254.9691052965008
 20
142.3100043047003
 30
0.0
 10
254.8612738078125
 20
142.1911485104592
 30
0.0
 10
254.8068412991455
 20
142.03680823272
 30
0.0
 10
254.8068412991455
 20
141.8476724905798
 30
0.0
 10
254.8068412991455
 20
141.6778292831569
 30
0.0
 10
254.8585177314243
 20
141.5396809541984
 30
0.0
 10
254.9608370673362
 20
141.4335720132527
 30
0.0
 10
255.0635009127966
 20
141.3271185627585
 30
0.0
 10
255.1899359171053
 20
141.2740640922857
 30
0.0
 10
255.3404865898107
 20
141.2740640922857
 30
0.0
 10
255.4924153007102
 20
141.2740640922857
 30
0.0
 10
255.6167832477278
 20
141.3271185627585
 30
0.0
 10
255.7146239595089
 20
141.4335720132527
 30
0.0
 10
255.8121201617414
 20
141.5396809541984
 30
0.0
 10
255.861040517632
 20
141.6867865314186
 30
0.0
 10
255.861040517632
 20
141.8748887449132
 30
0.0
  0
HATCH
  5
67
330
61
100
AcDbEntity
  8
DEFPOINTS
 62
     7
100
AcDbHatch
 10
0.0
 20
0.0
 30
0.0
210
0.0
220
0.0
230
1.0
  2
SOLID
 70
     1
 71
     0
 91
        2
 92
        1
 93
        1
 72
     4
 94
        3
 73
     0
 74
     1
 95
       71
 96
       67
 40
0.0
 40
0.0
 40
0.0
 40
0.0
 40
1.0
 40
1.0
 40
1.0
 40
2.0
 40
2.0
 40
2.0
 40
3.0
 40
3.0
 40
3.0
 40
4.0
 40
4.0
 40
4.0
 40
5.0
 40
5.0
 40
5.0
 40
6.0
 40
6.0
 40
6.0
 40
7.0
 40
7.0
 40
7.0
 40
8.0
 40
8.0
 40
8.0
 40
9.0
 40
9.0
 40
9.0
 40
10.0
 40
10.0
 40
10.0
 40
11.0
 40
11.0
 40
11.0
 40
12.0
 40
12.0
 40
12.0
 40
13.0
 40
13.0
 40
13.0
 40
14.0
 40
14.0
 40
14.0
 40
15.0
 40
15.0
 40
15.0
 40
16.0
 40
16.0
 40
16.0
 40
17.0
 40
17.0
 40
17.0
 40
18.0
 40
18.0
 40
18.0
 40
19.0
 40
19.0
 40
19.0
 40
20.0
 40
20.0
 40
20.0
 40
21.0
 40
21.0
 40
21.0
 40
22.0
 40
22.0
 40
22.0
 40
22.0
 10
254.5195203356757
 20
140.6970105985063
 10
254.5195203356757
 20
140.6970105985063
 10
254.8344020630275
 20
140.7262939101309
 10
254.8344020630275
 20
140.7262939101309
 10
254.8612738078125
 20
140.5781548042652
 10
254.9122612209942
 20
140.4706678251254
 10
254.9873643025726
 20
140.4041774822601
 10
255.0624673841511
 20
140.3373426298462
 10
255.158930057738
 20
140.3039252036393
 10
255.2767523233336
 20
140.3039252036393
 10
255.3773491115029
 20
140.3039252036393
 10
255.4655435559253
 20
140.3270073433905
 10
255.5416801661493
 20
140.3731716228928
 10
255.6174722668248
 20
140.4193359023952
 10
255.6798284951078
 20
140.4806586020326
 10
255.7280598319013
 20
140.5578287409022
 10
255.7769801877919
 20
140.6349988797718
 10
255.8176323145178
 20
140.7390407634263
 10
255.8500162120792
 20
140.8699543918659
 10
255.8830891287376
 20
141.0012125298539
 10
255.8992810775183
 20
141.134537725133
 10
255.8992810775183
 20
141.2706189968004
 10
255.8992810775183
 20
141.2850883978385
 10
255.8989365679697
 20
141.3067924993955
 10
255.8975585297756
 20
141.3360758110202
 10
255.8321017155559
 20
141.2316894178171
 10
255.7425292329394
 20
141.1469400688799
 10
255.6288410819261
 20
141.0821722737572
 10
255.5154974404614
 20
141.017059969086
 10
255.392507531638
 20
140.9846760715247
 10
255.2602158650044
 20
140.9846760715247
 10
255.0397297539484
 20
140.9846760715247
 10
254.8526610690994
 20
141.064946796331
 10
254.6996988295543
 20
141.2251437363951
 10
254.5467365900092
 20
141.3853406764592
 10
254.4702554702366
 20
141.596525029705
 10
254.4702554702366
 20
141.8586967961326
 10
254.4702554702366
 20
142.1291367917247
 10
254.5498371759459
 20
142.3468668263924
 10
254.7096896064615
 20
142.5122314096845
 10
254.8691975274286
 20
142.6772514834279
 10
255.0693575751216
 20
142.7595892655254
 10
255.3094807304435
 20
142.7595892655254
 10
255.4831135429001
 20
142.7595892655254
 10
255.6419324447701
 20
142.7130804764745
 10
255.785592926505
 20
142.6193738792757
 10
255.9292534082399
 20
142.5260117916255
 10
256.0388074446709
 20
142.3926865963463
 10
256.1132215071523
 20
142.2197428029867
 10
256.1876355696336
 20
142.0467990096272
 10
256.2251871104229
 20
141.7966850773981
 10
256.2251871104229
 20
141.4690564967508
 10
256.2251871104229
 20
141.1279920437111
 10
256.1883245887307
 20
140.8565185194734
 10
256.1139105262493
 20
140.6542914144892
 10
256.040185482865
 20
140.4524088190536
 10
255.929942427337
 20
140.2984130508629
 10
255.7838703787624
 20
140.1929931290143
 10
255.6374538206393
 20
140.0872286976171
 10
255.4662325750223
 20
140.0345187366928
 10
255.2695176228146
 20
140.0345187366928
 10
255.0607448364084
 20
140.0345187366928
 10
254.8902126098886
 20
140.092396340845
 10
254.757920943255
 20
140.2084960586979
 10
254.6256292766214
 20
140.3242512670023
 10
254.5463920804606
 20
140.4872042834546
 10
254.5195203356757
 20
140.6970105985063
 97
        0
 92
        1
 93
        1
 72
     4
 94
        3
 73
     0
 74
     1
 95
       29
 96
       25
 40
0.0
 40
0.0
 40
0.0
 40
0.0
 40
1.0
 40
1.0
 40
1.0
 40
2.0
 40
2.0
 40
2.0
 40
3.0
 40
3.0
 40
3.0
 40
4.0
 40
4.0
 40
4.0
 40
5.0
 40
5.0
 40
5.0
 40
6.0
 40
6.0
 40
6.0
 40
7.0
 40
7.0
 40
7.0
 40
8.0
 40
8.0
 40
8.0
 40
8.0
 10
255.861040517632
 20
141.8748887449132
 10
255.861040517632
 20
142.0629909584079
 10
255.8110866330958
 20
142.2121635929192
 10
255.7108343544751
 20
142.3227511579957
 10
255.6109265854028
 20
142.4333387230722
 10
255.4903482434191
 20
142.4884602508362
 10
255.3497883476209
 20
142.4884602508362
 10
255.2037162990463
 20
142.4884602508362
 10
255.0769367851891
 20
142.4288600989414
 10
254.9691052965008
 20
142.3100043047003
 10
254.8612738078125
 20
142.1911485104592
 10
254.8068412991455
 20
142.03680823272
 10
254.8068412991455
 20
141.8476724905798
 10
254.8068412991455
 20
141.6778292831569
 10
254.8585177314243
 20
141.5396809541984
 10
254.9608370673362
 20
141.4335720132527
 10
255.0635009127966
 20
141.3271185627585
 10
255.1899359171053
 20
141.2740640922857
 10
255.3404865898107
 20
141.2740640922857
 10
255.4924153007102
 20
141.2740640922857
 10
255.6167832477278
 20
141.3271185627585
 10
255.7146239595089
 20
141.4335720132527
 10
255.8121201617414
 20
141.5396809541984
 10
255.861040517632
 20
141.6867865314186
 10
255.861040517632
 20
141.8748887449132
 97
        0
 75
     2
 76
     1
 98
        0
  0
SPLINE
  5
68
330
61
100
AcDbEntity
  8
DEFPOINTS
370
     0
100
AcDbSpline
210
0.0
220
0.0
230
1.0
 70
    11
 71
     3
 72
    62
 73
    58
 74
     0
 42
0.0000000001
 43
0.0000000001
 12
1.0
 22
0.0
 32
0.0
 13
1.0
 23
0.0
 33
0.0
 40
0.0
 40
0.0
 40
0.0
 40
0.0
 40
1.0
 40
1.0
 40
1.0
 40
2.0
 40
2.0
 40
2.0
 40
3.0
 40
3.0
 40
3.0
 40
4.0
 40
4.0
 40
4.0
 40
5.0
 40
5.0
 40
5.0
 40
6.0
 40
6.0
 40
6.0
 40
7.0
 40
7.0
 40
7.0
 40
8.0
 40
8.0
 40
8.0
 40
9.0
 40
9.0
 40
9.0
 40
10.0
 40
10.0
 40
10.0
 40
11.0
 40
11.0
 40
11.0
 40
12.0
 40
12.0
 40
12.0
 40
13.0
 40
13.0
 40
13.0
 40
14.0
 40
14.0
 40
14.0
 40
15.0
 40
15.0
 40
15.0
 40
16.0
 40
16.0
 40
16.0
 40
17.0
 40
17.0
 40
17.0
 40
18.0
 40
18.0
 40
18.0
 40
19.0
 40
19.0
 40
19.0
 40
19.0
 10
258.2440130647793
 20
142.0953748559692
 30
0.0
 10
258.2440130647793
 20
142.0953748559692
 30
0.0
 10
257.9181070318746
 20
142.0698811493784
 30
0.0
 10
257.9181070318746
 20
142.0698811493784
 30
0.0
 10
257.88882372025
 20
142.1983832109782
 30
0.0
 10
257.8478270839756
 20
142.2917452986285
 30
0.0
 10
257.7944281039542
 20
142.3499674123292
 30
0.0
 10
257.7055446404347
 20
142.443674009528
 30
0.0
 10
257.5966796231008
 20
142.4901827985788
 30
0.0
 10
257.4664550137584
 20
142.4901827985788
 30
0.0
 10
257.3624131301038
 20
142.4901827985788
 30
0.0
 10
257.2707735901962
 20
142.4612439965028
 30
0.0
 10
257.191880903584
 20
142.403021882802
 30
0.0
 10
257.088872548575
 20
142.3275742916751
 30
0.0
 10
257.0075682951231
 20
142.2176757456956
 30
0.0
 10
256.9476236336798
 20
142.0733262448636
 30
0.0
 10
256.8883679913335
 20
141.9289767440316
 30
0.0
 10
256.8573621319662
 20
141.7233045435623
 30
0.0
 10
256.8549505651266
 20
141.4563096434554
 30
0.0
 10
256.9338432517388
 20
141.5765434758906
 30
0.0
 10
257.0303059253258
 20
141.66542693941
 30
0.0
 10
257.1446830954361
 20
141.7239935626593
 30
0.0
 10
257.2583712464493
 20
141.78221567636
 30
0.0
 10
257.378260569336
 20
141.8111544784361
 30
0.0
 10
257.5029730259021
 20
141.8111544784361
 30
0.0
 10
257.7213920796669
 20
141.8111544784361
 30
0.0
 10
257.9074272358704
 20
141.7308837536298
 30
0.0
 10
258.0610784945125
 20
141.5699977944686
 30
0.0
 10
258.2147297531546
 20
141.4091118353074
 30
0.0
 10
258.2912108729272
 20
141.2013725775469
 30
0.0
 10
258.2912108729272
 20
140.9464355116384
 30
0.0
 10
258.2912108729272
 20
140.7790038710553
 30
0.0
 10
258.2553818798806
 20
140.623285555122
 30
0.0
 10
258.1830348746903
 20
140.479625073387
 30
0.0
 10
258.1106878695001
 20
140.3356200821036
 30
0.0
 10
258.0114691195249
 20
140.2257215361241
 30
0.0
 10
257.8853786247648
 20
140.1492404163516
 30
0.0
 10
257.7592881300046
 20
140.0727592965791
 30
0.0
 10
257.6159721578182
 20
140.0345187366928
 30
0.0
 10
257.4557752177541
 20
140.0345187366928
 30
0.0
 10
257.1825791457738
 20
140.0345187366928
 30
0.0
 10
256.9600259774267
 20
140.1347710153135
 30
0.0
 10
256.7877712031642
 20
140.3356200821036
 30
0.0
 10
256.6155164289017
 20
140.5364691488937
 30
0.0
 10
256.5293890417705
 20
140.8675428250262
 30
0.0
 10
256.5293890417705
 20
141.3288411105011
 30
0.0
 10
256.5293890417705
 20
141.844571904643
 30
0.0
 10
256.6244736771633
 20
142.2197428029867
 30
0.0
 10
256.8149874574976
 20
142.4536647864352
 30
0.0
 10
256.9813855694352
 20
142.657614439162
 30
0.0
 10
257.2053167759765
 20
142.7595892655254
 30
0.0
 10
257.4867810771213
 20
142.7595892655254
 30
0.0
 10
257.6965873921731
 20
142.7595892655254
 30
0.0
 10
257.8688421664356
 20
142.7006781327276
 30
0.0
 10
258.0028563808118
 20
142.5832003766806
 30
0.0
 10
258.136870595188
 20
142.465378111085
 30
0.0
 10
258.2174858295429
 20
142.3027696041813
 30
0.0
 10
258.2440130647793
 20
142.0953748559692
 30
0.0
  0
SPLINE
  5
69
330
61
100
AcDbEntity
  8
DEFPOINTS
370
     0
100
AcDbSpline
210
0.0
220
0.0
230
1.0
 70
    11
 71
     3
 72
    32
 73
    28
 74
     0
 42
0.0000000001
 43
0.0000000001
 12
1.0
 22
0.0
 32
0.0
 13
1.0
 23
0.0
 33
0.0
 40
0.0
 40
0.0
 40
0.0
 40
0.0
 40
1.0
 40
1.0
 40
1.0
 40
2.0
 40
2.0
 40
2.0
 40
3.0
 40
3.0
 40
3.0
 40
4.0
 40
4.0
 40
4.0
 40
5.0
 40
5.0
 40
5.0
 40
6.0
 40
6.0
 40
6.0
 40
7.0
 40
7.0
 40
7.0
 40
8.0
 40
8.0
 40
8.0
 40
9.0
 40
9.0
 40
9.0
 40
9.0
 10
256.9059379783083
 20
140.9447129638958
 30
0.0
 10
256.9059379783083
 20
140.8317138319796
 30
0.0
 10
256.9297091371565
 20
140.7238823432913
 30
0.0
 10
256.97794047395
 20
140.6205294787338
 30
0.0
 10
257.025827301195
 20
140.5175211237248
 30
0.0
 10
257.0930066631573
 20
140.4389729466611
 30
0.0
 10
257.1791340502886
 20
140.3848849475427
 30
0.0
 10
257.2652614374198
 20
140.3307969484243
 30
0.0
 10
257.3555229391334
 20
140.3039252036393
 30
0.0
 10
257.4502630649777
 20
140.3039252036393
 30
0.0
 10
257.5884113939363
 20
140.3039252036393
 30
0.0
 10
257.7076116977259
 20
140.3597357505004
 30
0.0
 10
257.8071749572496
 20
140.4713568442224
 30
0.0
 10
257.9067382167733
 20
140.5829779379445
 30
0.0
 10
257.9563475917609
 20
140.7345621392955
 30
0.0
 10
257.9563475917609
 20
140.926453957824
 30
0.0
 10
257.9563475917609
 20
141.1111110758333
 30
0.0
 10
257.9074272358704
 20
141.2561495957624
 30
0.0
 10
257.8088975049922
 20
141.3626030462566
 30
0.0
 10
257.7107122836626
 20
141.4687119872023
 30
0.0
 10
257.5870333557422
 20
141.5217664576751
 30
0.0
 10
257.4375162116823
 20
141.5217664576751
 30
0.0
 10
257.2893771058166
 20
141.5217664576751
 30
0.0
 10
257.1639756301535
 20
141.4687119872023
 30
0.0
 10
257.060622765596
 20
141.3626030462566
 30
0.0
 10
256.957614410587
 20
141.2561495957624
 30
0.0
 10
256.9059379783083
 20
141.1169677381583
 30
0.0
 10
256.9059379783083
 20
140.9447129638958
 30
0.0
  0
HATCH
  5
6A
330
61
100
AcDbEntity
  8
DEFPOINTS
 62
     7
100
AcDbHatch
 10
0.0
 20
0.0
 30
0.0
210
0.0
220
0.0
230
1.0
  2
SOLID
 70
     1
 71
     0
 91
        2
 92
        1
 93
        1
 72
     4
 94
        3
 73
     0
 74
     1
 95
       62
 96
       58
 40
0.0
 40
0.0
 40
0.0
 40
0.0
 40
1.0
 40
1.0
 40
1.0
 40
2.0
 40
2.0
 40
2.0
 40
3.0
 40
3.0
 40
3.0
 40
4.0
 40
4.0
 40
4.0
 40
5.0
 40
5.0
 40
5.0
 40
6.0
 40
6.0
 40
6.0
 40
7.0
 40
7.0
 40
7.0
 40
8.0
 40
8.0
 40
8.0
 40
9.0
 40
9.0
 40
9.0
 40
10.0
 40
10.0
 40
10.0
 40
11.0
 40
11.0
 40
11.0
 40
12.0
 40
12.0
 40
12.0
 40
13.0
 40
13.0
 40
13.0
 40
14.0
 40
14.0
 40
14.0
 40
15.0
 40
15.0
 40
15.0
 40
16.0
 40
16.0
 40
16.0
 40
17.0
 40
17.0
 40
17.0
 40
18.0
 40
18.0
 40
18.0
 40
19.0
 40
19.0
 40
19.0
 40
19.0
 10
258.2440130647793
 20
142.0953748559692
 10
258.2440130647793
 20
142.0953748559692
 10
257.9181070318746
 20
142.0698811493784
 10
257.9181070318746
 20
142.0698811493784
 10
257.88882372025
 20
142.1983832109782
 10
257.8478270839756
 20
142.2917452986285
 10
257.7944281039542
 20
142.3499674123292
 10
257.7055446404347
 20
142.443674009528
 10
257.5966796231008
 20
142.4901827985788
 10
257.4664550137584
 20
142.4901827985788
 10
257.3624131301038
 20
142.4901827985788
 10
257.2707735901962
 20
142.4612439965028
 10
257.191880903584
 20
142.403021882802
 10
257.088872548575
 20
142.3275742916751
 10
257.0075682951231
 20
142.2176757456956
 10
256.9476236336798
 20
142.0733262448636
 10
256.8883679913335
 20
141.9289767440316
 10
256.8573621319662
 20
141.7233045435623
 10
256.8549505651266
 20
141.4563096434554
 10
256.9338432517388
 20
141.5765434758906
 10
257.0303059253258
 20
141.66542693941
 10
257.1446830954361
 20
141.7239935626593
 10
257.2583712464493
 20
141.78221567636
 10
257.378260569336
 20
141.8111544784361
 10
257.5029730259021
 20
141.8111544784361
 10
257.7213920796669
 20
141.8111544784361
 10
257.9074272358704
 20
141.7308837536298
 10
258.0610784945125
 20
141.5699977944686
 10
258.2147297531546
 20
141.4091118353074
 10
258.2912108729272
 20
141.2013725775469
 10
258.2912108729272
 20
140.9464355116384
 10
258.2912108729272
 20
140.7790038710553
 10
258.2553818798806
 20
140.623285555122
 10
258.1830348746903
 20
140.479625073387
 10
258.1106878695001
 20
140.3356200821036
 10
258.0114691195249
 20
140.2257215361241
 10
257.8853786247648
 20
140.1492404163516
 10
257.7592881300046
 20
140.0727592965791
 10
257.6159721578182
 20
140.0345187366928
 10
257.4557752177541
 20
140.0345187366928
 10
257.1825791457738
 20
140.0345187366928
 10
256.9600259774267
 20
140.1347710153135
 10
256.7877712031642
 20
140.3356200821036
 10
256.6155164289017
 20
140.5364691488937
 10
256.5293890417705
 20
140.8675428250262
 10
256.5293890417705
 20
141.3288411105011
 10
256.5293890417705
 20
141.844571904643
 10
256.6244736771633
 20
142.2197428029867
 10
256.8149874574976
 20
142.4536647864352
 10
256.9813855694352
 20
142.657614439162
 10
257.2053167759765
 20
142.7595892655254
 10
257.4867810771213
 20
142.7595892655254
 10
257.6965873921731
 20
142.7595892655254
 10
257.8688421664356
 20
142.7006781327276
 10
258.0028563808118
 20
142.5832003766806
 10
258.136870595188
 20
142.465378111085
 10
258.2174858295429
 20
142.3027696041813
 10
258.2440130647793
 20
142.0953748559692
 97
        0
 92
        1
 93
        1
 72
     4
 94
        3
 73
     0
 74
     1
 95
       32
 96
       28
 40
0.0
 40
0.0
 40
0.0
 40
0.0
 40
1.0
 40
1.0
 40
1.0
 40
2.0
 40
2.0
 40
2.0
 40
3.0
 40
3.0
 40
3.0
 40
4.0
 40
4.0
 40
4.0
 40
5.0
 40
5.0
 40
5.0
 40
6.0
 40
6.0
 40
6.0
 40
7.0
 40
7.0
 40
7.0
 40
8.0
 40
8.0
 40
8.0
 40
9.0
 40
9.0
 40
9.0
 40
9.0
 10
256.9059379783083
 20
140.9447129638958
 10
256.9059379783083
 20
140.8317138319796
 10
256.9297091371565
 20
140.7238823432913
 10
256.97794047395
 20
140.6205294787338
 10
257.025827301195
 20
140.5175211237248
 10
257.0930066631573
 20
140.4389729466611
 10
257.1791340502886
 20
140.3848849475427
 10
257.2652614374198
 20
140.3307969484243
 10
257.3555229391334
 20
140.3039252036393
 10
257.4502630649777
 20
140.3039252036393
 10
257.5884113939363
 20
140.3039252036393
 10
257.7076116977259
 20
140.3597357505004
 10
257.8071749572496
 20
140.4713568442224
 10
257.9067382167733
 20
140.5829779379445
 10
257.9563475917609
 20
140.7345621392955
 10
257.9563475917609
 20
140.926453957824
 10
257.9563475917609
 20
141.1111110758333
 10
257.9074272358704
 20
141.2561495957624
 10
257.8088975049922
 20
141.3626030462566
 10
257.7107122836626
 20
141.4687119872023
 10
257.5870333557422
 20
141.5217664576751
 10
257.4375162116823
 20
141.5217664576751
 10
257.2893771058166
 20
141.5217664576751
 10
257.1639756301535
 20
141.4687119872023
 10
257.060622765596
 20
141.3626030462566
 10
256.957614410587
 20
141.2561495957624
 10
256.9059379783083
 20
141.1169677381583
 10
256.9059379783083
 20
140.9447129638958
 97
        0
 75
     2
 76
     1
 98
        0
  0
ENDBLK
  5
64
330
61
100
AcDbEntity
  8
0
100
AcDbBlockEnd
  0
BLOCK
  5
6D
330
6B
100
AcDbEntity
  8
0
100
AcDbBlockBegin
  2
block 8
 70
     0
 10
0.0
 20
0.0
 30
0.0
  3
block 8
  1

  0
INSERT
  5
70
330
6B
100
AcDbEntity
  8
DEFPOINTS
100
AcDbBlockReference
  2
block 9
 10
0.0
 20
0.0
 30
0.0
  0
ENDBLK
  5
6E
330
6B
100
AcDbEntity
  8
0
100
AcDbBlockEnd
  0
BLOCK
  5
71
330
6F
100
AcDbEntity
  8
0
100
AcDbBlockBegin
  2
block 9
 70
     0
 10
0.0
 20
0.0
 30
0.0
  3
block 9
  1

  0
SPLINE
  5
73
330
6F
100
AcDbEntity
  8
DEFPOINTS
370
     0
100
AcDbSpline
210
0.0
220
0.0
230
1.0
 70
    11
 71
     3
 72
    71
 73
    67
 74
     0
 42
0.0000000001
 43
0.0000000001
 12
1.0
 22
0.0
 32
0.0
 13
1.0
 23
0.0
 33
0.0
 40
0.0
 40
0.0
 40
0.0
 40
0.0
 40
1.0
 40
1.0
 40
1.0
 40
2.0
 40
2.0
 40
2.0
 40
3.0
 40
3.0
 40
3.0
 40
4.0
 40
4.0
 40
4.0
 40
5.0
 40
5.0
 40
5.0
 40
6.0
 40
6.0
 40
6.0
 40
7.0
 40
7.0
 40
7.0
 40
8.0
 40
8.0
 40
8.0
 40
9.0
 40
9.0
 40
9.0
 40
10.0
 40
10.0
 40
10.0
 40
11.0
 40
11.0
 40
11.0
 40
12.0
 40
12.0
 40
12.0
 40
13.0
 40
13.0
 40
13.0
 40
14.0
 40
14.0
 40
14.0
 40
15.0
 40
15.0
 40
15.0
 40
16.0
 40
16.0
 40
16.0
 40
17.0
 40
17.0
 40
17.0
 40
18.0
 40
18.0
 40
18.0
 40
19.0
 40
19.0
 40
19.0
 40
20.0
 40
20.0
 40
20.0
 40
21.0
 40
21.0
 40
21.0
 40
22.0
 40
22.0
 40
22.0
 40
22.0
 10
227.4799994005953
 20
115.3817599537934
 30
0.0
 10
227.4799994005953
 20
115.3817599537934
 30
0.0
 10
227.7948811279471
 20
115.4110432654181
 30
0.0
 10
227.7948811279471
 20
115.4110432654181
 30
0.0
 10
227.8214083631835
 20
115.2629041595523
 30
0.0
 10
227.8723957763652
 20
115.1554171804125
 30
0.0
 10
227.9478433674922
 20
115.0889268375472
 30
0.0
 10
228.0229464490707
 20
115.0220919851334
 30
0.0
 10
228.1194091226577
 20
114.9886745589264
 30
0.0
 10
228.2372313882532
 20
114.9886745589264
 30
0.0
 10
228.3378281764225
 20
114.9886745589264
 30
0.0
 10
228.4260226208449
 20
115.0117566986776
 30
0.0
 10
228.5021592310689
 20
115.05792097818
 30
0.0
 10
228.5779513317444
 20
115.1040852576823
 30
0.0
 10
228.6399630504789
 20
115.1654079573198
 30
0.0
 10
228.6885388968209
 20
115.2425780961894
 30
0.0
 10
228.7371147431629
 20
115.319748235059
 30
0.0
 10
228.7777668698889
 20
115.4237901187135
 30
0.0
 10
228.8104952769988
 20
115.554703747153
 30
0.0
 10
228.8432236841086
 20
115.685961885141
 30
0.0
 10
228.8597601424378
 20
115.8192870804202
 30
0.0
 10
228.8597601424378
 20
115.9553683520875
 30
0.0
 10
228.8597601424378
 20
115.9698377531256
 30
0.0
 10
228.8590711233408
 20
115.9915418546827
 30
0.0
 10
228.8580375946952
 20
116.0208251663073
 30
0.0
 10
228.792236270927
 20
115.9164387731042
 30
0.0
 10
228.703008297859
 20
115.8316894241671
 30
0.0
 10
228.5893201468457
 20
115.7669216290444
 30
0.0
 10
228.475976505381
 20
115.7018093243732
 30
0.0
 10
228.3529865965576
 20
115.6694254268118
 30
0.0
 10
228.220694929924
 20
115.6694254268118
 30
0.0
 10
227.9998643093195
 20
115.6694254268118
 30
0.0
 10
227.8131401340189
 20
115.7496961516181
 30
0.0
 10
227.6601778944739
 20
115.9098930916822
 30
0.0
 10
227.5072156549288
 20
116.0700900317464
 30
0.0
 10
227.4307345351562
 20
116.2812743849922
 30
0.0
 10
227.4307345351562
 20
116.5434461514197
 30
0.0
 10
227.4307345351562
 20
116.8138861470118
 30
0.0
 10
227.5103162408655
 20
117.0316161816796
 30
0.0
 10
227.6701686713811
 20
117.1969807649716
 30
0.0
 10
227.8296765923481
 20
117.3620008387151
 30
0.0
 10
228.0294921304926
 20
117.4443386208125
 30
0.0
 10
228.2699597953631
 20
117.4443386208125
 30
0.0
 10
228.4435926078197
 20
117.4443386208125
 30
0.0
 10
228.6020670001411
 20
117.3978298317617
 30
0.0
 10
228.7460719914246
 20
117.3041232345629
 30
0.0
 10
228.8897324731595
 20
117.2107611469126
 30
0.0
 10
228.9989420000419
 20
117.0774359516334
 30
0.0
 10
229.0737005720719
 20
116.9044921582739
 30
0.0
 10
229.1481146345533
 20
116.7315483649143
 30
0.0
 10
229.1856661753425
 20
116.4814344326852
 30
0.0
 10
229.1856661753425
 20
116.1538058520379
 30
0.0
 10
229.1856661753425
 20
115.8127413989982
 30
0.0
 10
229.1484591441018
 20
115.5412678747605
 30
0.0
 10
229.0743895911689
 20
115.3390407697764
 30
0.0
 10
229.0006645477846
 20
115.1371581743407
 30
0.0
 10
228.8904214922566
 20
114.98316240615
 30
0.0
 10
228.7440049341334
 20
114.8777424843014
 30
0.0
 10
228.5979328855589
 20
114.7719780529042
 30
0.0
 10
228.4263671303934
 20
114.7192680919799
 30
0.0
 10
228.2299966877342
 20
114.7192680919799
 30
0.0
 10
228.021223901328
 20
114.7192680919799
 30
0.0
 10
227.8506916748082
 20
114.7771456961321
 30
0.0
 10
227.7184000081746
 20
114.893245413985
 30
0.0
 10
227.586108341541
 20
115.0090006222894
 30
0.0
 10
227.5065266358317
 20
115.1719536387417
 30
0.0
 10
227.4799994005953
 20
115.3817599537934
 30
0.0
  0
SPLINE
  5
74
330
6F
100
AcDbEntity
  8
DEFPOINTS
370
     0
100
AcDbSpline
210
0.0
220
0.0
230
1.0
 70
    11
 71
     3
 72
    29
 73
    25
 74
     0
 42
0.0000000001
 43
0.0000000001
 12
1.0
 22
0.0
 32
0.0
 13
1.0
 23
0.0
 33
0.0
 40
0.0
 40
0.0
 40
0.0
 40
0.0
 40
1.0
 40
1.0
 40
1.0
 40
2.0
 40
2.0
 40
2.0
 40
3.0
 40
3.0
 40
3.0
 40
4.0
 40
4.0
 40
4.0
 40
5.0
 40
5.0
 40
5.0
 40
6.0
 40
6.0
 40
6.0
 40
7.0
 40
7.0
 40
7.0
 40
8.0
 40
8.0
 40
8.0
 40
8.0
 10
228.8215195825516
 20
116.5596381002004
 30
0.0
 10
228.8215195825516
 20
116.747740313695
 30
0.0
 10
228.7715656980155
 20
116.8969129482063
 30
0.0
 10
228.6713134193947
 20
117.0075005132828
 30
0.0
 10
228.5710611407739
 20
117.1180880783594
 30
0.0
 10
228.4508273083387
 20
117.1732096061234
 30
0.0
 10
228.309922902992
 20
117.1732096061234
 30
0.0
 10
228.1641953639659
 20
117.1732096061234
 30
0.0
 10
228.0374158501087
 20
117.1136094542286
 30
0.0
 10
227.9295843614204
 20
116.9947536599874
 30
0.0
 10
227.8214083631835
 20
116.8758978657463
 30
0.0
 10
227.7673203640651
 20
116.7215575880071
 30
0.0
 10
227.7673203640651
 20
116.5324218458669
 30
0.0
 10
227.7673203640651
 20
116.3625786384441
 30
0.0
 10
227.8186522867954
 20
116.2244303094856
 30
0.0
 10
227.9213161322558
 20
116.1183213685399
 30
0.0
 10
228.0239799777162
 20
116.0118679180457
 30
0.0
 10
228.1504149820249
 20
115.9588134475728
 30
0.0
 10
228.3009656547303
 20
115.9588134475728
 30
0.0
 10
228.4525498560813
 20
115.9588134475728
 30
0.0
 10
228.5772623126473
 20
116.0118679180457
 30
0.0
 10
228.6751030244285
 20
116.1183213685399
 30
0.0
 10
228.772599226661
 20
116.2244303094856
 30
0.0
 10
228.8215195825516
 20
116.3715358867057
 30
0.0
 10
228.8215195825516
 20
116.5596381002004
 30
0.0
  0
HATCH
  5
75
330
6F
100
AcDbEntity
  8
DEFPOINTS
 62
     7
100
AcDbHatch
 10
0.0
 20
0.0
 30
0.0
210
0.0
220
0.0
230
1.0
  2
SOLID
 70
     1
 71
     0
 91
        2
 92
        1
 93
        1
 72
     4
 94
        3
 73
     0
 74
     1
 95
       71
 96
       67
 40
0.0
 40
0.0
 40
0.0
 40
0.0
 40
1.0
 40
1.0
 40
1.0
 40
2.0
 40
2.0
 40
2.0
 40
3.0
 40
3.0
 40
3.0
 40
4.0
 40
4.0
 40
4.0
 40
5.0
 40
5.0
 40
5.0
 40
6.0
 40
6.0
 40
6.0
 40
7.0
 40
7.0
 40
7.0
 40
8.0
 40
8.0
 40
8.0
 40
9.0
 40
9.0
 40
9.0
 40
10.0
 40
10.0
 40
10.0
 40
11.0
 40
11.0
 40
11.0
 40
12.0
 40
12.0
 40
12.0
 40
13.0
 40
13.0
 40
13.0
 40
14.0
 40
14.0
 40
14.0
 40
15.0
 40
15.0
 40
15.0
 40
16.0
 40
16.0
 40
16.0
 40
17.0
 40
17.0
 40
17.0
 40
18.0
 40
18.0
 40
18.0
 40
19.0
 40
19.0
 40
19.0
 40
20.0
 40
20.0
 40
20.0
 40
21.0
 40
21.0
 40
21.0
 40
22.0
 40
22.0
 40
22.0
 40
22.0
 10
227.4799994005953
 20
115.3817599537934
 10
227.4799994005953
 20
115.3817599537934
 10
227.7948811279471
 20
115.4110432654181
 10
227.7948811279471
 20
115.4110432654181
 10
227.8214083631835
 20
115.2629041595523
 10
227.8723957763652
 20
115.1554171804125
 10
227.9478433674922
 20
115.0889268375472
 10
228.0229464490707
 20
115.0220919851334
 10
228.1194091226577
 20
114.9886745589264
 10
228.2372313882532
 20
114.9886745589264
 10
228.3378281764225
 20
114.9886745589264
 10
228.4260226208449
 20
115.0117566986776
 10
228.5021592310689
 20
115.05792097818
 10
228.5779513317444
 20
115.1040852576823
 10
228.6399630504789
 20
115.1654079573198
 10
228.6885388968209
 20
115.2425780961894
 10
228.7371147431629
 20
115.319748235059
 10
228.7777668698889
 20
115.4237901187135
 10
228.8104952769988
 20
115.554703747153
 10
228.8432236841086
 20
115.685961885141
 10
228.8597601424378
 20
115.8192870804202
 10
228.8597601424378
 20
115.9553683520875
 10
228.8597601424378
 20
115.9698377531256
 10
228.8590711233408
 20
115.9915418546827
 10
228.8580375946952
 20
116.0208251663073
 10
228.792236270927
 20
115.9164387731042
 10
228.703008297859
 20
115.8316894241671
 10
228.5893201468457
 20
115.7669216290444
 10
228.475976505381
 20
115.7018093243732
 10
228.3529865965576
 20
115.6694254268118
 10
228.220694929924
 20
115.6694254268118
 10
227.9998643093195
 20
115.6694254268118
 10
227.8131401340189
 20
115.7496961516181
 10
227.6601778944739
 20
115.9098930916822
 10
227.5072156549288
 20
116.0700900317464
 10
227.4307345351562
 20
116.2812743849922
 10
227.4307345351562
 20
116.5434461514197
 10
227.4307345351562
 20
116.8138861470118
 10
227.5103162408655
 20
117.0316161816796
 10
227.6701686713811
 20
117.1969807649716
 10
227.8296765923481
 20
117.3620008387151
 10
228.0294921304926
 20
117.4443386208125
 10
228.2699597953631
 20
117.4443386208125
 10
228.4435926078197
 20
117.4443386208125
 10
228.6020670001411
 20
117.3978298317617
 10
228.7460719914246
 20
117.3041232345629
 10
228.8897324731595
 20
117.2107611469126
 10
228.9989420000419
 20
117.0774359516334
 10
229.0737005720719
 20
116.9044921582739
 10
229.1481146345533
 20
116.7315483649143
 10
229.1856661753425
 20
116.4814344326852
 10
229.1856661753425
 20
116.1538058520379
 10
229.1856661753425
 20
115.8127413989982
 10
229.1484591441018
 20
115.5412678747605
 10
229.0743895911689
 20
115.3390407697764
 10
229.0006645477846
 20
115.1371581743407
 10
228.8904214922566
 20
114.98316240615
 10
228.7440049341334
 20
114.8777424843014
 10
228.5979328855589
 20
114.7719780529042
 10
228.4263671303934
 20
114.7192680919799
 10
228.2299966877342
 20
114.7192680919799
 10
228.021223901328
 20
114.7192680919799
 10
227.8506916748082
 20
114.7771456961321
 10
227.7184000081746
 20
114.893245413985
 10
227.586108341541
 20
115.0090006222894
 10
227.5065266358317
 20
115.1719536387417
 10
227.4799994005953
 20
115.3817599537934
 97
        0
 92
        1
 93
        1
 72
     4
 94
        3
 73
     0
 74
     1
 95
       29
 96
       25
 40
0.0
 40
0.0
 40
0.0
 40
0.0
 40
1.0
 40
1.0
 40
1.0
 40
2.0
 40
2.0
 40
2.0
 40
3.0
 40
3.0
 40
3.0
 40
4.0
 40
4.0
 40
4.0
 40
5.0
 40
5.0
 40
5.0
 40
6.0
 40
6.0
 40
6.0
 40
7.0
 40
7.0
 40
7.0
 40
8.0
 40
8.0
 40
8.0
 40
8.0
 10
228.8215195825516
 20
116.5596381002004
 10
228.8215195825516
 20
116.747740313695
 10
228.7715656980155
 20
116.8969129482063
 10
228.6713134193947
 20
117.0075005132828
 10
228.5710611407739
 20
117.1180880783594
 10
228.4508273083387
 20
117.1732096061234
 10
228.309922902992
 20
117.1732096061234
 10
228.1641953639659
 20
117.1732096061234
 10
228.0374158501087
 20
117.1136094542286
 10
227.9295843614204
 20
116.9947536599874
 10
227.8214083631835
 20
116.8758978657463
 10
227.7673203640651
 20
116.7215575880071
 10
227.7673203640651
 20
116.5324218458669
 10
227.7673203640651
 20
116.3625786384441
 10
227.8186522867954
 20
116.2244303094856
 10
227.9213161322558
 20
116.1183213685399
 10
228.0239799777162
 20
116.0118679180457
 10
228.1504149820249
 20
115.9588134475728
 10
228.3009656547303
 20
115.9588134475728
 10
228.4525498560813
 20
115.9588134475728
 10
228.5772623126473
 20
116.0118679180457
 10
228.6751030244285
 20
116.1183213685399
 10
228.772599226661
 20
116.2244303094856
 10
228.8215195825516
 20
116.3715358867057
 10
228.8215195825516
 20
116.5596381002004
 97
        0
 75
     2
 76
     1
 98
        0
  0
SPLINE
  5
76
330
6F
100
AcDbEntity
  8
DEFPOINTS
370
     0
100
AcDbSpline
210
0.0
220
0.0
230
1.0
 70
    11
 71
     3
 72
    62
 73
    58
 74
     0
 42
0.0000000001
 43
0.0000000001
 12
1.0
 22
0.0
 32
0.0
 13
1.0
 23
0.0
 33
0.0
 40
0.0
 40
0.0
 40
0.0
 40
0.0
 40
1.0
 40
1.0
 40
1.0
 40
2.0
 40
2.0
 40
2.0
 40
3.0
 40
3.0
 40
3.0
 40
4.0
 40
4.0
 40
4.0
 40
5.0
 40
5.0
 40
5.0
 40
6.0
 40
6.0
 40
6.0
 40
7.0
 40
7.0
 40
7.0
 40
8.0
 40
8.0
 40
8.0
 40
9.0
 40
9.0
 40
9.0
 40
10.0
 40
10.0
 40
10.0
 40
11.0
 40
11.0
 40
11.0
 40
12.0
 40
12.0
 40
12.0
 40
13.0
 40
13.0
 40
13.0
 40
14.0
 40
14.0
 40
14.0
 40
15.0
 40
15.0
 40
15.0
 40
16.0
 40
16.0
 40
16.0
 40
17.0
 40
17.0
 40
17.0
 40
18.0
 40
18.0
 40
18.0
 40
19.0
 40
19.0
 40
19.0
 40
19.0
 10
231.2044921296989
 20
116.7801242112564
 30
0.0
 10
231.2044921296989
 20
116.7801242112564
 30
0.0
 10
230.8785860967943
 20
116.7546305046655
 30
0.0
 10
230.8785860967943
 20
116.7546305046655
 30
0.0
 10
230.8493027851696
 20
116.8831325662653
 30
0.0
 10
230.8083061488952
 20
116.9764946539156
 30
0.0
 10
230.7549071688738
 20
117.0347167676163
 30
0.0
 10
230.6660237053543
 20
117.1284233648151
 30
0.0
 10
230.5568141784719
 20
117.174932153866
 30
0.0
 10
230.426934078678
 20
117.174932153866
 30
0.0
 10
230.3225476854749
 20
117.174932153866
 30
0.0
 10
230.2309081455673
 20
117.1459933517899
 30
0.0
 10
230.1523599685036
 20
117.0877712380892
 30
0.0
 10
230.0490071039461
 20
117.0123236469622
 30
0.0
 10
229.9677028504942
 20
116.9024251009827
 30
0.0
 10
229.9081026985994
 20
116.7580756001508
 30
0.0
 10
229.8488470562531
 20
116.6137260993188
 30
0.0
 10
229.8178411968858
 20
116.4080538988494
 30
0.0
 10
229.8154296300461
 20
116.1410589987425
 30
0.0
 10
229.8943223166584
 20
116.2612928311777
 30
0.0
 10
229.9907849902454
 20
116.3501762946972
 30
0.0
 10
230.1048176508071
 20
116.4087429179464
 30
0.0
 10
230.2188503113689
 20
116.4669650316471
 30
0.0
 10
230.3383951247071
 20
116.4959038337232
 30
0.0
 10
230.4634520908216
 20
116.4959038337232
 30
0.0
 10
230.6818711445865
 20
116.4959038337232
 30
0.0
 10
230.86790630079
 20
116.4156331089169
 30
0.0
 10
231.0215575594321
 20
116.2547471497558
 30
0.0
 10
231.1748643085257
 20
116.0938611905946
 30
0.0
 10
231.2516899378468
 20
115.886121932834
 30
0.0
 10
231.2516899378468
 20
115.6311848669255
 30
0.0
 10
231.2516899378468
 20
115.4637532263424
 30
0.0
 10
231.2155164352517
 20
115.3080349104091
 30
0.0
 10
231.14351393961
 20
115.1643744286742
 30
0.0
 10
231.0711669344197
 20
115.0203694373907
 30
0.0
 10
230.9719481844445
 20
114.9104708914113
 30
0.0
 10
230.8458576896844
 20
114.8339897716387
 30
0.0
 10
230.7194226853757
 20
114.7575086518662
 30
0.0
 10
230.5764512227378
 20
114.7192680919799
 30
0.0
 10
230.4162542826737
 20
114.7192680919799
 30
0.0
 10
230.1430582106934
 20
114.7192680919799
 30
0.0
 10
229.9205050423463
 20
114.8195203706007
 30
0.0
 10
229.7479057585353
 20
115.0203694373907
 30
0.0
 10
229.5756509842728
 20
115.2212185041808
 30
0.0
 10
229.4895235971415
 20
115.5522921803133
 30
0.0
 10
229.4895235971415
 20
116.0135904657883
 30
0.0
 10
229.4895235971415
 20
116.5293212599302
 30
0.0
 10
229.5849527420829
 20
116.9044921582739
 30
0.0
 10
229.7754665224172
 20
117.1384141417224
 30
0.0
 10
229.9415201248063
 20
117.3423637944491
 30
0.0
 10
230.1654513313475
 20
117.4443386208125
 30
0.0
 10
230.447260142041
 20
117.4443386208125
 30
0.0
 10
230.6570664570927
 20
117.4443386208125
 30
0.0
 10
230.8289767218067
 20
117.3854274880148
 30
0.0
 10
230.9633354457314
 20
117.2679497319677
 30
0.0
 10
231.0973496601076
 20
117.1501274663722
 30
0.0
 10
231.177620384914
 20
116.9875189594684
 30
0.0
 10
231.2044921296989
 20
116.7801242112564
 30
0.0
  0
SPLINE
  5
77
330
6F
100
AcDbEntity
  8
DEFPOINTS
370
     0
100
AcDbSpline
210
0.0
220
0.0
230
1.0
 70
    11
 71
     3
 72
    32
 73
    28
 74
     0
 42
0.0000000001
 43
0.0000000001
 12
1.0
 22
0.0
 32
0.0
 13
1.0
 23
0.0
 33
0.0
 40
0.0
 40
0.0
 40
0.0
 40
0.0
 40
1.0
 40
1.0
 40
1.0
 40
2.0
 40
2.0
 40
2.0
 40
3.0
 40
3.0
 40
3.0
 40
4.0
 40
4.0
 40
4.0
 40
5.0
 40
5.0
 40
5.0
 40
6.0
 40
6.0
 40
6.0
 40
7.0
 40
7.0
 40
7.0
 40
8.0
 40
8.0
 40
8.0
 40
9.0
 40
9.0
 40
9.0
 40
9.0
 10
229.8664170432278
 20
115.6294623191829
 30
0.0
 10
229.8664170432278
 20
115.5164631872667
 30
0.0
 10
229.8901882020761
 20
115.4086316985784
 30
0.0
 10
229.9384195388696
 20
115.3052788340209
 30
0.0
 10
229.9863063661145
 20
115.2022704790119
 30
0.0
 10
230.0531412185284
 20
115.1237223019482
 30
0.0
 10
230.1396131152082
 20
115.0696343028298
 30
0.0
 10
230.2257405023394
 20
115.0155463037114
 30
0.0
 10
230.316002004053
 20
114.9886745589264
 30
0.0
 10
230.4107421298973
 20
114.9886745589264
 30
0.0
 10
230.5488904588559
 20
114.9886745589264
 30
0.0
 10
230.6680907626455
 20
115.0444851057875
 30
0.0
 10
230.7676540221692
 20
115.1561061995096
 30
0.0
 10
230.8668727721444
 20
115.2677272932317
 30
0.0
 10
230.9168266566805
 20
115.4193114945827
 30
0.0
 10
230.9168266566805
 20
115.6112033131111
 30
0.0
 10
230.9168266566805
 20
115.7958604311205
 30
0.0
 10
230.8675617912415
 20
115.9408989510495
 30
0.0
 10
230.7693765699118
 20
116.0473524015437
 30
0.0
 10
230.6711913485822
 20
116.1534613424894
 30
0.0
 10
230.5471679111132
 20
116.2065158129623
 30
0.0
 10
230.3979952766019
 20
116.2065158129623
 30
0.0
 10
230.2498561707362
 20
116.2065158129623
 30
0.0
 10
230.1241101855245
 20
116.1534613424894
 30
0.0
 10
230.0211018305156
 20
116.0473524015437
 30
0.0
 10
229.9180934755066
 20
115.9408989510495
 30
0.0
 10
229.8664170432278
 20
115.8017170934454
 30
0.0
 10
229.8664170432278
 20
115.6294623191829
 30
0.0
  0
HATCH
  5
78
330
6F
100
AcDbEntity
  8
DEFPOINTS
 62
     7
100
AcDbHatch
 10
0.0
 20
0.0
 30
0.0
210
0.0
220
0.0
230
1.0
  2
SOLID
 70
     1
 71
     0
 91
        2
 92
        1
 93
        1
 72
     4
 94
        3
 73
     0
 74
     1
 95
       62
 96
       58
 40
0.0
 40
0.0
 40
0.0
 40
0.0
 40
1.0
 40
1.0
 40
1.0
 40
2.0
 40
2.0
 40
2.0
 40
3.0
 40
3.0
 40
3.0
 40
4.0
 40
4.0
 40
4.0
 40
5.0
 40
5.0
 40
5.0
 40
6.0
 40
6.0
 40
6.0
 40
7.0
 40
7.0
 40
7.0
 40
8.0
 40
8.0
 40
8.0
 40
9.0
 40
9.0
 40
9.0
 40
10.0
 40
10.0
 40
10.0
 40
11.0
 40
11.0
 40
11.0
 40
12.0
 40
12.0
 40
12.0
 40
13.0
 40
13.0
 40
13.0
 40
14.0
 40
14.0
 40
14.0
 40
15.0
 40
15.0
 40
15.0
 40
16.0
 40
16.0
 40
16.0
 40
17.0
 40
17.0
 40
17.0
 40
18.0
 40
18.0
 40
18.0
 40
19.0
 40
19.0
 40
19.0
 40
19.0
 10
231.2044921296989
 20
116.7801242112564
 10
231.2044921296989
 20
116.7801242112564
 10
230.8785860967943
 20
116.7546305046655
 10
230.8785860967943
 20
116.7546305046655
 10
230.8493027851696
 20
116.8831325662653
 10
230.8083061488952
 20
116.9764946539156
 10
230.7549071688738
 20
117.0347167676163
 10
230.6660237053543
 20
117.1284233648151
 10
230.5568141784719
 20
117.174932153866
 10
230.426934078678
 20
117.174932153866
 10
230.3225476854749
 20
117.174932153866
 10
230.2309081455673
 20
117.1459933517899
 10
230.1523599685036
 20
117.0877712380892
 10
230.0490071039461
 20
117.0123236469622
 10
229.9677028504942
 20
116.9024251009827
 10
229.9081026985994
 20
116.7580756001508
 10
229.8488470562531
 20
116.6137260993188
 10
229.8178411968858
 20
116.4080538988494
 10
229.8154296300461
 20
116.1410589987425
 10
229.8943223166584
 20
116.2612928311777
 10
229.9907849902454
 20
116.3501762946972
 10
230.1048176508071
 20
116.4087429179464
 10
230.2188503113689
 20
116.4669650316471
 10
230.3383951247071
 20
116.4959038337232
 10
230.4634520908216
 20
116.4959038337232
 10
230.6818711445865
 20
116.4959038337232
 10
230.86790630079
 20
116.4156331089169
 10
231.0215575594321
 20
116.2547471497558
 10
231.1748643085257
 20
116.0938611905946
 10
231.2516899378468
 20
115.886121932834
 10
231.2516899378468
 20
115.6311848669255
 10
231.2516899378468
 20
115.4637532263424
 10
231.2155164352517
 20
115.3080349104091
 10
231.14351393961
 20
115.1643744286742
 10
231.0711669344197
 20
115.0203694373907
 10
230.9719481844445
 20
114.9104708914113
 10
230.8458576896844
 20
114.8339897716387
 10
230.7194226853757
 20
114.7575086518662
 10
230.5764512227378
 20
114.7192680919799
 10
230.4162542826737
 20
114.7192680919799
 10
230.1430582106934
 20
114.7192680919799
 10
229.9205050423463
 20
114.8195203706007
 10
229.7479057585353
 20
115.0203694373907
 10
229.5756509842728
 20
115.2212185041808
 10
229.4895235971415
 20
115.5522921803133
 10
229.4895235971415
 20
116.0135904657883
 10
229.4895235971415
 20
116.5293212599302
 10
229.5849527420829
 20
116.9044921582739
 10
229.7754665224172
 20
117.1384141417224
 10
229.9415201248063
 20
117.3423637944491
 10
230.1654513313475
 20
117.4443386208125
 10
230.447260142041
 20
117.4443386208125
 10
230.6570664570927
 20
117.4443386208125
 10
230.8289767218067
 20
117.3854274880148
 10
230.9633354457314
 20
117.2679497319677
 10
231.0973496601076
 20
117.1501274663722
 10
231.177620384914
 20
116.9875189594684
 10
231.2044921296989
 20
116.7801242112564
 97
        0
 92
        1
 93
        1
 72
     4
 94
        3
 73
     0
 74
     1
 95
       32
 96
       28
 40
0.0
 40
0.0
 40
0.0
 40
0.0
 40
1.0
 40
1.0
 40
1.0
 40
2.0
 40
2.0
 40
2.0
 40
3.0
 40
3.0
 40
3.0
 40
4.0
 40
4.0
 40
4.0
 40
5.0
 40
5.0
 40
5.0
 40
6.0
 40
6.0
 40
6.0
 40
7.0
 40
7.0
 40
7.0
 40
8.0
 40
8.0
 40
8.0
 40
9.0
 40
9.0
 40
9.0
 40
9.0
 10
229.8664170432278
 20
115.6294623191829
 10
229.8664170432278
 20
115.5164631872667
 10
229.8901882020761
 20
115.4086316985784
 10
229.9384195388696
 20
115.3052788340209
 10
229.9863063661145
 20
115.2022704790119
 10
230.0531412185284
 20
115.1237223019482
 10
230.1396131152082
 20
115.0696343028298
 10
230.2257405023394
 20
115.0155463037114
 10
230.316002004053
 20
114.9886745589264
 10
230.4107421298973
 20
114.9886745589264
 10
230.5488904588559
 20
114.9886745589264
 10
230.6680907626455
 20
115.0444851057875
 10
230.7676540221692
 20
115.1561061995096
 10
230.8668727721444
 20
115.2677272932317
 10
230.9168266566805
 20
115.4193114945827
 10
230.9168266566805
 20
115.6112033131111
 10
230.9168266566805
 20
115.7958604311205
 10
230.8675617912415
 20
115.9408989510495
 10
230.7693765699118
 20
116.0473524015437
 10
230.6711913485822
 20
116.1534613424894
 10
230.5471679111132
 20
116.2065158129623
 10
230.3979952766019
 20
116.2065158129623
 10
230.2498561707362
 20
116.2065158129623
 10
230.1241101855245
 20
116.1534613424894
 10
230.0211018305156
 20
116.0473524015437
 10
229.9180934755066
 20
115.9408989510495
 10
229.8664170432278
 20
115.8017170934454
 10
229.8664170432278
 20
115.6294623191829
 97
        0
 75
     2
 76
     1
 98
        0
  0
ENDBLK
  5
72
330
6F
100
AcDbEntity
  8
0
100
AcDbBlockEnd
  0
BLOCK
  5
7B
330
79
100
AcDbEntity
  8
0
100
AcDbBlockBegin
  2
block 10
 70
     0
 10
0.0
 20
0.0
 30
0.0
  3
block 10
  1

  0
INSERT
  5
7E
330
79
100
AcDbEntity
  8
DEFPOINTS
100
AcDbBlockReference
  2
block 11
 10
0.0
 20
0.0
 30
0.0
  0
ENDBLK
  5
7C
330
79
100
AcDbEntity
  8
0
100
AcDbBlockEnd
  0
BLOCK
  5
7F
330
7D
100
AcDbEntity
  8
0
100
AcDbBlockBegin
  2
block 11
 70
     0
 10
0.0
 20
0.0
 30
0.0
  3
block 11
  1

  0
POLYLINE
  5
81
330
7D
100
AcDbEntity
  8
DEFPOINTS
370
     0
100
AcDb2dPolyline
 66
     1
 10
0.0
 20
0.0
 30
0.0
  0
VERTEX
  5
82
330
81
100
AcDbEntity
  8
DEFPOINTS
370
     0
100
AcDbVertex
100
AcDb2dVertex
 10
297.1236381635663
 20
140.9677951036469
 30
0.0
  0
VERTEX
  5
83
330
81
100
AcDbEntity
  8
DEFPOINTS
370
     0
100
AcDbVertex
100
AcDb2dVertex
 10
297.1236381635663
 20
141.6068603161608
 30
0.0
  0
VERTEX
  5
84
330
81
100
AcDbEntity
  8
DEFPOINTS
370
     0
100
AcDbVertex
100
AcDb2dVertex
 10
295.9660860805224
 20
141.6068603161608
 30
0.0
  0
VERTEX
  5
85
330
81
100
AcDbEntity
  8
DEFPOINTS
370
     0
100
AcDbVertex
100
AcDb2dVertex
 10
295.9660860805224
 20
141.9072726424746
 30
0.0
  0
VERTEX
  5
86
330
81
100
AcDbEntity
  8
DEFPOINTS
370
     0
100
AcDbVertex
100
AcDb2dVertex
 10
297.1839273345582
 20
143.6363660665215
 30
0.0
  0
VERTEX
  5
87
330
81
100
AcDbEntity
  8
DEFPOINTS
370
     0
100
AcDbVertex
100
AcDb2dVertex
 10
297.4516112537621
 20
143.6363660665215
 30
0.0
  0
VERTEX
  5
88
330
81
100
AcDbEntity
  8
DEFPOINTS
370
     0
100
AcDbVertex
100
AcDb2dVertex
 10
297.4516112537621
 20
141.9072726424746
 30
0.0
  0
VERTEX
  5
89
330
81
100
AcDbEntity
  8
DEFPOINTS
370
     0
100
AcDbVertex
100
AcDb2dVertex
 10
297.8119682415193
 20
141.9072726424746
 30
0.0
  0
VERTEX
  5
8A
330
81
100
AcDbEntity
  8
DEFPOINTS
370
     0
100
AcDbVertex
100
AcDb2dVertex
 10
297.8119682415193
 20
141.6068603161608
 30
0.0
  0
VERTEX
  5
8B
330
81
100
AcDbEntity
  8
DEFPOINTS
370
     0
100
AcDbVertex
100
AcDb2dVertex
 10
297.4516112537621
 20
141.6068603161608
 30
0.0
  0
VERTEX
  5
8C
330
81
100
AcDbEntity
  8
DEFPOINTS
370
     0
100
AcDbVertex
100
AcDb2dVertex
 10
297.4516112537621
 20
140.9677951036469
 30
0.0
  0
VERTEX
  5
8D
330
81
100
AcDbEntity
  8
DEFPOINTS
370
     0
100
AcDbVertex
100
AcDb2dVertex
 10
297.1236381635663
 20
140.9677951036469
 30
0.0
  0
SEQEND
  5
8E
330
81
100
AcDbEntity
  8
DEFPOINTS
370
     0
  0
POLYLINE
  5
8F
330
7D
100
AcDbEntity
  8
DEFPOINTS
370
     0
100
AcDb2dPolyline
 66
     1
 10
0.0
 20
0.0
 30
0.0
  0
VERTEX
  5
90
330
8F
100
AcDbEntity
  8
DEFPOINTS
370
     0
100
AcDbVertex
100
AcDb2dVertex
 10
297.1236381635663
 20
141.9072726424746
 30
0.0
  0
VERTEX
  5
91
330
8F
100
AcDbEntity
  8
DEFPOINTS
370
     0
100
AcDbVertex
100
AcDb2dVertex
 10
297.1236381635663
 20
143.1102999859238
 30
0.0
  0
VERTEX
  5
92
330
8F
100
AcDbEntity
  8
DEFPOINTS
370
     0
100
AcDbVertex
100
AcDb2dVertex
 10
296.2882025083932
 20
141.9072726424746
 30
0.0
  0
VERTEX
  5
93
330
8F
100
AcDbEntity
  8
DEFPOINTS
370
     0
100
AcDbVertex
100
AcDb2dVertex
 10
297.1236381635663
 20
141.9072726424746
 30
0.0
  0
SEQEND
  5
94
330
8F
100
AcDbEntity
  8
DEFPOINTS
370
     0
  0
HATCH
  5
95
330
7D
100
AcDbEntity
  8
DEFPOINTS
 62
     7
100
AcDbHatch
 10
0.0
 20
0.0
 30
0.0
210
0.0
220
0.0
230
1.0
  2
SOLID
 70
     1
 71
     0
 91
        2
 92
        1
 93
       11
 72
     1
 10
297.1236381635663
 20
140.9677951036469
 11
297.1236381635663
 21
141.6068603161608
 72
     1
 10
297.1236381635663
 20
141.6068603161608
 11
295.9660860805224
 21
141.6068603161608
 72
     1
 10
295.9660860805224
 20
141.6068603161608
 11
295.9660860805224
 21
141.9072726424746
 72
     1
 10
295.9660860805224
 20
141.9072726424746
 11
297.1839273345582
 21
143.6363660665215
 72
     1
 10
297.1839273345582
 20
143.6363660665215
 11
297.4516112537621
 21
143.6363660665215
 72
     1
 10
297.4516112537621
 20
143.6363660665215
 11
297.4516112537621
 21
141.9072726424746
 72
     1
 10
297.4516112537621
 20
141.9072726424746
 11
297.8119682415193
 21
141.9072726424746
 72
     1
 10
297.8119682415193
 20
141.9072726424746
 11
297.8119682415193
 21
141.6068603161608
 72
     1
 10
297.8119682415193
 20
141.6068603161608
 11
297.4516112537621
 21
141.6068603161608
 72
     1
 10
297.4516112537621
 20
141.6068603161608
 11
297.4516112537621
 21
140.9677951036469
 72
     1
 10
297.4516112537621
 20
140.9677951036469
 11
297.1236381635663
 21
140.9677951036469
 97
        0
 92
        1
 93
        3
 72
     1
 10
297.1236381635663
 20
141.9072726424746
 11
297.1236381635663
 21
143.1102999859238
 72
     1
 10
297.1236381635663
 20
143.1102999859238
 11
296.2882025083932
 21
141.9072726424746
 72
     1
 10
296.2882025083932
 20
141.9072726424746
 11
297.1236381635663
 21
141.9072726424746
 97
        0
 75
     2
 76
     1
 98
        0
  0
SPLINE
  5
96
330
7D
100
AcDbEntity
  8
DEFPOINTS
370
     0
100
AcDbSpline
210
0.0
220
0.0
230
1.0
 70
    11
 71
     3
 72
    35
 73
    31
 74
     0
 42
0.0000000001
 43
0.0000000001
 12
1.0
 22
0.0
 32
0.0
 13
1.0
 23
0.0
 33
0.0
 40
0.0
 40
0.0
 40
0.0
 40
0.0
 40
1.0
 40
1.0
 40
1.0
 40
2.0
 40
2.0
 40
2.0
 40
3.0
 40
3.0
 40
3.0
 40
4.0
 40
4.0
 40
4.0
 40
5.0
 40
5.0
 40
5.0
 40
6.0
 40
6.0
 40
6.0
 40
7.0
 40
7.0
 40
7.0
 40
8.0
 40
8.0
 40
8.0
 40
9.0
 40
9.0
 40
9.0
 40
10.0
 40
10.0
 40
10.0
 40
10.0
 10
298.8641004027145
 20
140.1833468616556
 30
0.0
 10
298.6832328897389
 20
140.4114121827791
 30
0.0
 10
298.5306151597424
 20
140.678407082886
 30
0.0
 10
298.4052136840793
 20
140.9843315619761
 30
0.0
 10
298.2805012275132
 20
141.2899115315178
 30
0.0
 10
298.2178004896817
 20
141.6068603161608
 30
0.0
 10
298.2178004896817
 20
141.9344888968081
 30
0.0
 10
298.2178004896817
 20
142.223187898472
 30
0.0
 10
298.2646537882811
 20
142.4998290659375
 30
0.0
 10
298.3580158759314
 20
142.7644123992047
 30
0.0
 10
298.4672254028138
 20
143.071714916489
 30
0.0
 10
298.636035081591
 20
143.3772948860307
 30
0.0
 10
298.8641004027145
 20
143.6821858364753
 30
0.0
 10
298.8641004027145
 20
143.6821858364753
 30
0.0
 10
299.0990559148086
 20
143.6821858364753
 30
0.0
 10
299.0990559148086
 20
143.6821858364753
 30
0.0
 10
298.952294847137
 20
143.4296603374065
 30
0.0
 10
298.8551431544529
 20
143.2494818435279
 30
0.0
 10
298.8076008367564
 20
143.1413058452911
 30
0.0
 10
298.7338757933721
 20
142.9738742047079
 30
0.0
 10
298.6753091701228
 20
142.7992078636058
 30
0.0
 10
298.6329344956543
 20
142.616962312436
 30
0.0
 10
298.580913553827
 20
142.3902750295066
 30
0.0
 10
298.5547308281391
 20
142.1618651988345
 30
0.0
 10
298.5547308281391
 20
141.9327663490654
 30
0.0
 10
298.5547308281391
 20
141.3488226643156
 30
0.0
 10
298.7359428506633
 20
140.7655679986628
 30
0.0
 10
299.0990559148086
 20
140.1833468616556
 30
0.0
 10
299.0990559148086
 20
140.1833468616556
 30
0.0
 10
298.8641004027145
 20
140.1833468616556
 30
0.0
 10
298.8641004027145
 20
140.1833468616556
 30
0.0
  0
HATCH
  5
97
330
7D
100
AcDbEntity
  8
DEFPOINTS
 62
     7
100
AcDbHatch
 10
0.0
 20
0.0
 30
0.0
210
0.0
220
0.0
230
1.0
  2
SOLID
 70
     1
 71
     0
 91
        1
 92
        1
 93
        1
 72
     4
 94
        3
 73
     0
 74
     1
 95
       35
 96
       31
 40
0.0
 40
0.0
 40
0.0
 40
0.0
 40
1.0
 40
1.0
 40
1.0
 40
2.0
 40
2.0
 40
2.0
 40
3.0
 40
3.0
 40
3.0
 40
4.0
 40
4.0
 40
4.0
 40
5.0
 40
5.0
 40
5.0
 40
6.0
 40
6.0
 40
6.0
 40
7.0
 40
7.0
 40
7.0
 40
8.0
 40
8.0
 40
8.0
 40
9.0
 40
9.0
 40
9.0
 40
10.0
 40
10.0
 40
10.0
 40
10.0
 10
298.8641004027145
 20
140.1833468616556
 10
298.6832328897389
 20
140.4114121827791
 10
298.5306151597424
 20
140.678407082886
 10
298.4052136840793
 20
140.9843315619761
 10
298.2805012275132
 20
141.2899115315178
 10
298.2178004896817
 20
141.6068603161608
 10
298.2178004896817
 20
141.9344888968081
 10
298.2178004896817
 20
142.223187898472
 10
298.2646537882811
 20
142.4998290659375
 10
298.3580158759314
 20
142.7644123992047
 10
298.4672254028138
 20
143.071714916489
 10
298.636035081591
 20
143.3772948860307
 10
298.8641004027145
 20
143.6821858364753
 10
298.8641004027145
 20
143.6821858364753
 10
299.0990559148086
 20
143.6821858364753
 10
299.0990559148086
 20
143.6821858364753
 10
298.952294847137
 20
143.4296603374065
 10
298.8551431544529
 20
143.2494818435279
 10
298.8076008367564
 20
143.1413058452911
 10
298.7338757933721
 20
142.9738742047079
 10
298.6753091701228
 20
142.7992078636058
 10
298.6329344956543
 20
142.616962312436
 10
298.580913553827
 20
142.3902750295066
 10
298.5547308281391
 20
142.1618651988345
 10
298.5547308281391
 20
141.9327663490654
 10
298.5547308281391
 20
141.3488226643156
 10
298.7359428506633
 20
140.7655679986628
 10
299.0990559148086
 20
140.1833468616556
 10
299.0990559148086
 20
140.1833468616556
 10
298.8641004027145
 20
140.1833468616556
 10
298.8641004027145
 20
140.1833468616556
 97
        0
 75
     2
 76
     1
 98
        0
  0
SPLINE
  5
98
330
7D
100
AcDbEntity
  8
DEFPOINTS
370
     0
100
AcDbSpline
210
0.0
220
0.0
230
1.0
 70
    11
 71
     3
 72
    89
 73
    85
 74
     0
 42
0.0000000001
 43
0.0000000001
 12
1.0
 22
0.0
 32
0.0
 13
1.0
 23
0.0
 33
0.0
 40
0.0
 40
0.0
 40
0.0
 40
0.0
 40
1.0
 40
1.0
 40
1.0
 40
2.0
 40
2.0
 40
2.0
 40
3.0
 40
3.0
 40
3.0
 40
4.0
 40
4.0
 40
4.0
 40
5.0
 40
5.0
 40
5.0
 40
6.0
 40
6.0
 40
6.0
 40
7.0
 40
7.0
 40
7.0
 40
8.0
 40
8.0
 40
8.0
 40
9.0
 40
9.0
 40
9.0
 40
10.0
 40
10.0
 40
10.0
 40
11.0
 40
11.0
 40
11.0
 40
12.0
 40
12.0
 40
12.0
 40
13.0
 40
13.0
 40
13.0
 40
14.0
 40
14.0
 40
14.0
 40
15.0
 40
15.0
 40
15.0
 40
16.0
 40
16.0
 40
16.0
 40
17.0
 40
17.0
 40
17.0
 40
18.0
 40
18.0
 40
18.0
 40
19.0
 40
19.0
 40
19.0
 40
20.0
 40
20.0
 40
20.0
 40
21.0
 40
21.0
 40
21.0
 40
22.0
 40
22.0
 40
22.0
 40
23.0
 40
23.0
 40
23.0
 40
24.0
 40
24.0
 40
24.0
 40
25.0
 40
25.0
 40
25.0
 40
26.0
 40
26.0
 40
26.0
 40
27.0
 40
27.0
 40
27.0
 40
28.0
 40
28.0
 40
28.0
 40
28.0
 10
299.4793944563802
 20
140.9677951036469
 30
0.0
 10
299.4793944563802
 20
140.9677951036469
 30
0.0
 10
299.4793944563802
 20
142.9011826899691
 30
0.0
 10
299.4793944563802
 20
142.9011826899691
 30
0.0
 10
299.4793944563802
 20
142.9011826899691
 30
0.0
 10
299.7725720821749
 20
142.9011826899691
 30
0.0
 10
299.7725720821749
 20
142.9011826899691
 30
0.0
 10
299.7725720821749
 20
142.9011826899691
 30
0.0
 10
299.7725720821749
 20
142.6297091657315
 30
0.0
 10
299.7725720821749
 20
142.6297091657315
 30
0.0
 10
299.8332057627154
 20
142.7244492915758
 30
0.0
 10
299.9141655066187
 20
142.8005859017998
 30
0.0
 10
300.014762294788
 20
142.858463505952
 30
0.0
 10
300.1153590829573
 20
142.9159966005557
 30
0.0
 10
300.2300807626161
 20
142.9449354026318
 30
0.0
 10
300.3585828242159
 20
142.9449354026318
 30
0.0
 10
300.5018987964023
 20
142.9449354026318
 30
0.0
 10
300.6193765524494
 20
142.9149630719102
 30
0.0
 10
300.711016092357
 20
142.8557074295639
 30
0.0
 10
300.8026556322646
 20
142.796107277669
 30
0.0
 10
300.8670789178388
 20
142.7130804764745
 30
0.0
 10
300.9049749681765
 20
142.6062825164318
 30
0.0
 10
301.0579372077216
 20
142.8319362707156
 30
0.0
 10
301.2570637267691
 20
142.9449354026318
 30
0.0
 10
301.5020100157703
 20
142.9449354026318
 30
0.0
 10
301.6939018342987
 20
142.9449354026318
 30
0.0
 10
301.8413519210674
 20
142.8915364226104
 30
0.0
 10
301.9443602760765
 20
142.7854274816648
 30
0.0
 10
302.0473686310854
 20
142.6793185407191
 30
0.0
 10
302.0990450633641
 20
142.5156765051697
 30
0.0
 10
302.0990450633641
 20
142.2948458845652
 30
0.0
 10
302.0990450633641
 20
142.2948458845652
 30
0.0
 10
302.0990450633641
 20
140.9677951036469
 30
0.0
 10
302.0990450633641
 20
140.9677951036469
 30
0.0
 10
302.0990450633641
 20
140.9677951036469
 30
0.0
 10
301.7731390304595
 20
140.9677951036469
 30
0.0
 10
301.7731390304595
 20
140.9677951036469
 30
0.0
 10
301.7731390304595
 20
140.9677951036469
 30
0.0
 10
301.7731390304595
 20
142.1856363576828
 30
0.0
 10
301.7731390304595
 20
142.1856363576828
 30
0.0
 10
301.7731390304595
 20
142.3168944956708
 30
0.0
 10
301.7628037440037
 20
142.4109456024181
 30
0.0
 10
301.7414441519952
 20
142.4688232065703
 30
0.0
 10
301.7200845599867
 20
142.526356301174
 30
0.0
 10
301.6814994905519
 20
142.5728650902248
 30
0.0
 10
301.6256889436908
 20
142.6080050641744
 30
0.0
 10
301.5698783968298
 20
142.6431450381239
 30
0.0
 10
301.50442158261
 20
142.6607150250987
 30
0.0
 10
301.4293185010316
 20
142.6607150250987
 30
0.0
 10
301.2932372293642
 20
142.6607150250987
 30
0.0
 10
301.1805826069966
 20
142.6155842742419
 30
0.0
 10
301.0906656148315
 20
142.5253227725284
 30
0.0
 10
301.0007486226665
 20
142.4347167612663
 30
0.0
 10
300.9559623813582
 20
142.2900227508858
 30
0.0
 10
300.9559623813582
 20
142.0908962318384
 30
0.0
 10
300.9559623813582
 20
142.0908962318384
 30
0.0
 10
300.9559623813582
 20
140.9677951036469
 30
0.0
 10
300.9559623813582
 20
140.9677951036469
 30
0.0
 10
300.9559623813582
 20
140.9677951036469
 30
0.0
 10
300.6279892911625
 20
140.9677951036469
 30
0.0
 10
300.6279892911625
 20
140.9677951036469
 30
0.0
 10
300.6279892911625
 20
140.9677951036469
 30
0.0
 10
300.6279892911625
 20
142.223876917569
 30
0.0
 10
300.6279892911625
 20
142.223876917569
 30
0.0
 10
300.6279892911625
 20
142.3696044565951
 30
0.0
 10
300.601462055926
 20
142.4788139834775
 30
0.0
 10
300.5480630759047
 20
142.5515054982163
 30
0.0
 10
300.4946640958833
 20
142.6245415225036
 30
0.0
 10
300.4075031801065
 20
142.6607150250987
 30
0.0
 10
300.2858913094772
 20
142.6607150250987
 30
0.0
 10
300.193907260021
 20
142.6607150250987
 30
0.0
 10
300.1084688919868
 20
142.636599356702
 30
0.0
 10
300.0302652244716
 20
142.5880235103599
 30
0.0
 10
299.9520615569564
 20
142.5394476640179
 30
0.0
 10
299.8952174814498
 20
142.4684786970218
 30
0.0
 10
299.8597329979518
 20
142.3751166093715
 30
0.0
 10
299.8245930240022
 20
142.2814100121727
 30
0.0
 10
299.807367546576
 20
142.1467067786994
 30
0.0
 10
299.807367546576
 20
141.9710069089517
 30
0.0
 10
299.807367546576
 20
141.9710069089517
 30
0.0
 10
299.807367546576
 20
140.9677951036469
 30
0.0
 10
299.807367546576
 20
140.9677951036469
 30
0.0
 10
299.807367546576
 20
140.9677951036469
 30
0.0
 10
299.4793944563802
 20
140.9677951036469
 30
0.0
 10
299.4793944563802
 20
140.9677951036469
 30
0.0
  0
HATCH
  5
99
330
7D
100
AcDbEntity
  8
DEFPOINTS
 62
     7
100
AcDbHatch
 10
0.0
 20
0.0
 30
0.0
210
0.0
220
0.0
230
1.0
  2
SOLID
 70
     1
 71
     0
 91
        1
 92
        1
 93
        1
 72
     4
 94
        3
 73
     0
 74
     1
 95
       89
 96
       85
 40
0.0
 40
0.0
 40
0.0
 40
0.0
 40
1.0
 40
1.0
 40
1.0
 40
2.0
 40
2.0
 40
2.0
 40
3.0
 40
3.0
 40
3.0
 40
4.0
 40
4.0
 40
4.0
 40
5.0
 40
5.0
 40
5.0
 40
6.0
 40
6.0
 40
6.0
 40
7.0
 40
7.0
 40
7.0
 40
8.0
 40
8.0
 40
8.0
 40
9.0
 40
9.0
 40
9.0
 40
10.0
 40
10.0
 40
10.0
 40
11.0
 40
11.0
 40
11.0
 40
12.0
 40
12.0
 40
12.0
 40
13.0
 40
13.0
 40
13.0
 40
14.0
 40
14.0
 40
14.0
 40
15.0
 40
15.0
 40
15.0
 40
16.0
 40
16.0
 40
16.0
 40
17.0
 40
17.0
 40
17.0
 40
18.0
 40
18.0
 40
18.0
 40
19.0
 40
19.0
 40
19.0
 40
20.0
 40
20.0
 40
20.0
 40
21.0
 40
21.0
 40
21.0
 40
22.0
 40
22.0
 40
22.0
 40
23.0
 40
23.0
 40
23.0
 40
24.0
 40
24.0
 40
24.0
 40
25.0
 40
25.0
 40
25.0
 40
26.0
 40
26.0
 40
26.0
 40
27.0
 40
27.0
 40
27.0
 40
28.0
 40
28.0
 40
28.0
 40
28.0
 10
299.4793944563802
 20
140.9677951036469
 10
299.4793944563802
 20
140.9677951036469
 10
299.4793944563802
 20
142.9011826899691
 10
299.4793944563802
 20
142.9011826899691
 10
299.4793944563802
 20
142.9011826899691
 10
299.7725720821749
 20
142.9011826899691
 10
299.7725720821749
 20
142.9011826899691
 10
299.7725720821749
 20
142.9011826899691
 10
299.7725720821749
 20
142.6297091657315
 10
299.7725720821749
 20
142.6297091657315
 10
299.8332057627154
 20
142.7244492915758
 10
299.9141655066187
 20
142.8005859017998
 10
300.014762294788
 20
142.858463505952
 10
300.1153590829573
 20
142.9159966005557
 10
300.2300807626161
 20
142.9449354026318
 10
300.3585828242159
 20
142.9449354026318
 10
300.5018987964023
 20
142.9449354026318
 10
300.6193765524494
 20
142.9149630719102
 10
300.711016092357
 20
142.8557074295639
 10
300.8026556322646
 20
142.796107277669
 10
300.8670789178388
 20
142.7130804764745
 10
300.9049749681765
 20
142.6062825164318
 10
301.0579372077216
 20
142.8319362707156
 10
301.2570637267691
 20
142.9449354026318
 10
301.5020100157703
 20
142.9449354026318
 10
301.6939018342987
 20
142.9449354026318
 10
301.8413519210674
 20
142.8915364226104
 10
301.9443602760765
 20
142.7854274816648
 10
302.0473686310854
 20
142.6793185407191
 10
302.0990450633641
 20
142.5156765051697
 10
302.0990450633641
 20
142.2948458845652
 10
302.0990450633641
 20
142.2948458845652
 10
302.0990450633641
 20
140.9677951036469
 10
302.0990450633641
 20
140.9677951036469
 10
302.0990450633641
 20
140.9677951036469
 10
301.7731390304595
 20
140.9677951036469
 10
301.7731390304595
 20
140.9677951036469
 10
301.7731390304595
 20
140.9677951036469
 10
301.7731390304595
 20
142.1856363576828
 10
301.7731390304595
 20
142.1856363576828
 10
301.7731390304595
 20
142.3168944956708
 10
301.7628037440037
 20
142.4109456024181
 10
301.7414441519952
 20
142.4688232065703
 10
301.7200845599867
 20
142.526356301174
 10
301.6814994905519
 20
142.5728650902248
 10
301.6256889436908
 20
142.6080050641744
 10
301.5698783968298
 20
142.6431450381239
 10
301.50442158261
 20
142.6607150250987
 10
301.4293185010316
 20
142.6607150250987
 10
301.2932372293642
 20
142.6607150250987
 10
301.1805826069966
 20
142.6155842742419
 10
301.0906656148315
 20
142.5253227725284
 10
301.0007486226665
 20
142.4347167612663
 10
300.9559623813582
 20
142.2900227508858
 10
300.9559623813582
 20
142.0908962318384
 10
300.9559623813582
 20
142.0908962318384
 10
300.9559623813582
 20
140.9677951036469
 10
300.9559623813582
 20
140.9677951036469
 10
300.9559623813582
 20
140.9677951036469
 10
300.6279892911625
 20
140.9677951036469
 10
300.6279892911625
 20
140.9677951036469
 10
300.6279892911625
 20
140.9677951036469
 10
300.6279892911625
 20
142.223876917569
 10
300.6279892911625
 20
142.223876917569
 10
300.6279892911625
 20
142.3696044565951
 10
300.601462055926
 20
142.4788139834775
 10
300.5480630759047
 20
142.5515054982163
 10
300.4946640958833
 20
142.6245415225036
 10
300.4075031801065
 20
142.6607150250987
 10
300.2858913094772
 20
142.6607150250987
 10
300.193907260021
 20
142.6607150250987
 10
300.1084688919868
 20
142.636599356702
 10
300.0302652244716
 20
142.5880235103599
 10
299.9520615569564
 20
142.5394476640179
 10
299.8952174814498
 20
142.4684786970218
 10
299.8597329979518
 20
142.3751166093715
 10
299.8245930240022
 20
142.2814100121727
 10
299.807367546576
 20
142.1467067786994
 10
299.807367546576
 20
141.9710069089517
 10
299.807367546576
 20
141.9710069089517
 10
299.807367546576
 20
140.9677951036469
 10
299.807367546576
 20
140.9677951036469
 10
299.807367546576
 20
140.9677951036469
 10
299.4793944563802
 20
140.9677951036469
 10
299.4793944563802
 20
140.9677951036469
 97
        0
 75
     2
 76
     1
 98
        0
  0
SPLINE
  5
9A
330
7D
100
AcDbEntity
  8
DEFPOINTS
370
     0
100
AcDbSpline
210
0.0
220
0.0
230
1.0
 70
    11
 71
     3
 72
    86
 73
    82
 74
     0
 42
0.0000000001
 43
0.0000000001
 12
1.0
 22
0.0
 32
0.0
 13
1.0
 23
0.0
 33
0.0
 40
0.0
 40
0.0
 40
0.0
 40
0.0
 40
1.0
 40
1.0
 40
1.0
 40
2.0
 40
2.0
 40
2.0
 40
3.0
 40
3.0
 40
3.0
 40
4.0
 40
4.0
 40
4.0
 40
5.0
 40
5.0
 40
5.0
 40
6.0
 40
6.0
 40
6.0
 40
7.0
 40
7.0
 40
7.0
 40
8.0
 40
8.0
 40
8.0
 40
9.0
 40
9.0
 40
9.0
 40
10.0
 40
10.0
 40
10.0
 40
11.0
 40
11.0
 40
11.0
 40
12.0
 40
12.0
 40
12.0
 40
13.0
 40
13.0
 40
13.0
 40
14.0
 40
14.0
 40
14.0
 40
15.0
 40
15.0
 40
15.0
 40
16.0
 40
16.0
 40
16.0
 40
17.0
 40
17.0
 40
17.0
 40
18.0
 40
18.0
 40
18.0
 40
19.0
 40
19.0
 40
19.0
 40
20.0
 40
20.0
 40
20.0
 40
21.0
 40
21.0
 40
21.0
 40
22.0
 40
22.0
 40
22.0
 40
23.0
 40
23.0
 40
23.0
 40
24.0
 40
24.0
 40
24.0
 40
25.0
 40
25.0
 40
25.0
 40
26.0
 40
26.0
 40
26.0
 40
27.0
 40
27.0
 40
27.0
 40
27.0
 10
303.8463974934829
 20
141.2061957112262
 30
0.0
 10
303.7251301324021
 20
141.1031873562173
 30
0.0
 10
303.6086859050006
 20
141.03015133193
 30
0.0
 10
303.4963757921815
 20
140.9877766574614
 30
0.0
 10
303.3840656793623
 20
140.9454019829928
 30
0.0
 10
303.2634873373786
 20
140.9240423909843
 30
0.0
 10
303.1346407662302
 20
140.9240423909843
 30
0.0
 10
302.9224228843389
 20
140.9240423909843
 30
0.0
 10
302.759125358338
 20
140.9760633328115
 30
0.0
 10
302.6450926977762
 20
141.0797607069176
 30
0.0
 10
302.5310600372144
 20
141.1834580810236
 30
0.0
 10
302.4738714521593
 20
141.3160942572057
 30
0.0
 10
302.4738714521593
 20
141.4776692354639
 30
0.0
 10
302.4738714521593
 20
141.5720648517598
 30
0.0
 10
302.4955755537164
 20
141.6585367484395
 30
0.0
 10
302.538639247282
 20
141.7370849255032
 30
0.0
 10
302.5817029408477
 20
141.8152885930184
 30
0.0
 10
302.6382025068057
 20
141.8779893308499
 30
0.0
 10
302.7081379451563
 20
141.9251871389979
 30
0.0
 10
302.7777288739584
 20
141.9727294566943
 30
0.0
 10
302.8562770510221
 20
142.0085584497409
 30
0.0
 10
302.9437824763474
 20
142.0326741181377
 30
0.0
 10
303.0078612523731
 20
142.0495550860154
 30
0.0
 10
303.1050129450571
 20
142.0660915443446
 30
0.0
 10
303.2352375543995
 20
142.0819389835767
 30
0.0
 10
303.4994763781182
 20
142.1132893524925
 30
0.0
 10
303.6941242730348
 20
142.1511854028303
 30
0.0
 10
303.8195257486979
 20
142.1945936059444
 30
0.0
 10
303.8205592773435
 20
142.2397243568012
 30
0.0
 10
303.8212482964406
 20
142.2683186493288
 30
0.0
 10
303.8212482964406
 20
142.2803764835271
 30
0.0
 10
303.8212482964406
 20
142.4137016788063
 30
0.0
 10
303.7902424370733
 20
142.5077527855536
 30
0.0
 10
303.7285752278873
 20
142.5625298037691
 30
0.0
 10
303.6445148980472
 20
142.636599356702
 30
0.0
 10
303.5201469510297
 20
142.6734618783941
 30
0.0
 10
303.3551268772862
 20
142.6734618783941
 30
0.0
 10
303.200786599547
 20
142.6734618783941
 30
0.0
 10
303.0870984485338
 20
142.6465901336092
 30
0.0
 10
303.0140624242465
 20
142.5925021344908
 30
0.0
 10
302.9403373808622
 20
142.5384141353723
 30
0.0
 10
302.8859048721952
 20
142.4429849904309
 30
0.0
 10
302.8507648982456
 20
142.305870190118
 30
0.0
 10
302.8507648982456
 20
142.305870190118
 30
0.0
 10
302.5303710181174
 20
142.3496229027807
 30
0.0
 10
302.5303710181174
 20
142.3496229027807
 30
0.0
 10
302.559654329742
 20
142.4867377030936
 30
0.0
 10
302.607541156987
 20
142.5973252681701
 30
0.0
 10
302.6743760094009
 20
142.6817301075587
 30
0.0
 10
302.7412108618147
 20
142.7661349469474
 30
0.0
 10
302.8376735354017
 20
142.8309027420701
 30
0.0
 10
302.9637640301618
 20
142.8763780024753
 30
0.0
 10
303.089854524922
 20
142.9218532628807
 30
0.0
 10
303.2359265734966
 20
142.9449354026318
 30
0.0
 10
303.4026691949827
 20
142.9449354026318
 30
0.0
 10
303.5673447591776
 20
142.9449354026318
 30
0.0
 10
303.7017034831024
 20
142.9252983583659
 30
0.0
 10
303.8047118381114
 20
142.8863687793826
 30
0.0
 10
303.9077201931203
 20
142.8477837099478
 30
0.0
 10
303.9838568033443
 20
142.7988633540572
 30
0.0
 10
304.0324326496864
 20
142.7399522212595
 30
0.0
 10
304.0806639864799
 20
142.6810410884617
 30
0.0
 10
304.1147704317838
 20
142.6066270259803
 30
0.0
 10
304.1344074760498
 20
142.5170545433638
 30
0.0
 10
304.1454317816026
 20
142.4612439965028
 30
0.0
 10
304.1505994248304
 20
142.3603026987849
 30
0.0
 10
304.1505994248304
 20
142.2149196693074
 30
0.0
 10
304.1505994248304
 20
142.2149196693074
 30
0.0
 10
304.1505994248304
 20
141.7777370522292
 30
0.0
 10
304.1505994248304
 20
141.7777370522292
 30
0.0
 10
304.1505994248304
 20
141.4731906113331
 30
0.0
 10
304.1578341253494
 20
141.2806097737076
 30
0.0
 10
304.1716145072904
 20
141.1999945393528
 30
0.0
 10
304.1853948892314
 20
141.1190347954494
 30
0.0
 10
304.2129556531135
 20
141.0418646565798
 30
0.0
 10
304.2542967989364
 20
140.9677951036469
 30
0.0
 10
304.2542967989364
 20
140.9677951036469
 30
0.0
 10
303.9121988172511
 20
140.9677951036469
 30
0.0
 10
303.9121988172511
 20
140.9677951036469
 30
0.0
 10
303.8780923719472
 20
141.0356634847064
 30
0.0
 10
303.8563882703901
 20
141.1152451904156
 30
0.0
 10
303.8463974934829
 20
141.2061957112262
 30
0.0
  0
SPLINE
  5
9B
330
7D
100
AcDbEntity
  8
DEFPOINTS
370
     0
100
AcDbSpline
210
0.0
220
0.0
230
1.0
 70
    11
 71
     3
 72
    35
 73
    31
 74
     0
 42
0.0000000001
 43
0.0000000001
 12
1.0
 22
0.0
 32
0.0
 13
1.0
 23
0.0
 33
0.0
 40
0.0
 40
0.0
 40
0.0
 40
0.0
 40
1.0
 40
1.0
 40
1.0
 40
2.0
 40
2.0
 40
2.0
 40
3.0
 40
3.0
 40
3.0
 40
4.0
 40
4.0
 40
4.0
 40
5.0
 40
5.0
 40
5.0
 40
6.0
 40
6.0
 40
6.0
 40
7.0
 40
7.0
 40
7.0
 40
8.0
 40
8.0
 40
8.0
 40
9.0
 40
9.0
 40
9.0
 40
10.0
 40
10.0
 40
10.0
 40
10.0
 10
303.8195257486979
 20
141.9379339922933
 30
0.0
 10
303.7003254449083
 20
141.8893581459513
 30
0.0
 10
303.5218694987723
 20
141.8483615096768
 30
0.0
 10
303.2841579102901
 20
141.8142550643728
 30
0.0
 10
303.1494546768168
 20
141.7949625296554
 30
0.0
 10
303.0540255318754
 20
141.7729139185498
 30
0.0
 10
302.9982149850143
 20
141.7487982501531
 30
0.0
 10
302.9424044381533
 20
141.7243380722078
 30
0.0
 10
302.8993407445877
 20
141.6888535887097
 30
0.0
 10
302.8690239043175
 20
141.6423447996589
 30
0.0
 10
302.8387070640473
 20
141.5954915010595
 30
0.0
 10
302.8235486439122
 20
141.5438150687807
 30
0.0
 10
302.8235486439122
 20
141.4866264837256
 30
0.0
 10
302.8235486439122
 20
141.3991210584002
 30
0.0
 10
302.8566215605706
 20
141.3264295436614
 30
0.0
 10
302.9227673938874
 20
141.2682074299607
 30
0.0
 10
302.9889132272042
 20
141.20998531626
 30
0.0
 10
303.0857204103397
 20
141.1807020046354
 30
0.0
 10
303.2131889432939
 20
141.1807020046354
 30
0.0
 10
303.3392794380541
 20
141.1807020046354
 30
0.0
 10
303.4515895508732
 20
141.2082627685174
 30
0.0
 10
303.5501192817514
 20
141.2637288058299
 30
0.0
 10
303.648304503081
 20
141.3188503335939
 30
0.0
 10
303.7203069987227
 20
141.3942979247209
 30
0.0
 10
303.7664712782251
 20
141.4904160887594
 30
0.0
 10
303.8016112521746
 20
141.5641411321437
 30
0.0
 10
303.8195257486979
 20
141.6733506590261
 30
0.0
 10
303.8195257486979
 20
141.8180446694066
 30
0.0
 10
303.8195257486979
 20
141.8180446694066
 30
0.0
 10
303.8195257486979
 20
141.9379339922933
 30
0.0
 10
303.8195257486979
 20
141.9379339922933
 30
0.0
  0
HATCH
  5
9C
330
7D
100
AcDbEntity
  8
DEFPOINTS
 62
     7
100
AcDbHatch
 10
0.0
 20
0.0
 30
0.0
210
0.0
220
0.0
230
1.0
  2
SOLID
 70
     1
 71
     0
 91
        2
 92
        1
 93
        1
 72
     4
 94
        3
 73
     0
 74
     1
 95
       86
 96
       82
 40
0.0
 40
0.0
 40
0.0
 40
0.0
 40
1.0
 40
1.0
 40
1.0
 40
2.0
 40
2.0
 40
2.0
 40
3.0
 40
3.0
 40
3.0
 40
4.0
 40
4.0
 40
4.0
 40
5.0
 40
5.0
 40
5.0
 40
6.0
 40
6.0
 40
6.0
 40
7.0
 40
7.0
 40
7.0
 40
8.0
 40
8.0
 40
8.0
 40
9.0
 40
9.0
 40
9.0
 40
10.0
 40
10.0
 40
10.0
 40
11.0
 40
11.0
 40
11.0
 40
12.0
 40
12.0
 40
12.0
 40
13.0
 40
13.0
 40
13.0
 40
14.0
 40
14.0
 40
14.0
 40
15.0
 40
15.0
 40
15.0
 40
16.0
 40
16.0
 40
16.0
 40
17.0
 40
17.0
 40
17.0
 40
18.0
 40
18.0
 40
18.0
 40
19.0
 40
19.0
 40
19.0
 40
20.0
 40
20.0
 40
20.0
 40
21.0
 40
21.0
 40
21.0
 40
22.0
 40
22.0
 40
22.0
 40
23.0
 40
23.0
 40
23.0
 40
24.0
 40
24.0
 40
24.0
 40
25.0
 40
25.0
 40
25.0
 40
26.0
 40
26.0
 40
26.0
 40
27.0
 40
27.0
 40
27.0
 40
27.0
 10
303.8463974934829
 20
141.2061957112262
 10
303.7251301324021
 20
141.1031873562173
 10
303.6086859050006
 20
141.03015133193
 10
303.4963757921815
 20
140.9877766574614
 10
303.3840656793623
 20
140.9454019829928
 10
303.2634873373786
 20
140.9240423909843
 10
303.1346407662302
 20
140.9240423909843
 10
302.9224228843389
 20
140.9240423909843
 10
302.759125358338
 20
140.9760633328115
 10
302.6450926977762
 20
141.0797607069176
 10
302.5310600372144
 20
141.1834580810236
 10
302.4738714521593
 20
141.3160942572057
 10
302.4738714521593
 20
141.4776692354639
 10
302.4738714521593
 20
141.5720648517598
 10
302.4955755537164
 20
141.6585367484395
 10
302.538639247282
 20
141.7370849255032
 10
302.5817029408477
 20
141.8152885930184
 10
302.6382025068057
 20
141.8779893308499
 10
302.7081379451563
 20
141.9251871389979
 10
302.7777288739584
 20
141.9727294566943
 10
302.8562770510221
 20
142.0085584497409
 10
302.9437824763474
 20
142.0326741181377
 10
303.0078612523731
 20
142.0495550860154
 10
303.1050129450571
 20
142.0660915443446
 10
303.2352375543995
 20
142.0819389835767
 10
303.4994763781182
 20
142.1132893524925
 10
303.6941242730348
 20
142.1511854028303
 10
303.8195257486979
 20
142.1945936059444
 10
303.8205592773435
 20
142.2397243568012
 10
303.8212482964406
 20
142.2683186493288
 10
303.8212482964406
 20
142.2803764835271
 10
303.8212482964406
 20
142.4137016788063
 10
303.7902424370733
 20
142.5077527855536
 10
303.7285752278873
 20
142.5625298037691
 10
303.6445148980472
 20
142.636599356702
 10
303.5201469510297
 20
142.6734618783941
 10
303.3551268772862
 20
142.6734618783941
 10
303.200786599547
 20
142.6734618783941
 10
303.0870984485338
 20
142.6465901336092
 10
303.0140624242465
 20
142.5925021344908
 10
302.9403373808622
 20
142.5384141353723
 10
302.8859048721952
 20
142.4429849904309
 10
302.8507648982456
 20
142.305870190118
 10
302.8507648982456
 20
142.305870190118
 10
302.5303710181174
 20
142.3496229027807
 10
302.5303710181174
 20
142.3496229027807
 10
302.559654329742
 20
142.4867377030936
 10
302.607541156987
 20
142.5973252681701
 10
302.6743760094009
 20
142.6817301075587
 10
302.7412108618147
 20
142.7661349469474
 10
302.8376735354017
 20
142.8309027420701
 10
302.9637640301618
 20
142.8763780024753
 10
303.089854524922
 20
142.9218532628807
 10
303.2359265734966
 20
142.9449354026318
 10
303.4026691949827
 20
142.9449354026318
 10
303.5673447591776
 20
142.9449354026318
 10
303.7017034831024
 20
142.9252983583659
 10
303.8047118381114
 20
142.8863687793826
 10
303.9077201931203
 20
142.8477837099478
 10
303.9838568033443
 20
142.7988633540572
 10
304.0324326496864
 20
142.7399522212595
 10
304.0806639864799
 20
142.6810410884617
 10
304.1147704317838
 20
142.6066270259803
 10
304.1344074760498
 20
142.5170545433638
 10
304.1454317816026
 20
142.4612439965028
 10
304.1505994248304
 20
142.3603026987849
 10
304.1505994248304
 20
142.2149196693074
 10
304.1505994248304
 20
142.2149196693074
 10
304.1505994248304
 20
141.7777370522292
 10
304.1505994248304
 20
141.7777370522292
 10
304.1505994248304
 20
141.4731906113331
 10
304.1578341253494
 20
141.2806097737076
 10
304.1716145072904
 20
141.1999945393528
 10
304.1853948892314
 20
141.1190347954494
 10
304.2129556531135
 20
141.0418646565798
 10
304.2542967989364
 20
140.9677951036469
 10
304.2542967989364
 20
140.9677951036469
 10
303.9121988172511
 20
140.9677951036469
 10
303.9121988172511
 20
140.9677951036469
 10
303.8780923719472
 20
141.0356634847064
 10
303.8563882703901
 20
141.1152451904156
 10
303.8463974934829
 20
141.2061957112262
 97
        0
 92
        1
 93
        1
 72
     4
 94
        3
 73
     0
 74
     1
 95
       35
 96
       31
 40
0.0
 40
0.0
 40
0.0
 40
0.0
 40
1.0
 40
1.0
 40
1.0
 40
2.0
 40
2.0
 40
2.0
 40
3.0
 40
3.0
 40
3.0
 40
4.0
 40
4.0
 40
4.0
 40
5.0
 40
5.0
 40
5.0
 40
6.0
 40
6.0
 40
6.0
 40
7.0
 40
7.0
 40
7.0
 40
8.0
 40
8.0
 40
8.0
 40
9.0
 40
9.0
 40
9.0
 40
10.0
 40
10.0
 40
10.0
 40
10.0
 10
303.8195257486979
 20
141.9379339922933
 10
303.7003254449083
 20
141.8893581459513
 10
303.5218694987723
 20
141.8483615096768
 10
303.2841579102901
 20
141.8142550643728
 10
303.1494546768168
 20
141.7949625296554
 10
303.0540255318754
 20
141.7729139185498
 10
302.9982149850143
 20
141.7487982501531
 10
302.9424044381533
 20
141.7243380722078
 10
302.8993407445877
 20
141.6888535887097
 10
302.8690239043175
 20
141.6423447996589
 10
302.8387070640473
 20
141.5954915010595
 10
302.8235486439122
 20
141.5438150687807
 10
302.8235486439122
 20
141.4866264837256
 10
302.8235486439122
 20
141.3991210584002
 10
302.8566215605706
 20
141.3264295436614
 10
302.9227673938874
 20
141.2682074299607
 10
302.9889132272042
 20
141.20998531626
 10
303.0857204103397
 20
141.1807020046354
 10
303.2131889432939
 20
141.1807020046354
 10
303.3392794380541
 20
141.1807020046354
 10
303.4515895508732
 20
141.2082627685174
 10
303.5501192817514
 20
141.2637288058299
 10
303.648304503081
 20
141.3188503335939
 10
303.7203069987227
 20
141.3942979247209
 10
303.7664712782251
 20
141.4904160887594
 10
303.8016112521746
 20
141.5641411321437
 10
303.8195257486979
 20
141.6733506590261
 10
303.8195257486979
 20
141.8180446694066
 10
303.8195257486979
 20
141.8180446694066
 10
303.8195257486979
 20
141.9379339922933
 10
303.8195257486979
 20
141.9379339922933
 97
        0
 75
     2
 76
     1
 98
        0
  0
SPLINE
  5
9D
330
7D
100
AcDbEntity
  8
DEFPOINTS
370
     0
100
AcDbSpline
210
0.0
220
0.0
230
1.0
 70
    11
 71
     3
 72
    50
 73
    46
 74
     0
 42
0.0000000001
 43
0.0000000001
 12
1.0
 22
0.0
 32
0.0
 13
1.0
 23
0.0
 33
0.0
 40
0.0
 40
0.0
 40
0.0
 40
0.0
 40
1.0
 40
1.0
 40
1.0
 40
2.0
 40
2.0
 40
2.0
 40
3.0
 40
3.0
 40
3.0
 40
4.0
 40
4.0
 40
4.0
 40
5.0
 40
5.0
 40
5.0
 40
6.0
 40
6.0
 40
6.0
 40
7.0
 40
7.0
 40
7.0
 40
8.0
 40
8.0
 40
8.0
 40
9.0
 40
9.0
 40
9.0
 40
10.0
 40
10.0
 40
10.0
 40
11.0
 40
11.0
 40
11.0
 40
12.0
 40
12.0
 40
12.0
 40
13.0
 40
13.0
 40
13.0
 40
14.0
 40
14.0
 40
14.0
 40
15.0
 40
15.0
 40
15.0
 40
15.0
 10
304.4403319551399
 20
140.9677951036469
 30
0.0
 10
304.4403319551399
 20
140.9677951036469
 30
0.0
 10
305.1465765296161
 20
141.9727294566943
 30
0.0
 10
305.1465765296161
 20
141.9727294566943
 30
0.0
 10
305.1465765296161
 20
141.9727294566943
 30
0.0
 10
304.4926974065157
 20
142.9011826899691
 30
0.0
 10
304.4926974065157
 20
142.9011826899691
 30
0.0
 10
304.4926974065157
 20
142.9011826899691
 30
0.0
 10
304.9026637692605
 20
142.9011826899691
 30
0.0
 10
304.9026637692605
 20
142.9011826899691
 30
0.0
 10
304.9026637692605
 20
142.9011826899691
 30
0.0
 10
305.1989419809919
 20
142.4478081241103
 30
0.0
 10
305.1989419809919
 20
142.4478081241103
 30
0.0
 10
305.254752527853
 20
142.361680736979
 30
0.0
 10
305.2998832787098
 20
142.2893337317888
 30
0.0
 10
305.3339897240137
 20
142.2311116180881
 30
0.0
 10
305.3870441944866
 20
142.3113823428944
 30
0.0
 10
305.4366535694742
 20
142.3823513098905
 30
0.0
 10
305.4814398107824
 20
142.4440185190765
 30
0.0
 10
305.4814398107824
 20
142.4440185190765
 30
0.0
 10
305.8073458436871
 20
142.9011826899691
 30
0.0
 10
305.8073458436871
 20
142.9011826899691
 30
0.0
 10
305.8073458436871
 20
142.9011826899691
 30
0.0
 10
306.1987086908114
 20
142.9011826899691
 30
0.0
 10
306.1987086908114
 20
142.9011826899691
 30
0.0
 10
306.1987086908114
 20
142.9011826899691
 30
0.0
 10
305.530360166673
 20
141.9909884627662
 30
0.0
 10
305.530360166673
 20
141.9909884627662
 30
0.0
 10
305.530360166673
 20
141.9909884627662
 30
0.0
 10
306.2496961039931
 20
140.9677951036469
 30
0.0
 10
306.2496961039931
 20
140.9677951036469
 30
0.0
 10
306.2496961039931
 20
140.9677951036469
 30
0.0
 10
305.8473089513159
 20
140.9677951036469
 30
0.0
 10
305.8473089513159
 20
140.9677951036469
 30
0.0
 10
305.8473089513159
 20
140.9677951036469
 30
0.0
 10
305.4504339514152
 20
141.5686197562745
 30
0.0
 10
305.4504339514152
 20
141.5686197562745
 30
0.0
 10
305.4504339514152
 20
141.5686197562745
 30
0.0
 10
305.3450140295665
 20
141.7305392440813
 30
0.0
 10
305.3450140295665
 20
141.7305392440813
 30
0.0
 10
305.3450140295665
 20
141.7305392440813
 30
0.0
 10
304.8368624454922
 20
140.9677951036469
 30
0.0
 10
304.8368624454922
 20
140.9677951036469
 30
0.0
 10
304.8368624454922
 20
140.9677951036469
 30
0.0
 10
304.4403319551399
 20
140.9677951036469
 30
0.0
 10
304.4403319551399
 20
140.9677951036469
 30
0.0
  0
HATCH
  5
9E
330
7D
100
AcDbEntity
  8
DEFPOINTS
 62
     7
100
AcDbHatch
 10
0.0
 20
0.0
 30
0.0
210
0.0
220
0.0
230
1.0
  2
SOLID
 70
     1
 71
     0
 91
        1
 92
        1
 93
        1
 72
     4
 94
        3
 73
     0
 74
     1
 95
       50
 96
       46
 40
0.0
 40
0.0
 40
0.0
 40
0.0
 40
1.0
 40
1.0
 40
1.0
 40
2.0
 40
2.0
 40
2.0
 40
3.0
 40
3.0
 40
3.0
 40
4.0
 40
4.0
 40
4.0
 40
5.0
 40
5.0
 40
5.0
 40
6.0
 40
6.0
 40
6.0
 40
7.0
 40
7.0
 40
7.0
 40
8.0
 40
8.0
 40
8.0
 40
9.0
 40
9.0
 40
9.0
 40
10.0
 40
10.0
 40
10.0
 40
11.0
 40
11.0
 40
11.0
 40
12.0
 40
12.0
 40
12.0
 40
13.0
 40
13.0
 40
13.0
 40
14.0
 40
14.0
 40
14.0
 40
15.0
 40
15.0
 40
15.0
 40
15.0
 10
304.4403319551399
 20
140.9677951036469
 10
304.4403319551399
 20
140.9677951036469
 10
305.1465765296161
 20
141.9727294566943
 10
305.1465765296161
 20
141.9727294566943
 10
305.1465765296161
 20
141.9727294566943
 10
304.4926974065157
 20
142.9011826899691
 10
304.4926974065157
 20
142.9011826899691
 10
304.4926974065157
 20
142.9011826899691
 10
304.9026637692605
 20
142.9011826899691
 10
304.9026637692605
 20
142.9011826899691
 10
304.9026637692605
 20
142.9011826899691
 10
305.1989419809919
 20
142.4478081241103
 10
305.1989419809919
 20
142.4478081241103
 10
305.254752527853
 20
142.361680736979
 10
305.2998832787098
 20
142.2893337317888
 10
305.3339897240137
 20
142.2311116180881
 10
305.3870441944866
 20
142.3113823428944
 10
305.4366535694742
 20
142.3823513098905
 10
305.4814398107824
 20
142.4440185190765
 10
305.4814398107824
 20
142.4440185190765
 10
305.8073458436871
 20
142.9011826899691
 10
305.8073458436871
 20
142.9011826899691
 10
305.8073458436871
 20
142.9011826899691
 10
306.1987086908114
 20
142.9011826899691
 10
306.1987086908114
 20
142.9011826899691
 10
306.1987086908114
 20
142.9011826899691
 10
305.530360166673
 20
141.9909884627662
 10
305.530360166673
 20
141.9909884627662
 10
305.530360166673
 20
141.9909884627662
 10
306.2496961039931
 20
140.9677951036469
 10
306.2496961039931
 20
140.9677951036469
 10
306.2496961039931
 20
140.9677951036469
 10
305.8473089513159
 20
140.9677951036469
 10
305.8473089513159
 20
140.9677951036469
 10
305.8473089513159
 20
140.9677951036469
 10
305.4504339514152
 20
141.5686197562745
 10
305.4504339514152
 20
141.5686197562745
 10
305.4504339514152
 20
141.5686197562745
 10
305.3450140295665
 20
141.7305392440813
 10
305.3450140295665
 20
141.7305392440813
 10
305.3450140295665
 20
141.7305392440813
 10
304.8368624454922
 20
140.9677951036469
 10
304.8368624454922
 20
140.9677951036469
 10
304.8368624454922
 20
140.9677951036469
 10
304.4403319551399
 20
140.9677951036469
 10
304.4403319551399
 20
140.9677951036469
 97
        0
 75
     2
 76
     1
 98
        0
  0
SPLINE
  5
9F
330
7D
100
AcDbEntity
  8
DEFPOINTS
370
     0
100
AcDbSpline
210
0.0
220
0.0
230
1.0
 70
    11
 71
     3
 72
    35
 73
    31
 74
     0
 42
0.0000000001
 43
0.0000000001
 12
1.0
 22
0.0
 32
0.0
 13
1.0
 23
0.0
 33
0.0
 40
0.0
 40
0.0
 40
0.0
 40
0.0
 40
1.0
 40
1.0
 40
1.0
 40
2.0
 40
2.0
 40
2.0
 40
3.0
 40
3.0
 40
3.0
 40
4.0
 40
4.0
 40
4.0
 40
5.0
 40
5.0
 40
5.0
 40
6.0
 40
6.0
 40
6.0
 40
7.0
 40
7.0
 40
7.0
 40
8.0
 40
8.0
 40
8.0
 40
9.0
 40
9.0
 40
9.0
 40
10.0
 40
10.0
 40
10.0
 40
10.0
 10
306.7375216247045
 20
140.1833468616556
 30
0.0
 10
306.7375216247045
 20
140.1833468616556
 30
0.0
 10
306.5025661126105
 20
140.1833468616556
 30
0.0
 10
306.5025661126105
 20
140.1833468616556
 30
0.0
 10
306.8656791767558
 20
140.7655679986628
 30
0.0
 10
307.04689119928
 20
141.3488226643156
 30
0.0
 10
307.04689119928
 20
141.9327663490654
 30
0.0
 10
307.04689119928
 20
142.160831670189
 30
0.0
 10
307.020708473592
 20
142.3871744435699
 30
0.0
 10
306.9686875317648
 20
142.6117946692082
 30
0.0
 10
306.9273463859418
 20
142.7936957108294
 30
0.0
 10
306.8698132913381
 20
142.9683620519315
 30
0.0
 10
306.7957437384052
 20
143.1357936925147
 30
0.0
 10
306.7485459302573
 20
143.2450032193971
 30
0.0
 10
306.6507052184762
 20
143.4272487705668
 30
0.0
 10
306.5025661126105
 20
143.6821858364753
 30
0.0
 10
306.5025661126105
 20
143.6821858364753
 30
0.0
 10
306.7375216247045
 20
143.6821858364753
 30
0.0
 10
306.7375216247045
 20
143.6821858364753
 30
0.0
 10
306.9655869458281
 20
143.3772948860307
 30
0.0
 10
307.1343966246053
 20
143.071714916489
 30
0.0
 10
307.2436061514877
 20
142.7644123992047
 30
0.0
 10
307.336968239138
 20
142.4998290659375
 30
0.0
 10
307.3838215377374
 20
142.223187898472
 30
0.0
 10
307.3838215377374
 20
141.9344888968081
 30
0.0
 10
307.3838215377374
 20
141.6068603161608
 30
0.0
 10
307.3211207999058
 20
141.2899115315178
 30
0.0
 10
307.1953748146942
 20
140.9843315619761
 30
0.0
 10
307.0696288294826
 20
140.678407082886
 30
0.0
 10
306.917011099486
 20
140.4114121827791
 30
0.0
 10
306.7375216247045
 20
140.1833468616556
 30
0.0
  0
HATCH
  5
A0
330
7D
100
AcDbEntity
  8
DEFPOINTS
 62
     7
100
AcDbHatch
 10
0.0
 20
0.0
 30
0.0
210
0.0
220
0.0
230
1.0
  2
SOLID
 70
     1
 71
     0
 91
        1
 92
        1
 93
        1
 72
     4
 94
        3
 73
     0
 74
     1
 95
       35
 96
       31
 40
0.0
 40
0.0
 40
0.0
 40
0.0
 40
1.0
 40
1.0
 40
1.0
 40
2.0
 40
2.0
 40
2.0
 40
3.0
 40
3.0
 40
3.0
 40
4.0
 40
4.0
 40
4.0
 40
5.0
 40
5.0
 40
5.0
 40
6.0
 40
6.0
 40
6.0
 40
7.0
 40
7.0
 40
7.0
 40
8.0
 40
8.0
 40
8.0
 40
9.0
 40
9.0
 40
9.0
 40
10.0
 40
10.0
 40
10.0
 40
10.0
 10
306.7375216247045
 20
140.1833468616556
 10
306.7375216247045
 20
140.1833468616556
 10
306.5025661126105
 20
140.1833468616556
 10
306.5025661126105
 20
140.1833468616556
 10
306.8656791767558
 20
140.7655679986628
 10
307.04689119928
 20
141.3488226643156
 10
307.04689119928
 20
141.9327663490654
 10
307.04689119928
 20
142.160831670189
 10
307.020708473592
 20
142.3871744435699
 10
306.9686875317648
 20
142.6117946692082
 10
306.9273463859418
 20
142.7936957108294
 10
306.8698132913381
 20
142.9683620519315
 10
306.7957437384052
 20
143.1357936925147
 10
306.7485459302573
 20
143.2450032193971
 10
306.6507052184762
 20
143.4272487705668
 10
306.5025661126105
 20
143.6821858364753
 10
306.5025661126105
 20
143.6821858364753
 10
306.7375216247045
 20
143.6821858364753
 10
306.7375216247045
 20
143.6821858364753
 10
306.9655869458281
 20
143.3772948860307
 10
307.1343966246053
 20
143.071714916489
 10
307.2436061514877
 20
142.7644123992047
 10
307.336968239138
 20
142.4998290659375
 10
307.3838215377374
 20
142.223187898472
 10
307.3838215377374
 20
141.9344888968081
 10
307.3838215377374
 20
141.6068603161608
 10
307.3211207999058
 20
141.2899115315178
 10
307.1953748146942
 20
140.9843315619761
 10
307.0696288294826
 20
140.678407082886
 10
306.917011099486
 20
140.4114121827791
 10
306.7375216247045
 20
140.1833468616556
 97
        0
 75
     2
 76
     1
 98
        0
  0
ENDBLK
  5
80
330
7D
100
AcDbEntity
  8
0
100
AcDbBlockEnd
  0
BLOCK
  5
A3
330
A1
100
AcDbEntity
  8
0
100
AcDbBlockBegin
  2
block 12
 70
     0
 10
0.0
 20
0.0
 30
0.0
  3
block 12
  1

  0
INSERT
  5
A6
330
A1
100
AcDbEntity
  8
DEFPOINTS
100
AcDbBlockReference
  2
block 13
 10
0.0
 20
0.0
 30
0.0
  0
ENDBLK
  5
A4
330
A1
100
AcDbEntity
  8
0
100
AcDbBlockEnd
  0
BLOCK
  5
A7
330
A5
100
AcDbEntity
  8
0
100
AcDbBlockBegin
  2
block 13
 70
     0
 10
0.0
 20
0.0
 30
0.0
  3
block 13
  1

  0
SPLINE
  5
A9
330
A5
100
AcDbEntity
  8
DEFPOINTS
370
     0
100
AcDbSpline
210
0.0
220
0.0
230
1.0
 70
    11
 71
     3
 72
    95
 73
    91
 74
     0
 42
0.0000000001
 43
0.0000000001
 12
1.0
 22
0.0
 32
0.0
 13
1.0
 23
0.0
 33
0.0
 40
0.0
 40
0.0
 40
0.0
 40
0.0
 40
1.0
 40
1.0
 40
1.0
 40
2.0
 40
2.0
 40
2.0
 40
3.0
 40
3.0
 40
3.0
 40
4.0
 40
4.0
 40
4.0
 40
5.0
 40
5.0
 40
5.0
 40
6.0
 40
6.0
 40
6.0
 40
7.0
 40
7.0
 40
7.0
 40
8.0
 40
8.0
 40
8.0
 40
9.0
 40
9.0
 40
9.0
 40
10.0
 40
10.0
 40
10.0
 40
11.0
 40
11.0
 40
11.0
 40
12.0
 40
12.0
 40
12.0
 40
13.0
 40
13.0
 40
13.0
 40
14.0
 40
14.0
 40
14.0
 40
15.0
 40
15.0
 40
15.0
 40
16.0
 40
16.0
 40
16.0
 40
17.0
 40
17.0
 40
17.0
 40
18.0
 40
18.0
 40
18.0
 40
19.0
 40
19.0
 40
19.0
 40
20.0
 40
20.0
 40
20.0
 40
21.0
 40
21.0
 40
21.0
 40
22.0
 40
22.0
 40
22.0
 40
23.0
 40
23.0
 40
23.0
 40
24.0
 40
24.0
 40
24.0
 40
25.0
 40
25.0
 40
25.0
 40
26.0
 40
26.0
 40
26.0
 40
27.0
 40
27.0
 40
27.0
 40
28.0
 40
28.0
 40
28.0
 40
29.0
 40
29.0
 40
29.0
 40
30.0
 40
30.0
 40
30.0
 40
30.0
 10
297.1184705203385
 20
87.98326006915002
 30
0.0
 10
297.1184705203385
 20
87.98326006915002
 30
0.0
 10
297.4460991009857
 20
88.0270127818127
 30
0.0
 10
297.4460991009857
 20
88.0270127818127
 30
0.0
 10
297.4836506417749
 20
87.84132213515772
 30
0.0
 10
297.5477294178006
 20
87.70730792078152
 30
0.0
 10
297.6383354290626
 20
87.62565915778109
 30
0.0
 10
297.7285969307762
 20
87.54366588523214
 30
0.0
 10
297.8388399863042
 20
87.50266924895767
 30
0.0
 10
297.9687200860981
 20
87.50266924895767
 30
0.0
 10
298.1227158542888
 20
87.50266924895767
 30
0.0
 10
298.2529404636312
 20
87.55606822897904
 30
0.0
 10
298.3590494045769
 20
87.66286618902178
 30
0.0
 10
298.4655028550711
 20
87.76966414906454
 30
0.0
 10
298.518557325544
 20
87.90195581569813
 30
0.0
 10
298.518557325544
 20
88.05974118892257
 30
0.0
 10
298.518557325544
 20
88.210291861628
 30
0.0
 10
298.4692924601049
 20
88.33431529909699
 30
0.0
 10
298.3711072387753
 20
88.43181150132955
 30
0.0
 10
298.2725775078972
 20
88.52965221311065
 30
0.0
 10
298.1475205417826
 20
88.5785725690012
 30
0.0
 10
297.9959363404316
 20
88.5785725690012
 30
0.0
 10
297.9339246216971
 20
88.5785725690012
 30
0.0
 10
297.857098992376
 20
88.56651473480282
 30
0.0
 10
297.7647704333713
 20
88.54205455685755
 30
0.0
 10
297.7647704333713
 20
88.54205455685755
 30
0.0
 10
297.801288445515
 20
88.8297200298759
 30
0.0
 10
297.801288445515
 20
88.8297200298759
 30
0.0
 10
297.822992547072
 20
88.82730846303623
 30
0.0
 10
297.8405625340468
 20
88.82593042484213
 30
0.0
 10
297.8539984064393
 20
88.82593042484213
 30
0.0
 10
297.9935247735919
 20
88.82593042484213
 30
0.0
 10
298.1192707588035
 20
88.86244843698579
 30
0.0
 10
298.2308918525256
 20
88.93548446127308
 30
0.0
 10
298.3425129462477
 20
89.00817597601186
 30
0.0
 10
298.3983234931088
 20
89.12048608883099
 30
0.0
 10
298.3983234931088
 20
89.27207029018199
 30
0.0
 10
298.3983234931088
 20
89.3923041226172
 30
0.0
 10
298.3576713663828
 20
89.49186738214092
 30
0.0
 10
298.2763671129309
 20
89.57076006875315
 30
0.0
 10
298.195062859479
 20
89.64965275536537
 30
0.0
 10
298.0899874471789
 20
89.68892684389722
 30
0.0
 10
297.9614853855791
 20
89.68892684389722
 30
0.0
 10
297.8340168526249
 20
89.68892684389722
 30
0.0
 10
297.7279079116792
 20
89.64896373626831
 30
0.0
 10
297.6428140531935
 20
89.568693011462
 30
0.0
 10
297.5577201947078
 20
89.4887667962042
 30
0.0
 10
297.5032876860408
 20
89.36853296376898
 30
0.0
 10
297.4788275080956
 20
89.20833602370486
 30
0.0
 10
297.4788275080956
 20
89.20833602370486
 30
0.0
 10
297.1511989274483
 20
89.26655813740558
 30
0.0
 10
297.1511989274483
 20
89.26655813740558
 30
0.0
 10
297.1915065446257
 20
89.48635522936452
 30
0.0
 10
297.2824570654363
 20
89.65654294633588
 30
0.0
 10
297.4243949994286
 20
89.7771212883196
 30
0.0
 10
297.5663329334209
 20
89.89804413985188
 30
0.0
 10
297.7430663318142
 20
89.95833331084376
 30
0.0
 10
297.9542506850601
 20
89.95833331084376
 30
0.0
 10
298.0996337145376
 20
89.95833331084376
 30
0.0
 10
298.2339924384623
 20
89.92698294192797
 30
0.0
 10
298.3562933281887
 20
89.86462671364495
 30
0.0
 10
298.4789387274636
 20
89.80227048536193
 30
0.0
 10
298.5726453246624
 20
89.71683211732774
 30
0.0
 10
298.6377576293336
 20
89.60900062863942
 30
0.0
 10
298.7025254244563
 20
89.50082463040258
 30
0.0
 10
298.7349093220177
 20
89.38610295074376
 30
0.0
 10
298.7349093220177
 20
89.26483558966297
 30
0.0
 10
298.7349093220177
 20
89.1494248909071
 30
0.0
 10
298.704247972199
 20
89.0446939881555
 30
0.0
 10
298.6422362534644
 20
88.94995386231113
 30
0.0
 10
298.58022453473
 20
88.85521373646675
 30
0.0
 10
298.4885849948223
 20
88.7801106548883
 30
0.0
 10
298.3673176337415
 20
88.72430010802726
 30
0.0
 10
298.5251030069659
 20
88.68778209588362
 30
0.0
 10
298.6477484062409
 20
88.61233450475665
 30
0.0
 10
298.7349093220177
 20
88.49761282509782
 30
0.0
 10
298.822414747343
 20
88.382891145439
 30
0.0
 10
298.8661674600057
 20
88.23923066370409
 30
0.0
 10
298.8661674600057
 20
88.0669758894416
 30
0.0
 10
298.8661674600057
 20
87.8340874346387
 30
0.0
 10
298.78107360152
 20
87.63633895378537
 30
0.0
 10
298.6112303940972
 20
87.47441946597863
 30
0.0
 10
298.4413871866744
 20
87.31249997817189
 30
0.0
 10
298.2264132283948
 20
87.23154023426851
 30
0.0
 10
297.9669975383555
 20
87.23154023426851
 30
0.0
 10
297.7327310453585
 20
87.23154023426851
 30
0.0
 10
297.5380831504419
 20
87.30113116307055
 30
0.0
 10
297.3833983631542
 20
87.44065753022318
 30
0.0
 10
297.2287135758664
 20
87.58018389737579
 30
0.0
 10
297.140519131444
 20
87.76105141035141
 30
0.0
 10
297.1184705203385
 20
87.98326006915002
 30
0.0
  0
HATCH
  5
AA
330
A5
100
AcDbEntity
  8
DEFPOINTS
 62
     7
100
AcDbHatch
 10
0.0
 20
0.0
 30
0.0
210
0.0
220
0.0
230
1.0
  2
SOLID
 70
     1
 71
     0
 91
        1
 92
        1
 93
        1
 72
     4
 94
        3
 73
     0
 74
     1
 95
       95
 96
       91
 40
0.0
 40
0.0
 40
0.0
 40
0.0
 40
1.0
 40
1.0
 40
1.0
 40
2.0
 40
2.0
 40
2.0
 40
3.0
 40
3.0
 40
3.0
 40
4.0
 40
4.0
 40
4.0
 40
5.0
 40
5.0
 40
5.0
 40
6.0
 40
6.0
 40
6.0
 40
7.0
 40
7.0
 40
7.0
 40
8.0
 40
8.0
 40
8.0
 40
9.0
 40
9.0
 40
9.0
 40
10.0
 40
10.0
 40
10.0
 40
11.0
 40
11.0
 40
11.0
 40
12.0
 40
12.0
 40
12.0
 40
13.0
 40
13.0
 40
13.0
 40
14.0
 40
14.0
 40
14.0
 40
15.0
 40
15.0
 40
15.0
 40
16.0
 40
16.0
 40
16.0
 40
17.0
 40
17.0
 40
17.0
 40
18.0
 40
18.0
 40
18.0
 40
19.0
 40
19.0
 40
19.0
 40
20.0
 40
20.0
 40
20.0
 40
21.0
 40
21.0
 40
21.0
 40
22.0
 40
22.0
 40
22.0
 40
23.0
 40
23.0
 40
23.0
 40
24.0
 40
24.0
 40
24.0
 40
25.0
 40
25.0
 40
25.0
 40
26.0
 40
26.0
 40
26.0
 40
27.0
 40
27.0
 40
27.0
 40
28.0
 40
28.0
 40
28.0
 40
29.0
 40
29.0
 40
29.0
 40
30.0
 40
30.0
 40
30.0
 40
30.0
 10
297.1184705203385
 20
87.98326006915002
 10
297.1184705203385
 20
87.98326006915002
 10
297.4460991009857
 20
88.0270127818127
 10
297.4460991009857
 20
88.0270127818127
 10
297.4836506417749
 20
87.84132213515772
 10
297.5477294178006
 20
87.70730792078152
 10
297.6383354290626
 20
87.62565915778109
 10
297.7285969307762
 20
87.54366588523214
 10
297.8388399863042
 20
87.50266924895767
 10
297.9687200860981
 20
87.50266924895767
 10
298.1227158542888
 20
87.50266924895767
 10
298.2529404636312
 20
87.55606822897904
 10
298.3590494045769
 20
87.66286618902178
 10
298.4655028550711
 20
87.76966414906454
 10
298.518557325544
 20
87.90195581569813
 10
298.518557325544
 20
88.05974118892257
 10
298.518557325544
 20
88.210291861628
 10
298.4692924601049
 20
88.33431529909699
 10
298.3711072387753
 20
88.43181150132955
 10
298.2725775078972
 20
88.52965221311065
 10
298.1475205417826
 20
88.5785725690012
 10
297.9959363404316
 20
88.5785725690012
 10
297.9339246216971
 20
88.5785725690012
 10
297.857098992376
 20
88.56651473480282
 10
297.7647704333713
 20
88.54205455685755
 10
297.7647704333713
 20
88.54205455685755
 10
297.801288445515
 20
88.8297200298759
 10
297.801288445515
 20
88.8297200298759
 10
297.822992547072
 20
88.82730846303623
 10
297.8405625340468
 20
88.82593042484213
 10
297.8539984064393
 20
88.82593042484213
 10
297.9935247735919
 20
88.82593042484213
 10
298.1192707588035
 20
88.86244843698579
 10
298.2308918525256
 20
88.93548446127308
 10
298.3425129462477
 20
89.00817597601186
 10
298.3983234931088
 20
89.12048608883099
 10
298.3983234931088
 20
89.27207029018199
 10
298.3983234931088
 20
89.3923041226172
 10
298.3576713663828
 20
89.49186738214092
 10
298.2763671129309
 20
89.57076006875315
 10
298.195062859479
 20
89.64965275536537
 10
298.0899874471789
 20
89.68892684389722
 10
297.9614853855791
 20
89.68892684389722
 10
297.8340168526249
 20
89.68892684389722
 10
297.7279079116792
 20
89.64896373626831
 10
297.6428140531935
 20
89.568693011462
 10
297.5577201947078
 20
89.4887667962042
 10
297.5032876860408
 20
89.36853296376898
 10
297.4788275080956
 20
89.20833602370486
 10
297.4788275080956
 20
89.20833602370486
 10
297.1511989274483
 20
89.26655813740558
 10
297.1511989274483
 20
89.26655813740558
 10
297.1915065446257
 20
89.48635522936452
 10
297.2824570654363
 20
89.65654294633588
 10
297.4243949994286
 20
89.7771212883196
 10
297.5663329334209
 20
89.89804413985188
 10
297.7430663318142
 20
89.95833331084376
 10
297.9542506850601
 20
89.95833331084376
 10
298.0996337145376
 20
89.95833331084376
 10
298.2339924384623
 20
89.92698294192797
 10
298.3562933281887
 20
89.86462671364495
 10
298.4789387274636
 20
89.80227048536193
 10
298.5726453246624
 20
89.71683211732774
 10
298.6377576293336
 20
89.60900062863942
 10
298.7025254244563
 20
89.50082463040258
 10
298.7349093220177
 20
89.38610295074376
 10
298.7349093220177
 20
89.26483558966297
 10
298.7349093220177
 20
89.1494248909071
 10
298.704247972199
 20
89.0446939881555
 10
298.6422362534644
 20
88.94995386231113
 10
298.58022453473
 20
88.85521373646675
 10
298.4885849948223
 20
88.7801106548883
 10
298.3673176337415
 20
88.72430010802726
 10
298.5251030069659
 20
88.68778209588362
 10
298.6477484062409
 20
88.61233450475665
 10
298.7349093220177
 20
88.49761282509782
 10
298.822414747343
 20
88.382891145439
 10
298.8661674600057
 20
88.23923066370409
 10
298.8661674600057
 20
88.0669758894416
 10
298.8661674600057
 20
87.8340874346387
 10
298.78107360152
 20
87.63633895378537
 10
298.6112303940972
 20
87.47441946597863
 10
298.4413871866744
 20
87.31249997817189
 10
298.2264132283948
 20
87.23154023426851
 10
297.9669975383555
 20
87.23154023426851
 10
297.7327310453585
 20
87.23154023426851
 10
297.5380831504419
 20
87.30113116307055
 10
297.3833983631542
 20
87.44065753022318
 10
297.2287135758664
 20
87.58018389737579
 10
297.140519131444
 20
87.76105141035141
 10
297.1184705203385
 20
87.98326006915002
 97
        0
 75
     2
 76
     1
 98
        0
  0
POLYLINE
  5
AB
330
A5
100
AcDbEntity
  8
DEFPOINTS
370
     0
100
AcDb2dPolyline
 66
     1
 10
0.0
 20
0.0
 30
0.0
  0
VERTEX
  5
AC
330
AB
100
AcDbEntity
  8
DEFPOINTS
370
     0
100
AcDbVertex
100
AcDb2dVertex
 10
300.2404160490719
 20
87.27873804241644
 30
0.0
  0
VERTEX
  5
AD
330
AB
100
AcDbEntity
  8
DEFPOINTS
370
     0
100
AcDbVertex
100
AcDb2dVertex
 10
300.2404160490719
 20
87.91780325493028
 30
0.0
  0
VERTEX
  5
AE
330
AB
100
AcDbEntity
  8
DEFPOINTS
370
     0
100
AcDbVertex
100
AcDb2dVertex
 10
299.0828639660279
 20
87.91780325493028
 30
0.0
  0
VERTEX
  5
AF
330
AB
100
AcDbEntity
  8
DEFPOINTS
370
     0
100
AcDbVertex
100
AcDb2dVertex
 10
299.0828639660279
 20
88.21821558124407
 30
0.0
  0
VERTEX
  5
B0
330
AB
100
AcDbEntity
  8
DEFPOINTS
370
     0
100
AcDbVertex
100
AcDb2dVertex
 10
300.3007052200637
 20
89.94730900529096
 30
0.0
  0
VERTEX
  5
B1
330
AB
100
AcDbEntity
  8
DEFPOINTS
370
     0
100
AcDbVertex
100
AcDb2dVertex
 10
300.5680446297191
 20
89.94730900529096
 30
0.0
  0
VERTEX
  5
B2
330
AB
100
AcDbEntity
  8
DEFPOINTS
370
     0
100
AcDbVertex
100
AcDb2dVertex
 10
300.5680446297191
 20
88.21821558124407
 30
0.0
  0
VERTEX
  5
B3
330
AB
100
AcDbEntity
  8
DEFPOINTS
370
     0
100
AcDbVertex
100
AcDb2dVertex
 10
300.9287461270248
 20
88.21821558124407
 30
0.0
  0
VERTEX
  5
B4
330
AB
100
AcDbEntity
  8
DEFPOINTS
370
     0
100
AcDbVertex
100
AcDb2dVertex
 10
300.9287461270248
 20
87.91780325493028
 30
0.0
  0
VERTEX
  5
B5
330
AB
100
AcDbEntity
  8
DEFPOINTS
370
     0
100
AcDbVertex
100
AcDb2dVertex
 10
300.5680446297191
 20
87.91780325493028
 30
0.0
  0
VERTEX
  5
B6
330
AB
100
AcDbEntity
  8
DEFPOINTS
370
     0
100
AcDbVertex
100
AcDb2dVertex
 10
300.5680446297191
 20
87.27873804241644
 30
0.0
  0
VERTEX
  5
B7
330
AB
100
AcDbEntity
  8
DEFPOINTS
370
     0
100
AcDbVertex
100
AcDb2dVertex
 10
300.2404160490719
 20
87.27873804241644
 30
0.0
  0
SEQEND
  5
B8
330
AB
100
AcDbEntity
  8
DEFPOINTS
370
     0
  0
POLYLINE
  5
B9
330
A5
100
AcDbEntity
  8
DEFPOINTS
370
     0
100
AcDb2dPolyline
 66
     1
 10
0.0
 20
0.0
 30
0.0
  0
VERTEX
  5
BA
330
B9
100
AcDbEntity
  8
DEFPOINTS
370
     0
100
AcDbVertex
100
AcDb2dVertex
 10
300.2404160490719
 20
88.21821558124407
 30
0.0
  0
VERTEX
  5
BB
330
B9
100
AcDbEntity
  8
DEFPOINTS
370
     0
100
AcDbVertex
100
AcDb2dVertex
 10
300.2404160490719
 20
89.4212429246933
 30
0.0
  0
VERTEX
  5
BC
330
B9
100
AcDbEntity
  8
DEFPOINTS
370
     0
100
AcDbVertex
100
AcDb2dVertex
 10
299.4049803938988
 20
88.21821558124407
 30
0.0
  0
VERTEX
  5
BD
330
B9
100
AcDbEntity
  8
DEFPOINTS
370
     0
100
AcDbVertex
100
AcDb2dVertex
 10
300.2404160490719
 20
88.21821558124407
 30
0.0
  0
SEQEND
  5
BE
330
B9
100
AcDbEntity
  8
DEFPOINTS
370
     0
  0
HATCH
  5
BF
330
A5
100
AcDbEntity
  8
DEFPOINTS
 62
     7
100
AcDbHatch
 10
0.0
 20
0.0
 30
0.0
210
0.0
220
0.0
230
1.0
  2
SOLID
 70
     1
 71
     0
 91
        2
 92
        1
 93
       11
 72
     1
 10
300.2404160490719
 20
87.27873804241644
 11
300.2404160490719
 21
87.91780325493028
 72
     1
 10
300.2404160490719
 20
87.91780325493028
 11
299.0828639660279
 21
87.91780325493028
 72
     1
 10
299.0828639660279
 20
87.91780325493028
 11
299.0828639660279
 21
88.21821558124407
 72
     1
 10
299.0828639660279
 20
88.21821558124407
 11
300.3007052200637
 21
89.94730900529096
 72
     1
 10
300.3007052200637
 20
89.94730900529096
 11
300.5680446297191
 21
89.94730900529096
 72
     1
 10
300.5680446297191
 20
89.94730900529096
 11
300.5680446297191
 21
88.21821558124407
 72
     1
 10
300.5680446297191
 20
88.21821558124407
 11
300.9287461270248
 21
88.21821558124407
 72
     1
 10
300.9287461270248
 20
88.21821558124407
 11
300.9287461270248
 21
87.91780325493028
 72
     1
 10
300.9287461270248
 20
87.91780325493028
 11
300.5680446297191
 21
87.91780325493028
 72
     1
 10
300.5680446297191
 20
87.91780325493028
 11
300.5680446297191
 21
87.27873804241644
 72
     1
 10
300.5680446297191
 20
87.27873804241644
 11
300.2404160490719
 21
87.27873804241644
 97
        0
 92
        1
 93
        3
 72
     1
 10
300.2404160490719
 20
88.21821558124407
 11
300.2404160490719
 21
89.4212429246933
 72
     1
 10
300.2404160490719
 20
89.4212429246933
 11
299.4049803938988
 21
88.21821558124407
 72
     1
 10
299.4049803938988
 20
88.21821558124407
 11
300.2404160490719
 21
88.21821558124407
 97
        0
 75
     2
 76
     1
 98
        0
  0
ENDBLK
  5
A8
330
A5
100
AcDbEntity
  8
0
100
AcDbBlockEnd
  0
BLOCK
  5
C2
330
C0
100
AcDbEntity
  8
0
100
AcDbBlockBegin
  2
block 14
 70
     0
 10
0.0
 20
0.0
 30
0.0
  3
block 14
  1

  0
INSERT
  5
C5
330
C0
100
AcDbEntity
  8
DEFPOINTS
100
AcDbBlockReference
  2
block 15
 10
0.0
 20
0.0
 30
0.0
  0
ENDBLK
  5
C3
330
C0
100
AcDbEntity
  8
0
100
AcDbBlockEnd
  0
BLOCK
  5
C6
330
C4
100
AcDbEntity
  8
0
100
AcDbBlockBegin
  2
block 15
 70
     0
 10
0.0
 20
0.0
 30
0.0
  3
block 15
  1

  0
POLYLINE
  5
C8
330
C4
100
AcDbEntity
  8
DEFPOINTS
370
     0
100
AcDb2dPolyline
 66
     1
 10
0.0
 20
0.0
 30
0.0
  0
VERTEX
  5
C9
330
C8
100
AcDbEntity
  8
DEFPOINTS
370
     0
100
AcDbVertex
100
AcDb2dVertex
 10
296.1001002948986
 20
82.80183645933427
 30
0.0
  0
VERTEX
  5
CA
330
C8
100
AcDbEntity
  8
DEFPOINTS
370
     0
100
AcDbVertex
100
AcDb2dVertex
 10
296.1001002948986
 20
83.44090167184811
 30
0.0
  0
VERTEX
  5
CB
330
C8
100
AcDbEntity
  8
DEFPOINTS
370
     0
100
AcDbVertex
100
AcDb2dVertex
 10
294.9422037023061
 20
83.44090167184811
 30
0.0
  0
VERTEX
  5
CC
330
C8
100
AcDbEntity
  8
DEFPOINTS
370
     0
100
AcDbVertex
100
AcDb2dVertex
 10
294.9422037023061
 20
83.7413139981619
 30
0.0
  0
VERTEX
  5
CD
330
C8
100
AcDbEntity
  8
DEFPOINTS
370
     0
100
AcDbVertex
100
AcDb2dVertex
 10
296.1600449563419
 20
85.4704074222088
 30
0.0
  0
VERTEX
  5
CE
330
C8
100
AcDbEntity
  8
DEFPOINTS
370
     0
100
AcDbVertex
100
AcDb2dVertex
 10
296.4277288755459
 20
85.4704074222088
 30
0.0
  0
VERTEX
  5
CF
330
C8
100
AcDbEntity
  8
DEFPOINTS
370
     0
100
AcDbVertex
100
AcDb2dVertex
 10
296.4277288755459
 20
83.7413139981619
 30
0.0
  0
VERTEX
  5
D0
330
C8
100
AcDbEntity
  8
DEFPOINTS
370
     0
100
AcDbVertex
100
AcDb2dVertex
 10
296.788085863303
 20
83.7413139981619
 30
0.0
  0
VERTEX
  5
D1
330
C8
100
AcDbEntity
  8
DEFPOINTS
370
     0
100
AcDbVertex
100
AcDb2dVertex
 10
296.788085863303
 20
83.44090167184811
 30
0.0
  0
VERTEX
  5
D2
330
C8
100
AcDbEntity
  8
DEFPOINTS
370
     0
100
AcDbVertex
100
AcDb2dVertex
 10
296.4277288755459
 20
83.44090167184811
 30
0.0
  0
VERTEX
  5
D3
330
C8
100
AcDbEntity
  8
DEFPOINTS
370
     0
100
AcDbVertex
100
AcDb2dVertex
 10
296.4277288755459
 20
82.80183645933427
 30
0.0
  0
VERTEX
  5
D4
330
C8
100
AcDbEntity
  8
DEFPOINTS
370
     0
100
AcDbVertex
100
AcDb2dVertex
 10
296.1001002948986
 20
82.80183645933427
 30
0.0
  0
SEQEND
  5
D5
330
C8
100
AcDbEntity
  8
DEFPOINTS
370
     0
  0
POLYLINE
  5
D6
330
C4
100
AcDbEntity
  8
DEFPOINTS
370
     0
100
AcDb2dPolyline
 66
     1
 10
0.0
 20
0.0
 30
0.0
  0
VERTEX
  5
D7
330
D6
100
AcDbEntity
  8
DEFPOINTS
370
     0
100
AcDbVertex
100
AcDb2dVertex
 10
296.1001002948986
 20
83.7413139981619
 30
0.0
  0
VERTEX
  5
D8
330
D6
100
AcDbEntity
  8
DEFPOINTS
370
     0
100
AcDbVertex
100
AcDb2dVertex
 10
296.1001002948986
 20
84.94434134161114
 30
0.0
  0
VERTEX
  5
D9
330
D6
100
AcDbEntity
  8
DEFPOINTS
370
     0
100
AcDbVertex
100
AcDb2dVertex
 10
295.264320130177
 20
83.7413139981619
 30
0.0
  0
VERTEX
  5
DA
330
D6
100
AcDbEntity
  8
DEFPOINTS
370
     0
100
AcDbVertex
100
AcDb2dVertex
 10
296.1001002948986
 20
83.7413139981619
 30
0.0
  0
SEQEND
  5
DB
330
D6
100
AcDbEntity
  8
DEFPOINTS
370
     0
  0
HATCH
  5
DC
330
C4
100
AcDbEntity
  8
DEFPOINTS
 62
     7
100
AcDbHatch
 10
0.0
 20
0.0
 30
0.0
210
0.0
220
0.0
230
1.0
  2
SOLID
 70
     1
 71
     0
 91
        2
 92
        1
 93
       11
 72
     1
 10
296.1001002948986
 20
82.80183645933427
 11
296.1001002948986
 21
83.44090167184811
 72
     1
 10
296.1001002948986
 20
83.44090167184811
 11
294.9422037023061
 21
83.44090167184811
 72
     1
 10
294.9422037023061
 20
83.44090167184811
 11
294.9422037023061
 21
83.7413139981619
 72
     1
 10
294.9422037023061
 20
83.7413139981619
 11
296.1600449563419
 21
85.4704074222088
 72
     1
 10
296.1600449563419
 20
85.4704074222088
 11
296.4277288755459
 21
85.4704074222088
 72
     1
 10
296.4277288755459
 20
85.4704074222088
 11
296.4277288755459
 21
83.7413139981619
 72
     1
 10
296.4277288755459
 20
83.7413139981619
 11
296.788085863303
 21
83.7413139981619
 72
     1
 10
296.788085863303
 20
83.7413139981619
 11
296.788085863303
 21
83.44090167184811
 72
     1
 10
296.788085863303
 20
83.44090167184811
 11
296.4277288755459
 21
83.44090167184811
 72
     1
 10
296.4277288755459
 20
83.44090167184811
 11
296.4277288755459
 21
82.80183645933427
 72
     1
 10
296.4277288755459
 20
82.80183645933427
 11
296.1001002948986
 21
82.80183645933427
 97
        0
 92
        1
 93
        3
 72
     1
 10
296.1001002948986
 20
83.7413139981619
 11
296.1001002948986
 21
84.94434134161114
 72
     1
 10
296.1001002948986
 20
84.94434134161114
 11
295.264320130177
 21
83.7413139981619
 72
     1
 10
295.264320130177
 20
83.7413139981619
 11
296.1001002948986
 21
83.7413139981619
 97
        0
 75
     2
 76
     1
 98
        0
  0
SPLINE
  5
DD
330
C4
100
AcDbEntity
  8
DEFPOINTS
370
     0
100
AcDbSpline
210
0.0
220
0.0
230
1.0
 70
    11
 71
     3
 72
    32
 73
    28
 74
     0
 42
0.0000000001
 43
0.0000000001
 12
1.0
 22
0.0
 32
0.0
 13
1.0
 23
0.0
 33
0.0
 40
0.0
 40
0.0
 40
0.0
 40
0.0
 40
1.0
 40
1.0
 40
1.0
 40
2.0
 40
2.0
 40
2.0
 40
3.0
 40
3.0
 40
3.0
 40
4.0
 40
4.0
 40
4.0
 40
5.0
 40
5.0
 40
5.0
 40
6.0
 40
6.0
 40
6.0
 40
7.0
 40
7.0
 40
7.0
 40
8.0
 40
8.0
 40
8.0
 40
9.0
 40
9.0
 40
9.0
 40
9.0
 10
298.3573268568343
 20
82.80183645933427
 30
0.0
 10
298.3573268568343
 20
82.80183645933427
 30
0.0
 10
298.029698276187
 20
82.80183645933427
 30
0.0
 10
298.029698276187
 20
82.80183645933427
 30
0.0
 10
298.029698276187
 20
82.80183645933427
 30
0.0
 10
298.029698276187
 20
84.88990883294419
 30
0.0
 10
298.029698276187
 20
84.88990883294419
 30
0.0
 10
297.9508055895748
 20
84.81446124181723
 30
0.0
 10
297.8474527250173
 20
84.73935816023878
 30
0.0
 10
297.719295172966
 20
84.66425507866033
 30
0.0
 10
297.5911376209147
 20
84.58880748753336
 30
0.0
 10
297.4764159412559
 20
84.53230792157527
 30
0.0
 10
297.3744411148925
 20
84.49475638078604
 30
0.0
 10
297.3744411148925
 20
84.49475638078604
 30
0.0
 10
297.3744411148925
 20
84.81170516542902
 30
0.0
 10
297.3744411148925
 20
84.81170516542902
 30
0.0
 10
297.5573756851593
 20
84.89783255256027
 30
0.0
 10
297.7175726252234
 20
85.00221894576333
 30
0.0
 10
297.8550319350849
 20
85.12486434503823
 30
0.0
 10
297.9921467353978
 20
85.24716523476461
 30
0.0
 10
298.0889539185333
 20
85.36602102900572
 30
0.0
 10
298.1461425035885
 20
85.48143172776159
 30
0.0
 10
298.1461425035885
 20
85.48143172776159
 30
0.0
 10
298.3573268568343
 20
85.48143172776159
 30
0.0
 10
298.3573268568343
 20
85.48143172776159
 30
0.0
 10
298.3573268568343
 20
85.48143172776159
 30
0.0
 10
298.3573268568343
 20
82.80183645933427
 30
0.0
 10
298.3573268568343
 20
82.80183645933427
 30
0.0
  0
HATCH
  5
DE
330
C4
100
AcDbEntity
  8
DEFPOINTS
 62
     7
100
AcDbHatch
 10
0.0
 20
0.0
 30
0.0
210
0.0
220
0.0
230
1.0
  2
SOLID
 70
     1
 71
     0
 91
        1
 92
        1
 93
        1
 72
     4
 94
        3
 73
     0
 74
     1
 95
       32
 96
       28
 40
0.0
 40
0.0
 40
0.0
 40
0.0
 40
1.0
 40
1.0
 40
1.0
 40
2.0
 40
2.0
 40
2.0
 40
3.0
 40
3.0
 40
3.0
 40
4.0
 40
4.0
 40
4.0
 40
5.0
 40
5.0
 40
5.0
 40
6.0
 40
6.0
 40
6.0
 40
7.0
 40
7.0
 40
7.0
 40
8.0
 40
8.0
 40
8.0
 40
9.0
 40
9.0
 40
9.0
 40
9.0
 10
298.3573268568343
 20
82.80183645933427
 10
298.3573268568343
 20
82.80183645933427
 10
298.029698276187
 20
82.80183645933427
 10
298.029698276187
 20
82.80183645933427
 10
298.029698276187
 20
82.80183645933427
 10
298.029698276187
 20
84.88990883294419
 10
298.029698276187
 20
84.88990883294419
 10
297.9508055895748
 20
84.81446124181723
 10
297.8474527250173
 20
84.73935816023878
 10
297.719295172966
 20
84.66425507866033
 10
297.5911376209147
 20
84.58880748753336
 10
297.4764159412559
 20
84.53230792157527
 10
297.3744411148925
 20
84.49475638078604
 10
297.3744411148925
 20
84.49475638078604
 10
297.3744411148925
 20
84.81170516542902
 10
297.3744411148925
 20
84.81170516542902
 10
297.5573756851593
 20
84.89783255256027
 10
297.7175726252234
 20
85.00221894576333
 10
297.8550319350849
 20
85.12486434503823
 10
297.9921467353978
 20
85.24716523476461
 10
298.0889539185333
 20
85.36602102900572
 10
298.1461425035885
 20
85.48143172776159
 10
298.1461425035885
 20
85.48143172776159
 10
298.3573268568343
 20
85.48143172776159
 10
298.3573268568343
 20
85.48143172776159
 10
298.3573268568343
 20
85.48143172776159
 10
298.3573268568343
 20
82.80183645933427
 10
298.3573268568343
 20
82.80183645933427
 97
        0
 75
     2
 76
     1
 98
        0
  0
POLYLINE
  5
DF
330
C4
100
AcDbEntity
  8
DEFPOINTS
370
     0
100
AcDb2dPolyline
 66
     1
 10
0.0
 20
0.0
 30
0.0
  0
VERTEX
  5
E0
330
DF
100
AcDbEntity
  8
DEFPOINTS
370
     0
100
AcDbVertex
100
AcDb2dVertex
 10
299.3805202159535
 20
82.80183645933427
 30
0.0
  0
VERTEX
  5
E1
330
DF
100
AcDbEntity
  8
DEFPOINTS
370
     0
100
AcDbVertex
100
AcDb2dVertex
 10
299.3805202159535
 20
83.17494030038682
 30
0.0
  0
VERTEX
  5
E2
330
DF
100
AcDbEntity
  8
DEFPOINTS
370
     0
100
AcDbVertex
100
AcDb2dVertex
 10
299.753624057006
 20
83.17494030038682
 30
0.0
  0
VERTEX
  5
E3
330
DF
100
AcDbEntity
  8
DEFPOINTS
370
     0
100
AcDbVertex
100
AcDb2dVertex
 10
299.753624057006
 20
82.80183645933427
 30
0.0
  0
VERTEX
  5
E4
330
DF
100
AcDbEntity
  8
DEFPOINTS
370
     0
100
AcDbVertex
100
AcDb2dVertex
 10
299.3805202159535
 20
82.80183645933427
 30
0.0
  0
SEQEND
  5
E5
330
DF
100
AcDbEntity
  8
DEFPOINTS
370
     0
  0
HATCH
  5
E6
330
C4
100
AcDbEntity
  8
DEFPOINTS
 62
     7
100
AcDbHatch
 10
0.0
 20
0.0
 30
0.0
210
0.0
220
0.0
230
1.0
  2
SOLID
 70
     1
 71
     0
 91
        1
 92
        1
 93
        4
 72
     1
 10
299.3805202159535
 20
82.80183645933427
 11
299.3805202159535
 21
83.17494030038682
 72
     1
 10
299.3805202159535
 20
83.17494030038682
 11
299.753624057006
 21
83.17494030038682
 72
     1
 10
299.753624057006
 20
83.17494030038682
 11
299.753624057006
 21
82.80183645933427
 72
     1
 10
299.753624057006
 20
82.80183645933427
 11
299.3805202159535
 21
82.80183645933427
 97
        0
 75
     2
 76
     1
 98
        0
  0
SPLINE
  5
E7
330
C4
100
AcDbEntity
  8
DEFPOINTS
370
     0
100
AcDbSpline
210
0.0
220
0.0
230
1.0
 70
    11
 71
     3
 72
    71
 73
    67
 74
     0
 42
0.0000000001
 43
0.0000000001
 12
1.0
 22
0.0
 32
0.0
 13
1.0
 23
0.0
 33
0.0
 40
0.0
 40
0.0
 40
0.0
 40
0.0
 40
1.0
 40
1.0
 40
1.0
 40
2.0
 40
2.0
 40
2.0
 40
3.0
 40
3.0
 40
3.0
 40
4.0
 40
4.0
 40
4.0
 40
5.0
 40
5.0
 40
5.0
 40
6.0
 40
6.0
 40
6.0
 40
7.0
 40
7.0
 40
7.0
 40
8.0
 40
8.0
 40
8.0
 40
9.0
 40
9.0
 40
9.0
 40
10.0
 40
10.0
 40
10.0
 40
11.0
 40
11.0
 40
11.0
 40
12.0
 40
12.0
 40
12.0
 40
13.0
 40
13.0
 40
13.0
 40
14.0
 40
14.0
 40
14.0
 40
15.0
 40
15.0
 40
15.0
 40
16.0
 40
16.0
 40
16.0
 40
17.0
 40
17.0
 40
17.0
 40
18.0
 40
18.0
 40
18.0
 40
19.0
 40
19.0
 40
19.0
 40
20.0
 40
20.0
 40
20.0
 40
21.0
 40
21.0
 40
21.0
 40
22.0
 40
22.0
 40
22.0
 40
22.0
 10
300.2324923294558
 20
83.50084633329146
 30
0.0
 10
300.2324923294558
 20
83.50084633329146
 30
0.0
 10
300.5766573684322
 20
83.53012964491609
 30
0.0
 10
300.5766573684322
 20
83.53012964491609
 30
0.0
 10
300.6021510750231
 20
83.36269800433294
 30
0.0
 10
300.6610622078209
 20
83.23660750957279
 30
0.0
 10
300.7540797859226
 20
83.15220267018418
 30
0.0
 10
300.8467528544758
 20
83.06779783079556
 30
0.0
 10
300.9587184577464
 20
83.0257676658755
 30
0.0
 10
301.0899765957345
 20
83.0257676658755
 30
0.0
 10
301.2477619689589
 20
83.0257676658755
 30
0.0
 10
301.3810871642381
 20
83.08536781777033
 30
0.0
 10
301.4902966911205
 20
83.20422361201145
 30
0.0
 10
301.5995062180029
 20
83.32307940625256
 30
0.0
 10
301.6542832362184
 20
83.48086477947702
 30
0.0
 10
301.6542832362184
 20
83.67757973168477
 30
0.0
 10
301.6542832362184
 20
83.86430390698531
 30
0.0
 10
301.6015732752941
 20
84.01175399375401
 30
0.0
 10
301.4968423725425
 20
84.11992999199086
 30
0.0
 10
301.3917669602424
 20
84.22776148067918
 30
0.0
 10
301.2543076503809
 20
84.2818494797976
 30
0.0
 10
301.0844644429581
 20
84.2818494797976
 30
0.0
 10
300.9787000115609
 20
84.2818494797976
 30
0.0
 10
300.883615376168
 20
84.25773381140085
 30
0.0
 10
300.7985215176823
 20
84.20984698415587
 30
0.0
 10
300.7137721687452
 20
84.16196015691091
 30
0.0
 10
300.6469373163313
 20
84.09994843817641
 30
0.0
 10
300.5983614699893
 20
84.02346731840386
 30
0.0
 10
300.5983614699893
 20
84.02346731840386
 30
0.0
 10
300.2907144431565
 20
84.06343042603275
 30
0.0
 10
300.2907144431565
 20
84.06343042603275
 30
0.0
 10
300.2907144431565
 20
84.06343042603275
 30
0.0
 10
300.5490966045502
 20
85.43423391961366
 30
0.0
 10
300.5490966045502
 20
85.43423391961366
 30
0.0
 10
300.5490966045502
 20
85.43423391961366
 30
0.0
 10
301.8761473854685
 20
85.43423391961366
 30
0.0
 10
301.8761473854685
 20
85.43423391961366
 30
0.0
 10
301.8761473854685
 20
85.43423391961366
 30
0.0
 10
301.8761473854685
 20
85.12107474000446
 30
0.0
 10
301.8761473854685
 20
85.12107474000446
 30
0.0
 10
301.8761473854685
 20
85.12107474000446
 30
0.0
 10
300.8112683709778
 20
85.12107474000446
 30
0.0
 10
300.8112683709778
 20
85.12107474000446
 30
0.0
 10
300.8112683709778
 20
85.12107474000446
 30
0.0
 10
300.6676078892428
 20
84.40380585997544
 30
0.0
 10
300.6676078892428
 20
84.40380585997544
 30
0.0
 10
300.827804829307
 20
84.51542695369754
 30
0.0
 10
300.9959254889872
 20
84.57123750055858
 30
0.0
 10
301.1716253587349
 20
84.57123750055858
 30
0.0
 10
301.4048583230863
 20
84.57123750055858
 30
0.0
 10
301.6015732752941
 20
84.49062226620374
 30
0.0
 10
301.7617702153582
 20
84.32904728794551
 30
0.0
 10
301.9219671554223
 20
84.16781681923582
 30
0.0
 10
302.0018933706801
 20
83.96007756147526
 30
0.0
 10
302.0018933706801
 20
83.70651853376087
 30
0.0
 10
302.0018933706801
 20
83.46501734024486
 30
0.0
 10
301.931613422781
 20
83.25624455383873
 30
0.0
 10
301.7907090174343
 20
83.08020017454245
 30
0.0
 10
301.6194877718174
 20
82.86419268761729
 30
0.0
 10
301.3859102979174
 20
82.75636119892897
 30
0.0
 10
301.0899765957345
 20
82.75636119892897
 30
0.0
 10
300.8470973640244
 20
82.75636119892897
 30
0.0
 10
300.6490043736225
 20
82.8242295799884
 30
0.0
 10
300.4953531149803
 20
82.96031085165576
 30
0.0
 10
300.3420463658867
 20
83.0960476137746
 30
0.0
 10
300.2541964310129
 20
83.27622610765317
 30
0.0
 10
300.2324923294558
 20
83.50084633329146
 30
0.0
  0
HATCH
  5
E8
330
C4
100
AcDbEntity
  8
DEFPOINTS
 62
     7
100
AcDbHatch
 10
0.0
 20
0.0
 30
0.0
210
0.0
220
0.0
230
1.0
  2
SOLID
 70
     1
 71
     0
 91
        1
 92
        1
 93
        1
 72
     4
 94
        3
 73
     0
 74
     1
 95
       71
 96
       67
 40
0.0
 40
0.0
 40
0.0
 40
0.0
 40
1.0
 40
1.0
 40
1.0
 40
2.0
 40
2.0
 40
2.0
 40
3.0
 40
3.0
 40
3.0
 40
4.0
 40
4.0
 40
4.0
 40
5.0
 40
5.0
 40
5.0
 40
6.0
 40
6.0
 40
6.0
 40
7.0
 40
7.0
 40
7.0
 40
8.0
 40
8.0
 40
8.0
 40
9.0
 40
9.0
 40
9.0
 40
10.0
 40
10.0
 40
10.0
 40
11.0
 40
11.0
 40
11.0
 40
12.0
 40
12.0
 40
12.0
 40
13.0
 40
13.0
 40
13.0
 40
14.0
 40
14.0
 40
14.0
 40
15.0
 40
15.0
 40
15.0
 40
16.0
 40
16.0
 40
16.0
 40
17.0
 40
17.0
 40
17.0
 40
18.0
 40
18.0
 40
18.0
 40
19.0
 40
19.0
 40
19.0
 40
20.0
 40
20.0
 40
20.0
 40
21.0
 40
21.0
 40
21.0
 40
22.0
 40
22.0
 40
22.0
 40
22.0
 10
300.2324923294558
 20
83.50084633329146
 10
300.2324923294558
 20
83.50084633329146
 10
300.5766573684322
 20
83.53012964491609
 10
300.5766573684322
 20
83.53012964491609
 10
300.6021510750231
 20
83.36269800433294
 10
300.6610622078209
 20
83.23660750957279
 10
300.7540797859226
 20
83.15220267018418
 10
300.8467528544758
 20
83.06779783079556
 10
300.9587184577464
 20
83.0257676658755
 10
301.0899765957345
 20
83.0257676658755
 10
301.2477619689589
 20
83.0257676658755
 10
301.3810871642381
 20
83.08536781777033
 10
301.4902966911205
 20
83.20422361201145
 10
301.5995062180029
 20
83.32307940625256
 10
301.6542832362184
 20
83.48086477947702
 10
301.6542832362184
 20
83.67757973168477
 10
301.6542832362184
 20
83.86430390698531
 10
301.6015732752941
 20
84.01175399375401
 10
301.4968423725425
 20
84.11992999199086
 10
301.3917669602424
 20
84.22776148067918
 10
301.2543076503809
 20
84.2818494797976
 10
301.0844644429581
 20
84.2818494797976
 10
300.9787000115609
 20
84.2818494797976
 10
300.883615376168
 20
84.25773381140085
 10
300.7985215176823
 20
84.20984698415587
 10
300.7137721687452
 20
84.16196015691091
 10
300.6469373163313
 20
84.09994843817641
 10
300.5983614699893
 20
84.02346731840386
 10
300.5983614699893
 20
84.02346731840386
 10
300.2907144431565
 20
84.06343042603275
 10
300.2907144431565
 20
84.06343042603275
 10
300.2907144431565
 20
84.06343042603275
 10
300.5490966045502
 20
85.43423391961366
 10
300.5490966045502
 20
85.43423391961366
 10
300.5490966045502
 20
85.43423391961366
 10
301.8761473854685
 20
85.43423391961366
 10
301.8761473854685
 20
85.43423391961366
 10
301.8761473854685
 20
85.43423391961366
 10
301.8761473854685
 20
85.12107474000446
 10
301.8761473854685
 20
85.12107474000446
 10
301.8761473854685
 20
85.12107474000446
 10
300.8112683709778
 20
85.12107474000446
 10
300.8112683709778
 20
85.12107474000446
 10
300.8112683709778
 20
85.12107474000446
 10
300.6676078892428
 20
84.40380585997544
 10
300.6676078892428
 20
84.40380585997544
 10
300.827804829307
 20
84.51542695369754
 10
300.9959254889872
 20
84.57123750055858
 10
301.1716253587349
 20
84.57123750055858
 10
301.4048583230863
 20
84.57123750055858
 10
301.6015732752941
 20
84.49062226620374
 10
301.7617702153582
 20
84.32904728794551
 10
301.9219671554223
 20
84.16781681923582
 10
302.0018933706801
 20
83.96007756147526
 10
302.0018933706801
 20
83.70651853376087
 10
302.0018933706801
 20
83.46501734024486
 10
301.931613422781
 20
83.25624455383873
 10
301.7907090174343
 20
83.08020017454245
 10
301.6194877718174
 20
82.86419268761729
 10
301.3859102979174
 20
82.75636119892897
 10
301.0899765957345
 20
82.75636119892897
 10
300.8470973640244
 20
82.75636119892897
 10
300.6490043736225
 20
82.8242295799884
 10
300.4953531149803
 20
82.96031085165576
 10
300.3420463658867
 20
83.0960476137746
 10
300.2541964310129
 20
83.27622610765317
 10
300.2324923294558
 20
83.50084633329146
 97
        0
 75
     2
 76
     1
 98
        0
  0
ENDBLK
  5
C7
330
C4
100
AcDbEntity
  8
0
100
AcDbBlockEnd
  0
BLOCK
  5
EB
330
E9
100
AcDbEntity
  8
0
100
AcDbBlockBegin
  2
block 16
 70
     0
 10
0.0
 20
0.0
 30
0.0
  3
block 16
  1

  0
POLYLINE
  5
ED
330
E9
100
AcDbEntity
  8
DEFPOINTS
370
     0
100
AcDb2dPolyline
 66
     1
 10
0.0
 20
0.0
 30
0.0
  0
VERTEX
  5
EE
330
ED
100
AcDbEntity
  8
DEFPOINTS
370
     0
100
AcDbVertex
100
AcDb2dVertex
 10
289.7221734912088
 20
129.2545565811846
 30
0.0
  0
VERTEX
  5
EF
330
ED
100
AcDbEntity
  8
DEFPOINTS
370
     0
100
AcDbVertex
100
AcDb2dVertex
 10
289.7221734912088
 20
97.29586993010312
 30
0.0
  0
VERTEX
  5
F0
330
ED
100
AcDbEntity
  8
DEFPOINTS
370
     0
100
AcDbVertex
100
AcDb2dVertex
 10
297.9551334907782
 20
97.29586993010312
 30
0.0
  0
VERTEX
  5
F1
330
ED
100
AcDbEntity
  8
DEFPOINTS
370
     0
100
AcDbVertex
100
AcDb2dVertex
 10
297.9551334907782
 20
129.2545565811846
 30
0.0
  0
VERTEX
  5
F2
330
ED
100
AcDbEntity
  8
DEFPOINTS
370
     0
100
AcDbVertex
100
AcDb2dVertex
 10
289.7221734912088
 20
129.2545565811846
 30
0.0
  0
SEQEND
  5
F3
330
ED
100
AcDbEntity
  8
DEFPOINTS
370
     0
  0
POLYLINE
  5
F4
330
E9
100
AcDbEntity
  8
DEFPOINTS
370
     0
100
AcDb2dPolyline
 66
     1
 10
0.0
 20
0.0
 30
0.0
  0
VERTEX
  5
F5
330
F4
100
AcDbEntity
  8
DEFPOINTS
370
     0
100
AcDbVertex
100
AcDb2dVertex
 10
293.6187056761071
 20
140.0827500734863
 30
0.0
  0
VERTEX
  5
F6
330
F4
100
AcDbEntity
  8
DEFPOINTS
370
     0
100
AcDbVertex
100
AcDb2dVertex
 10
291.7332910444169
 20
139.7685143015379
 30
0.0
  0
VERTEX
  5
F7
330
F4
100
AcDbEntity
  8
DEFPOINTS
370
     0
100
AcDbVertex
100
AcDb2dVertex
 10
293.6187056761071
 20
139.4542785295896
 30
0.0
  0
VERTEX
  5
F8
330
F4
100
AcDbEntity
  8
DEFPOINTS
370
     0
100
AcDbVertex
100
AcDb2dVertex
 10
293.6187056761071
 20
140.0827500734863
 30
0.0
  0
SEQEND
  5
FA
330
F4
100
AcDbEntity
  8
DEFPOINTS
370
     0
  0
HATCH
  5
F9
330
E9
100
AcDbEntity
  8
DEFPOINTS
 62
     7
100
AcDbHatch
 10
0.0
 20
0.0
 30
0.0
210
0.0
220
0.0
230
1.0
  2
SOLID
 70
     1
 71
     0
 91
        1
 92
        1
 93
        3
 72
     1
 10
293.6187056761071
 20
140.0827500734863
 11
291.7332910444169
 21
139.7685143015379
 72
     1
 10
291.7332910444169
 20
139.7685143015379
 11
293.6187056761071
 21
139.4542785295896
 72
     1
 10
293.6187056761071
 20
139.4542785295896
 11
293.6187056761071
 21
140.0827500734863
 97
        0
 75
     2
 76
     1
 98
        0
  0
POLYLINE
  5
FB
330
E9
100
AcDbEntity
  8
DEFPOINTS
370
     0
100
AcDb2dPolyline
 66
     1
 10
0.0
 20
0.0
 30
0.0
  0
VERTEX
  5
FC
330
FB
100
AcDbEntity
  8
DEFPOINTS
370
     0
100
AcDbVertex
100
AcDb2dVertex
 10
287.8367588595187
 20
140.0827500734863
 30
0.0
  0
VERTEX
  5
FD
330
FB
100
AcDbEntity
  8
DEFPOINTS
370
     0
100
AcDbVertex
100
AcDb2dVertex
 10
287.8367588595187
 20
139.4542785295896
 30
0.0
  0
VERTEX
  5
FE
330
FB
100
AcDbEntity
  8
DEFPOINTS
370
     0
100
AcDbVertex
100
AcDb2dVertex
 10
289.7221734912088
 20
139.7685143015379
 30
0.0
  0
VERTEX
  5
FF
330
FB
100
AcDbEntity
  8
DEFPOINTS
370
     0
100
AcDbVertex
100
AcDb2dVertex
 10
287.8367588595187
 20
140.0827500734863
 30
0.0
  0
SEQEND
  5
101
330
FB
100
AcDbEntity
  8
DEFPOINTS
370
     0
  0
HATCH
  5
100
330
E9
100
AcDbEntity
  8
DEFPOINTS
 62
     7
100
AcDbHatch
 10
0.0
 20
0.0
 30
0.0
210
0.0
220
0.0
230
1.0
  2
SOLID
 70
     1
 71
     0
 91
        1
 92
        1
 93
        3
 72
     1
 10
287.8367588595187
 20
140.0827500734863
 11
287.8367588595187
 21
139.4542785295896
 72
     1
 10
287.8367588595187
 20
139.4542785295896
 11
289.7221734912088
 21
139.7685143015379
 72
     1
 10
289.7221734912088
 20
139.7685143015379
 11
287.8367588595187
 21
140.0827500734863
 97
        0
 75
     2
 76
     1
 98
        0
  0
POLYLINE
  5
102
330
E9
100
AcDbEntity
  8
DEFPOINTS
370
     0
100
AcDb2dPolyline
 66
     1
 10
0.0
 20
0.0
 30
0.0
  0
VERTEX
  5
103
330
102
100
AcDbEntity
  8
DEFPOINTS
370
     0
100
AcDbVertex
100
AcDb2dVertex
 10
236.8766265276949
 20
92.87574782698724
 30
0.0
  0
VERTEX
  5
104
330
102
100
AcDbEntity
  8
DEFPOINTS
370
     0
100
AcDbVertex
100
AcDb2dVertex
 10
276.7632315049737
 20
92.87574782698724
 30
0.0
  0
VERTEX
  5
105
330
102
100
AcDbEntity
  8
DEFPOINTS
370
     0
100
AcDbVertex
100
AcDb2dVertex
 10
276.7632315049737
 20
132.762352804266
 30
0.0
  0
VERTEX
  5
106
330
102
100
AcDbEntity
  8
DEFPOINTS
370
     0
100
AcDbVertex
100
AcDb2dVertex
 10
236.8766265276949
 20
132.762352804266
 30
0.0
  0
VERTEX
  5
107
330
102
100
AcDbEntity
  8
DEFPOINTS
370
     0
100
AcDbVertex
100
AcDb2dVertex
 10
236.8766265276949
 20
92.87574782698724
 30
0.0
  0
SEQEND
  5
108
330
102
100
AcDbEntity
  8
DEFPOINTS
370
     0
  0
POLYLINE
  5
109
330
E9
100
AcDbEntity
  8
DEFPOINTS
370
     0
100
AcDb2dPolyline
 66
     1
 10
0.0
 20
0.0
 30
0.0
  0
VERTEX
  5
10A
330
109
100
AcDbEntity
  8
DEFPOINTS
370
     0
100
AcDbVertex
100
AcDb2dVertex
 10
236.4474322257731
 20
138.6347333773422
 30
0.0
  0
VERTEX
  5
10B
330
109
100
AcDbEntity
  8
DEFPOINTS
370
     0
100
AcDbVertex
100
AcDb2dVertex
 10
236.4474322257731
 20
139.2632049212389
 30
0.0
  0
VERTEX
  5
10C
330
109
100
AcDbEntity
  8
DEFPOINTS
370
     0
100
AcDbVertex
100
AcDb2dVertex
 10
234.562017594083
 20
138.9489691492905
 30
0.0
  0
VERTEX
  5
10D
330
109
100
AcDbEntity
  8
DEFPOINTS
370
     0
100
AcDbVertex
100
AcDb2dVertex
 10
236.4474322257731
 20
138.6347333773422
 30
0.0
  0
SEQEND
  5
10F
330
109
100
AcDbEntity
  8
DEFPOINTS
370
     0
  0
HATCH
  5
10E
330
E9
100
AcDbEntity
  8
DEFPOINTS
 62
     7
100
AcDbHatch
 10
0.0
 20
0.0
 30
0.0
210
0.0
220
0.0
230
1.0
  2
SOLID
 70
     1
 71
     0
 91
        1
 92
        1
 93
        3
 72
     1
 10
236.4474322257731
 20
138.6347333773422
 11
236.4474322257731
 21
139.2632049212389
 72
     1
 10
236.4474322257731
 20
139.2632049212389
 11
234.562017594083
 21
138.9489691492905
 72
     1
 10
234.562017594083
 20
138.9489691492905
 11
236.4474322257731
 21
138.6347333773422
 97
        0
 75
     2
 76
     1
 98
        0
  0
POLYLINE
  5
110
330
E9
100
AcDbEntity
  8
DEFPOINTS
370
     0
100
AcDb2dPolyline
 66
     1
 10
0.0
 20
0.0
 30
0.0
  0
VERTEX
  5
111
330
110
100
AcDbEntity
  8
DEFPOINTS
370
     0
100
AcDbVertex
100
AcDb2dVertex
 10
276.3340372030519
 20
138.6347333773422
 30
0.0
  0
VERTEX
  5
112
330
110
100
AcDbEntity
  8
DEFPOINTS
370
     0
100
AcDbVertex
100
AcDb2dVertex
 10
278.219451834742
 20
138.9489691492905
 30
0.0
  0
VERTEX
  5
113
330
110
100
AcDbEntity
  8
DEFPOINTS
370
     0
100
AcDbVertex
100
AcDb2dVertex
 10
276.3340372030519
 20
139.2632049212389
 30
0.0
  0
VERTEX
  5
114
330
110
100
AcDbEntity
  8
DEFPOINTS
370
     0
100
AcDbVertex
100
AcDb2dVertex
 10
276.3340372030519
 20
138.6347333773422
 30
0.0
  0
SEQEND
  5
116
330
110
100
AcDbEntity
  8
DEFPOINTS
370
     0
  0
HATCH
  5
115
330
E9
100
AcDbEntity
  8
DEFPOINTS
 62
     7
100
AcDbHatch
 10
0.0
 20
0.0
 30
0.0
210
0.0
220
0.0
230
1.0
  2
SOLID
 70
     1
 71
     0
 91
        1
 92
        1
 93
        3
 72
     1
 10
276.3340372030519
 20
138.6347333773422
 11
278.219451834742
 21
138.9489691492905
 72
     1
 10
278.219451834742
 20
138.9489691492905
 11
276.3340372030519
 21
139.2632049212389
 72
     1
 10
276.3340372030519
 20
139.2632049212389
 11
276.3340372030519
 21
138.6347333773422
 97
        0
 75
     2
 76
     1
 98
        0
  0
POLYLINE
  5
117
330
E9
100
AcDbEntity
  8
DEFPOINTS
370
     0
100
AcDb2dPolyline
 66
     1
 10
0.0
 20
0.0
 30
0.0
  0
VERTEX
  5
118
330
117
100
AcDbEntity
  8
DEFPOINTS
370
     0
100
AcDbVertex
100
AcDb2dVertex
 10
206.2708073418242
 20
88.81191319258652
 30
0.0
  0
VERTEX
  5
119
330
117
100
AcDbEntity
  8
DEFPOINTS
370
     0
100
AcDbVertex
100
AcDb2dVertex
 10
206.5850431137726
 20
90.69732782427663
 30
0.0
  0
VERTEX
  5
11A
330
117
100
AcDbEntity
  8
DEFPOINTS
370
     0
100
AcDbVertex
100
AcDb2dVertex
 10
205.9565715698759
 20
90.69732782427663
 30
0.0
  0
VERTEX
  5
11B
330
117
100
AcDbEntity
  8
DEFPOINTS
370
     0
100
AcDbVertex
100
AcDb2dVertex
 10
206.2708073418242
 20
88.81191319258652
 30
0.0
  0
SEQEND
  5
11D
330
117
100
AcDbEntity
  8
DEFPOINTS
370
     0
  0
HATCH
  5
11C
330
E9
100
AcDbEntity
  8
DEFPOINTS
 62
     7
100
AcDbHatch
 10
0.0
 20
0.0
 30
0.0
210
0.0
220
0.0
230
1.0
  2
SOLID
 70
     1
 71
     0
 91
        1
 92
        1
 93
        3
 72
     1
 10
206.2708073418242
 20
88.81191319258652
 11
206.5850431137726
 21
90.69732782427663
 72
     1
 10
206.5850431137726
 20
90.69732782427663
 11
205.9565715698759
 21
90.69732782427663
 72
     1
 10
205.9565715698759
 20
90.69732782427663
 11
206.2708073418242
 21
88.81191319258652
 97
        0
 75
     2
 76
     1
 98
        0
  0
POLYLINE
  5
11E
330
E9
100
AcDbEntity
  8
DEFPOINTS
370
     0
100
AcDb2dPolyline
 66
     1
 10
0.0
 20
0.0
 30
0.0
  0
VERTEX
  5
11F
330
11E
100
AcDbEntity
  8
DEFPOINTS
370
     0
100
AcDbVertex
100
AcDb2dVertex
 10
205.9565715698759
 20
131.8050038326087
 30
0.0
  0
VERTEX
  5
120
330
11E
100
AcDbEntity
  8
DEFPOINTS
370
     0
100
AcDbVertex
100
AcDb2dVertex
 10
206.5850431137726
 20
131.8050038326087
 30
0.0
  0
VERTEX
  5
121
330
11E
100
AcDbEntity
  8
DEFPOINTS
370
     0
100
AcDbVertex
100
AcDb2dVertex
 10
206.2708073418242
 20
133.6904184642987
 30
0.0
  0
VERTEX
  5
122
330
11E
100
AcDbEntity
  8
DEFPOINTS
370
     0
100
AcDbVertex
100
AcDb2dVertex
 10
205.9565715698759
 20
131.8050038326087
 30
0.0
  0
SEQEND
  5
124
330
11E
100
AcDbEntity
  8
DEFPOINTS
370
     0
  0
HATCH
  5
123
330
E9
100
AcDbEntity
  8
DEFPOINTS
 62
     7
100
AcDbHatch
 10
0.0
 20
0.0
 30
0.0
210
0.0
220
0.0
230
1.0
  2
SOLID
 70
     1
 71
     0
 91
        1
 92
        1
 93
        3
 72
     1
 10
205.9565715698759
 20
131.8050038326087
 11
206.5850431137726
 21
131.8050038326087
 72
     1
 10
206.5850431137726
 20
131.8050038326087
 11
206.2708073418242
 21
133.6904184642987
 72
     1
 10
206.2708073418242
 20
133.6904184642987
 11
205.9565715698759
 21
131.8050038326087
 97
        0
 75
     2
 76
     1
 98
        0
  0
POLYLINE
  5
125
330
E9
100
AcDbEntity
  8
DEFPOINTS
370
     0
100
AcDb2dPolyline
 66
     1
 10
0.0
 20
0.0
 30
0.0
  0
VERTEX
  5
126
330
125
100
AcDbEntity
  8
DEFPOINTS
370
     0
100
AcDbVertex
100
AcDb2dVertex
 10
199.3575988271137
 20
138.4039765753708
 30
0.0
  0
VERTEX
  5
127
330
125
100
AcDbEntity
  8
DEFPOINTS
370
     0
100
AcDbVertex
100
AcDb2dVertex
 10
201.2430134588038
 20
138.7182123473191
 30
0.0
  0
VERTEX
  5
128
330
125
100
AcDbEntity
  8
DEFPOINTS
370
     0
100
AcDbVertex
100
AcDb2dVertex
 10
199.3575988271137
 20
139.0324481192675
 30
0.0
  0
VERTEX
  5
129
330
125
100
AcDbEntity
  8
DEFPOINTS
370
     0
100
AcDbVertex
100
AcDb2dVertex
 10
199.3575988271137
 20
138.4039765753708
 30
0.0
  0
SEQEND
  5
12B
330
125
100
AcDbEntity
  8
DEFPOINTS
370
     0
  0
HATCH
  5
12A
330
E9
100
AcDbEntity
  8
DEFPOINTS
 62
     7
100
AcDbHatch
 10
0.0
 20
0.0
 30
0.0
210
0.0
220
0.0
230
1.0
  2
SOLID
 70
     1
 71
     0
 91
        1
 92
        1
 93
        3
 72
     1
 10
199.3575988271137
 20
138.4039765753708
 11
201.2430134588038
 21
138.7182123473191
 72
     1
 10
201.2430134588038
 20
138.7182123473191
 11
199.3575988271137
 21
139.0324481192675
 72
     1
 10
199.3575988271137
 20
139.0324481192675
 11
199.3575988271137
 21
138.4039765753708
 97
        0
 75
     2
 76
     1
 98
        0
  0
POLYLINE
  5
12C
330
E9
100
AcDbEntity
  8
DEFPOINTS
370
     0
100
AcDb2dPolyline
 66
     1
 10
0.0
 20
0.0
 30
0.0
  0
VERTEX
  5
12D
330
12C
100
AcDbEntity
  8
DEFPOINTS
370
     0
100
AcDbVertex
100
AcDb2dVertex
 10
157.3756006483189
 20
138.4039765753708
 30
0.0
  0
VERTEX
  5
12E
330
12C
100
AcDbEntity
  8
DEFPOINTS
370
     0
100
AcDbVertex
100
AcDb2dVertex
 10
157.3756006483189
 20
139.0324481192675
 30
0.0
  0
VERTEX
  5
12F
330
12C
100
AcDbEntity
  8
DEFPOINTS
370
     0
100
AcDbVertex
100
AcDb2dVertex
 10
155.4901860166288
 20
138.7182123473191
 30
0.0
  0
VERTEX
  5
130
330
12C
100
AcDbEntity
  8
DEFPOINTS
370
     0
100
AcDbVertex
100
AcDb2dVertex
 10
157.3756006483189
 20
138.4039765753708
 30
0.0
  0
SEQEND
  5
132
330
12C
100
AcDbEntity
  8
DEFPOINTS
370
     0
  0
HATCH
  5
131
330
E9
100
AcDbEntity
  8
DEFPOINTS
 62
     7
100
AcDbHatch
 10
0.0
 20
0.0
 30
0.0
210
0.0
220
0.0
230
1.0
  2
SOLID
 70
     1
 71
     0
 91
        1
 92
        1
 93
        3
 72
     1
 10
157.3756006483189
 20
138.4039765753708
 11
157.3756006483189
 21
139.0324481192675
 72
     1
 10
157.3756006483189
 20
139.0324481192675
 11
155.4901860166288
 21
138.7182123473191
 72
     1
 10
155.4901860166288
 20
138.7182123473191
 11
157.3756006483189
 21
138.4039765753708
 97
        0
 75
     2
 76
     1
 98
        0
  0
ENDBLK
  5
EC
330
E9
100
AcDbEntity
  8
0
100
AcDbBlockEnd
  0
ENDSEC
  0
SECTION
  2
ENTITIES
  0
INSERT
  5
41
330
1F
100
AcDbEntity
  8
0
100
AcDbBlockReference
  2
block 2
 10
0.0
 20
0.0
 30
0.0
  0
INSERT
  5
4E
330
1F
100
AcDbEntity
  8
0
100
AcDbBlockReference
  2
block 4
 10
0.0
 20
0.0
 30
0.0
  0
INSERT
  5
5E
330
1F
100
AcDbEntity
  8
DEFPOINTS
100
AcDbBlockReference
  2
block 6
 10
0.0
 20
0.0
 30
0.0
  0
INSERT
  5
6C
330
1F
100
AcDbEntity
  8
DEFPOINTS
100
AcDbBlockReference
  2
block 8
 10
0.0
 20
0.0
 30
0.0
  0
INSERT
  5
7A
330
1F
100
AcDbEntity
  8
DEFPOINTS
100
AcDbBlockReference
  2
block 10
 10
0.0
 20
0.0
 30
0.0
  0
INSERT
  5
A2
330
1F
100
AcDbEntity
  8
DEFPOINTS
100
AcDbBlockReference
  2
block 12
 10
0.0
 20
0.0
 30
0.0
  0
INSERT
  5
C1
330
1F
100
AcDbEntity
  8
DEFPOINTS
100
AcDbBlockReference
  2
block 14
 10
0.0
 20
0.0
 30
0.0
  0
INSERT
  5
EA
330
1F
100
AcDbEntity
  8
DEFPOINTS
100
AcDbBlockReference
  2
block 16
 10
0.0
 20
0.0
 30
0.0
  0
ENDSEC
  0
SECTION
  2
OBJECTS
  0
DICTIONARY
  5
C
330
0
100
AcDbDictionary
281
     1
  3
ACAD_GROUP
350
D
  3
ACAD_LAYOUT
350
1A
  3
ACAD_MATERIAL
350
3B
  3
ACAD_MLEADERSTYLE
350
135
  3
ACAD_MLINESTYLE
350
17
  3
ACAD_PLOTSETTINGS
350
19
  3
ACAD_PLOTSTYLENAME
350
E
  3
ACAD_VISUALSTYLE
350
2A
  3
AcDbVariableDictionary
350
133
  0
DICTIONARY
  5
D
102
{ACAD_REACTORS
330
C
102
}
330
C
100
AcDbDictionary
281
     1
  0
DICTIONARY
  5
1A
102
{ACAD_REACTORS
330
C
102
}
330
C
100
AcDbDictionary
281
     1
  3
Layout1
350
1E
  3
Layout2
350
26
  3
Model
350
22
  0
DICTIONARY
  5
3B
102
{ACAD_REACTORS
330
C
102
}
330
C
100
AcDbDictionary
281
     1
  3
ByBlock
350
3D
  3
ByLayer
350
3C
  3
Global
350
3E
  0
DICTIONARY
  5
135
102
{ACAD_REACTORS
330
C
102
}
330
C
100
AcDbDictionary
281
     1
  0
DICTIONARY
  5
17
102
{ACAD_REACTORS
330
C
102
}
330
C
100
AcDbDictionary
281
     1
  3
Standard
350
18
  0
DICTIONARY
  5
19
102
{ACAD_REACTORS
330
C
102
}
330
C
100
AcDbDictionary
281
     1
  0
ACDBDICTIONARYWDFLT
  5
E
102
{ACAD_REACTORS
330
C
102
}
330
C
100
AcDbDictionary
281
     1
  3
Normal
350
F
100
AcDbDictionaryWithDefault
340
F
  0
DICTIONARY
  5
2A
102
{ACAD_REACTORS
330
C
102
}
330
C
100
AcDbDictionary
281
     1
  3
2dWireframe
350
2F
  3
3D Hidden
350
31
  3
3dWireframe
350
30
  3
Basic
350
32
  3
Brighten
350
36
  3
ColorChange
350
3A
  3
Conceptual
350
34
  3
Dim
350
35
  3
Facepattern
350
39
  3
Flat
350
2B
  3
FlatWithEdges
350
2C
  3
Gouraud
350
2D
  3
GouraudWithEdges
350
2E
  3
Linepattern
350
38
  3
Realistic
350
33
  3
Thicken
350
37
  0
DICTIONARY
  5
133
102
{ACAD_REACTORS
330
C
102
}
330
C
100
AcDbDictionary
281
     1
  3
DIMASSOC
350
136
  3
HIDETEXT
350
137
  0
LAYOUT
  5
1E
102
{ACAD_REACTORS
330
1A
102
}
330
1A
100
AcDbPlotSettings
  1

  2
none_device
  4

  6

 40
0.0
 41
0.0
 42
0.0
 43
0.0
 44
0.0
 45
0.0
 46
0.0
 47
0.0
 48
0.0
 49
0.0
140
0.0
141
0.0
142
1.0
143
1.0
 70
   688
 72
     0
 73
     0
 74
     5
  7

 75
    16
147
1.0
148
0.0
149
0.0
100
AcDbLayout
  1
Layout1
 70
     1
 71
     1
 10
0.0
 20
0.0
 11
12.0
 21
9.0
 12
0.0
 22
0.0
 32
0.0
 14
1.000000000000000E+20
 24
1.000000000000000E+20
 34
1.000000000000000E+20
 15
-1.000000000000000E+20
 25
-1.000000000000000E+20
 35
-1.000000000000000E+20
146
0.0
 13
0.0
 23
0.0
 33
0.0
 16
1.0
 26
0.0
 36
0.0
 17
0.0
 27
1.0
 37
0.0
 76
     0
330
1B
  0
LAYOUT
  5
26
102
{ACAD_REACTORS
330
1A
102
}
330
1A
100
AcDbPlotSettings
  1

  2
none_device
  4

  6

 40
0.0
 41
0.0
 42
0.0
 43
0.0
 44
0.0
 45
0.0
 46
0.0
 47
0.0
 48
0.0
 49
0.0
140
0.0
141
0.0
142
1.0
143
1.0
 70
   688
 72
     0
 73
     0
 74
     5
  7

 75
    16
147
1.0
148
0.0
149
0.0
100
AcDbLayout
  1
Layout2
 70
     1
 71
     2
 10
0.0
 20
0.0
 11
0.0
 21
0.0
 12
0.0
 22
0.0
 32
0.0
 14
0.0
 24
0.0
 34
0.0
 15
0.0
 25
0.0
 35
0.0
146
0.0
 13
0.0
 23
0.0
 33
0.0
 16
1.0
 26
0.0
 36
0.0
 17
0.0
 27
1.0
 37
0.0
 76
     0
330
23
  0
LAYOUT
  5
22
102
{ACAD_REACTORS
330
1A
102
}
330
1A
100
AcDbPlotSettings
  1

  2
none_device
  4

  6

 40
0.0
 41
0.0
 42
0.0
 43
0.0
 44
0.0
 45
0.0
 46
0.0
 47
0.0
 48
0.0
 49
0.0
140
0.0
141
0.0
142
1.0
143
1.0
 70
  1712
 72
     0
 73
     0
 74
     0
  7

 75
     0
147
1.0
148
0.0
149
0.0
100
AcDbLayout
  1
Model
 70
     1
 71
     0
 10
0.0
 20
0.0
 11
12.0
 21
9.0
 12
0.0
 22
0.0
 32
0.0
 14
1.000000000000000E+20
 24
1.000000000000000E+20
 34
1.000000000000000E+20
 15
-1.000000000000000E+20
 25
-1.000000000000000E+20
 35
-1.000000000000000E+20
146
0.0
 13
0.0
 23
0.0
 33
0.0
 16
1.0
 26
0.0
 36
0.0
 17
0.0
 27
1.0
 37
0.0
 76
     0
330
1F
331
29
  0
MATERIAL
  5
3D
102
{ACAD_REACTORS
330
3B
102
}
102
{ACAD_XDICTIONARY
360
15A
102
}
330
3B
100
AcDbMaterial
  1
ByBlock
  0
MATERIAL
  5
3C
102
{ACAD_REACTORS
330
3B
102
}
102
{ACAD_XDICTIONARY
360
158
102
}
330
3B
100
AcDbMaterial
  1
ByLayer
  0
MATERIAL
  5
3E
102
{ACAD_REACTORS
330
3B
102
}
102
{ACAD_XDICTIONARY
360
15C
102
}
330
3B
100
AcDbMaterial
  1
Global
  0
MLINESTYLE
  5
18
102
{ACAD_REACTORS
330
17
102
}
330
17
100
AcDbMlineStyle
  2
Standard
 70
     0
  3

 62
   256
 51
90.0
 52
90.0
 71
     2
 49
0.5
 62
   256
  6
BYLAYER
 49
-0.5
 62
   256
  6
BYLAYER
  0
ACDBPLACEHOLDER
  5
F
102
{ACAD_REACTORS
330
E
102
}
330
E
  0
VISUALSTYLE
  5
2F
102
{ACAD_REACTORS
330
2A
102
}
102
{ACAD_XDICTIONARY
360
140
102
}
330
2A
100
AcDbVisualStyle
  2
2dWireframe
 70
     4
 71
     0
 72
     2
 73
     0
 90
        0
 40
-0.6
 41
-30.0
 62
     5
 63
     7
 74
     1
 91
        4
 64
     7
 65
   257
 75
     1
175
     1
 42
1.0
 92
        0
 66
   257
 43
1.0
 76
     1
 77
     6
 78
     2
 67
     7
 79
     5
170
     0
171
     0
290
     0
174
     0
 93
        1
 44
0.0
173
     0
291
     0
 45
0.0
1001
ACAD
1000
AcDbSavedByObjectVersion
1070
     0
  0
VISUALSTYLE
  5
31
102
{ACAD_REACTORS
330
2A
102
}
102
{ACAD_XDICTIONARY
360
144
102
}
330
2A
100
AcDbVisualStyle
  2
3D Hidden
 70
     6
 71
     1
 72
     2
 73
     2
 90
        0
 40
-0.6
 41
-30.0
 62
     5
 63
     7
 74
     2
 91
        2
 64
     7
 65
   257
 75
     2
175
     1
 42
40.0
 92
        0
 66
   257
 43
1.0
 76
     1
 77
     6
 78
     2
 67
     7
 79
     3
170
     0
171
     0
290
     0
174
     0
 93
        1
 44
0.0
173
     0
291
     0
 45
0.0
1001
ACAD
1000
AcDbSavedByObjectVersion
1070
     0
  0
VISUALSTYLE
  5
30
102
{ACAD_REACTORS
330
2A
102
}
102
{ACAD_XDICTIONARY
360
142
102
}
330
2A
100
AcDbVisualStyle
  2
3dWireframe
 70
     5
 71
     0
 72
     2
 73
     0
 90
        0
 40
-0.6
 41
-30.0
 62
     5
 63
     7
 74
     1
 91
        4
 64
     7
 65
   257
 75
     1
175
     1
 42
1.0
 92
        0
 66
   257
 43
1.0
 76
     1
 77
     6
 78
     2
 67
     7
 79
     5
170
     0
171
     0
290
     0
174
     0
 93
        1
 44
0.0
173
     0
291
     0
 45
0.0
1001
ACAD
1000
AcDbSavedByObjectVersion
1070
     0
  0
VISUALSTYLE
  5
32
102
{ACAD_REACTORS
330
2A
102
}
102
{ACAD_XDICTIONARY
360
146
102
}
330
2A
100
AcDbVisualStyle
  2
Basic
 70
     7
 71
     1
 72
     0
 73
     1
 90
        0
 40
-0.6
 41
-30.0
 62
     5
 63
     7
 74
     0
 91
        4
 64
     7
 65
   257
 75
     1
175
     1
 42
1.0
 92
        8
 66
     7
 43
1.0
 76
     1
 77
     6
 78
     2
 67
     7
 79
     5
170
     0
171
     0
290
     0
174
     0
 93
        1
 44
0.0
173
     0
291
     1
 45
0.0
1001
ACAD
1000
AcDbSavedByObjectVersion
1070
     0
  0
VISUALSTYLE
  5
36
102
{ACAD_REACTORS
330
2A
102
}
102
{ACAD_XDICTIONARY
360
14E
102
}
330
2A
100
AcDbVisualStyle
  2
Brighten
 70
    12
 71
     2
 72
     2
 73
     0
 90
        0
 40
-0.6
 41
-30.0
 62
     5
 63
     7
 74
     1
 91
        4
 64
     7
 65
   257
 75
     1
175
     1
 42
1.0
 92
        8
 66
     7
 43
1.0
 76
     1
 77
     6
 78
     2
 67
     7
 79
     5
170
     0
171
     0
290
     0
174
     0
 93
        1
 44
50.0
173
     0
291
     1
 45
0.0
1001
ACAD
1000
AcDbSavedByObjectVersion
1070
     0
  0
VISUALSTYLE
  5
3A
102
{ACAD_REACTORS
330
2A
102
}
102
{ACAD_XDICTIONARY
360
156
102
}
330
2A
100
AcDbVisualStyle
  2
ColorChange
 70
    16
 71
     2
 72
     2
 73
     3
 90
        0
 40
-0.6
 41
-30.0
 62
     5
 63
     8
 74
     1
 91
        4
 64
     7
 65
   257
 75
     1
175
     1
 42
1.0
 92
        8
 66
     8
 43
1.0
 76
     1
 77
     6
 78
     2
 67
     7
 79
     5
170
     0
171
     0
290
     0
174
     0
 93
        1
 44
0.0
173
     0
291
     1
 45
0.0
1001
ACAD
1000
AcDbSavedByObjectVersion
1070
     0
  0
VISUALSTYLE
  5
34
102
{ACAD_REACTORS
330
2A
102
}
102
{ACAD_XDICTIONARY
360
14A
102
}
330
2A
100
AcDbVisualStyle
  2
Conceptual
 70
     9
 71
     3
 72
     2
 73
     0
 90
        0
 40
-0.6
 41
-30.0
 62
     5
 63
     7
 74
     2
 91
        2
 64
     7
 65
   257
 75
     1
175
     1
 42
40.0
 92
        8
 66
     7
 43
1.0
 76
     1
 77
     6
 78
     2
 67
     7
 79
     3
170
     0
171
     0
290
     0
174
     0
 93
        1
 44
0.0
173
     0
291
     0
 45
0.0
1001
ACAD
1000
AcDbSavedByObjectVersion
1070
     0
  0
VISUALSTYLE
  5
35
102
{ACAD_REACTORS
330
2A
102
}
102
{ACAD_XDICTIONARY
360
14C
102
}
330
2A
100
AcDbVisualStyle
  2
Dim
 70
    11
 71
     2
 72
     2
 73
     0
 90
        0
 40
-0.6
 41
-30.0
 62
     5
 63
     7
 74
     1
 91
        4
 64
     7
 65
   257
 75
     1
175
     1
 42
1.0
 92
        8
 66
     7
 43
1.0
 76
     1
 77
     6
 78
     2
 67
     7
 79
     5
170
     0
171
     0
290
     0
174
     0
 93
        1
 44
-50.0
173
     0
291
     1
 45
0.0
1001
ACAD
1000
AcDbSavedByObjectVersion
1070
     0
  0
VISUALSTYLE
  5
39
102
{ACAD_REACTORS
330
2A
102
}
102
{ACAD_XDICTIONARY
360
154
102
}
330
2A
100
AcDbVisualStyle
  2
Facepattern
 70
    15
 71
     2
 72
     2
 73
     0
 90
        0
 40
-0.6
 41
-30.0
 62
     5
 63
     7
 74
     1
 91
        4
 64
     7
 65
   257
 75
     1
175
     1
 42
1.0
 92
        8
 66
     7
 43
1.0
 76
     1
 77
     6
 78
     2
 67
     7
 79
     5
170
     0
171
     0
290
     0
174
     0
 93
        1
 44
0.0
173
     0
291
     1
 45
0.0
1001
ACAD
1000
AcDbSavedByObjectVersion
1070
     0
  0
VISUALSTYLE
  5
2B
102
{ACAD_REACTORS
330
2A
102
}
102
{ACAD_XDICTIONARY
360
138
102
}
330
2A
100
AcDbVisualStyle
  2
Flat
 70
     0
 71
     2
 72
     1
 73
     1
 90
        2
 40
-0.6
 41
30.0
 62
     5
 63
     7
 74
     0
 91
        4
 64
     7
 65
   257
 75
     1
175
     1
 42
1.0
 92
        8
 66
     7
 43
1.0
 76
     1
 77
     6
 78
     2
 67
     7
 79
     5
170
     0
171
     0
290
     0
174
     0
 93
       13
 44
0.0
173
     0
291
     1
 45
0.0
1001
ACAD
1000
AcDbSavedByObjectVersion
1070
     0
  0
VISUALSTYLE
  5
2C
102
{ACAD_REACTORS
330
2A
102
}
102
{ACAD_XDICTIONARY
360
13A
102
}
330
2A
100
AcDbVisualStyle
  2
FlatWithEdges
 70
     1
 71
     2
 72
     1
 73
     1
 90
        2
 40
-0.6
 41
30.0
 62
     5
 63
     7
 74
     1
 91
        4
 64
     7
 65
   257
 75
     1
175
     1
 42
1.0
 92
        0
 66
   257
 43
1.0
 76
     1
 77
     6
 78
     2
 67
     7
 79
     5
170
     0
171
     0
290
     0
174
     0
 93
       13
 44
0.0
173
     0
291
     1
 45
0.0
1001
ACAD
1000
AcDbSavedByObjectVersion
1070
     0
  0
VISUALSTYLE
  5
2D
102
{ACAD_REACTORS
330
2A
102
}
102
{ACAD_XDICTIONARY
360
13C
102
}
330
2A
100
AcDbVisualStyle
  2
Gouraud
 70
     2
 71
     2
 72
     2
 73
     1
 90
        2
 40
-0.6
 41
30.0
 62
     5
 63
     7
 74
     0
 91
        4
 64
     7
 65
   257
 75
     1
175
     1
 42
1.0
 92
        0
 66
     7
 43
1.0
 76
     1
 77
     6
 78
     2
 67
     7
 79
     5
170
     0
171
     0
290
     0
174
     0
 93
       13
 44
0.0
173
     0
291
     1
 45
0.0
1001
ACAD
1000
AcDbSavedByObjectVersion
1070
     0
  0
VISUALSTYLE
  5
2E
102
{ACAD_REACTORS
330
2A
102
}
102
{ACAD_XDICTIONARY
360
13E
102
}
330
2A
100
AcDbVisualStyle
  2
GouraudWithEdges
 70
     3
 71
     2
 72
     2
 73
     1
 90
        2
 40
-0.6
 41
30.0
 62
     5
 63
     7
 74
     1
 91
        4
 64
     7
 65
   257
 75
     1
175
     1
 42
1.0
 92
        0
 66
   257
 43
1.0
 76
     1
 77
     6
 78
     2
 67
     7
 79
     5
170
     0
171
     0
290
     0
174
     0
 93
       13
 44
0.0
173
     0
291
     1
 45
0.0
1001
ACAD
1000
AcDbSavedByObjectVersion
1070
     0
  0
VISUALSTYLE
  5
38
102
{ACAD_REACTORS
330
2A
102
}
102
{ACAD_XDICTIONARY
360
152
102
}
330
2A
100
AcDbVisualStyle
  2
Linepattern
 70
    14
 71
     2
 72
     2
 73
     0
 90
        0
 40
-0.6
 41
-30.0
 62
     5
 63
     7
 74
     1
 91
        4
 64
     7
 65
   257
 75
     7
175
     7
 42
1.0
 92
        8
 66
     7
 43
1.0
 76
     1
 77
     6
 78
     2
 67
     7
 79
     5
170
     0
171
     0
290
     0
174
     0
 93
        1
 44
0.0
173
     0
291
     1
 45
0.0
1001
ACAD
1000
AcDbSavedByObjectVersion
1070
     0
  0
VISUALSTYLE
  5
33
102
{ACAD_REACTORS
330
2A
102
}
102
{ACAD_XDICTIONARY
360
148
102
}
330
2A
100
AcDbVisualStyle
  2
Realistic
 70
     8
 71
     2
 72
     2
 73
     0
 90
        0
 40
-0.6
 41
-30.0
 62
     5
 63
     7
 74
     1
 91
        0
 64
     7
 65
   257
 75
     1
175
     1
 42
1.0
 92
        8
 66
     8
 43
1.0
 76
     1
 77
     6
 78
     2
 67
     7
 79
     5
170
     0
171
     0
290
     0
174
     0
 93
       13
 44
0.0
173
     0
291
     0
 45
0.0
1001
ACAD
1000
AcDbSavedByObjectVersion
1070
     0
  0
VISUALSTYLE
  5
37
102
{ACAD_REACTORS
330
2A
102
}
102
{ACAD_XDICTIONARY
360
150
102
}
330
2A
100
AcDbVisualStyle
  2
Thicken
 70
    13
 71
     2
 72
     2
 73
     0
 90
        0
 40
-0.6
 41
-30.0
 62
     5
 63
     7
 74
     1
 91
        4
 64
     7
 65
   257
 75
     1
175
     1
 42
1.0
 92
       12
 66
     7
 43
1.0
 76
     1
 77
     6
 78
     2
 67
     7
 79
     5
170
     0
171
     0
290
     0
174
     0
 93
        1
 44
0.0
173
     0
291
     1
 45
0.0
1001
ACAD
1000
AcDbSavedByObjectVersion
1070
     0
  0
DICTIONARYVAR
  5
136
102
{ACAD_REACTORS
330
133
102
}
330
133
100
DictionaryVariables
280
     0
  1
2
  0
DICTIONARYVAR
  5
137
102
{ACAD_REACTORS
330
133
102
}
330
133
100
DictionaryVariables
280
     0
  1
1
  0
DICTIONARY
  5
15A
330
3D
100
AcDbDictionary
280
     1
281
     1
  3
ACAD_XREC_ROUNDTRIP
360
15B
  0
DICTIONARY
  5
158
330
3C
100
AcDbDictionary
280
     1
281
     1
  3
ACAD_XREC_ROUNDTRIP
360
159
  0
DICTIONARY
  5
15C
330
3E
100
AcDbDictionary
280
     1
281
     1
  3
ACAD_XREC_ROUNDTRIP
360
15D
  0
DICTIONARY
  5
140
330
2F
100
AcDbDictionary
280
     1
281
     1
  3
ACAD_XREC_ROUNDTRIP
360
141
  0
DICTIONARY
  5
144
330
31
100
AcDbDictionary
280
     1
281
     1
  3
ACAD_XREC_ROUNDTRIP
360
145
  0
DICTIONARY
  5
142
330
30
100
AcDbDictionary
280
     1
281
     1
  3
ACAD_XREC_ROUNDTRIP
360
143
  0
DICTIONARY
  5
146
330
32
100
AcDbDictionary
280
     1
281
     1
  3
ACAD_XREC_ROUNDTRIP
360
147
  0
DICTIONARY
  5
14E
330
36
100
AcDbDictionary
280
     1
281
     1
  3
ACAD_XREC_ROUNDTRIP
360
14F
  0
DICTIONARY
  5
156
330
3A
100
AcDbDictionary
280
     1
281
     1
  3
ACAD_XREC_ROUNDTRIP
360
157
  0
DICTIONARY
  5
14A
330
34
100
AcDbDictionary
280
     1
281
     1
  3
ACAD_XREC_ROUNDTRIP
360
14B
  0
DICTIONARY
  5
14C
330
35
100
AcDbDictionary
280
     1
281
     1
  3
ACAD_XREC_ROUNDTRIP
360
14D
  0
DICTIONARY
  5
154
330
39
100
AcDbDictionary
280
     1
281
     1
  3
ACAD_XREC_ROUNDTRIP
360
155
  0
DICTIONARY
  5
138
330
2B
100
AcDbDictionary
280
     1
281
     1
  3
ACAD_XREC_ROUNDTRIP
360
139
  0
DICTIONARY
  5
13A
330
2C
100
AcDbDictionary
280
     1
281
     1
  3
ACAD_XREC_ROUNDTRIP
360
13B
  0
DICTIONARY
  5
13C
330
2D
100
AcDbDictionary
280
     1
281
     1
  3
ACAD_XREC_ROUNDTRIP
360
13D
  0
DICTIONARY
  5
13E
330
2E
100
AcDbDictionary
280
     1
281
     1
  3
ACAD_XREC_ROUNDTRIP
360
13F
  0
DICTIONARY
  5
152
330
38
100
AcDbDictionary
280
     1
281
     1
  3
ACAD_XREC_ROUNDTRIP
360
153
  0
DICTIONARY
  5
148
330
33
100
AcDbDictionary
280
     1
281
     1
  3
ACAD_XREC_ROUNDTRIP
360
149
  0
DICTIONARY
  5
150
330
37
100
AcDbDictionary
280
     1
281
     1
  3
ACAD_XREC_ROUNDTRIP
360
151
  0
XRECORD
  5
15B
102
{ACAD_REACTORS
330
15A
102
}
330
15A
100
AcDbXrecord
280
     1
102
MATERIAL
148
0.0
149
0.0
149
0.0
 93
        0
 94
      127
282
     0
 72
     1
 77
     1
171
     1
175
     1
179
     1
273
     0
  0
XRECORD
  5
159
102
{ACAD_REACTORS
330
158
102
}
330
158
100
AcDbXrecord
280
     1
102
MATERIAL
148
0.0
149
0.0
149
0.0
 93
        0
 94
      127
282
     0
 72
     1
 77
     1
171
     1
175
     1
179
     1
273
     0
  0
XRECORD
  5
15D
102
{ACAD_REACTORS
330
15C
102
}
330
15C
100
AcDbXrecord
280
     1
102
MATERIAL
148
0.0
149
0.0
149
0.0
 93
        0
 94
      127
282
     0
 72
     1
 77
     1
171
     1
175
     1
179
     1
273
     0
  0
XRECORD
  5
141
102
{ACAD_REACTORS
330
140
102
}
330
140
100
AcDbXrecord
280
     1
102
RTVSPropertyOp0
 70
     1
102
RTVSPropertyOp1
 70
     1
102
RTVSPropertyOp2
 70
     1
102
RTVSPropertyOp3
 70
     1
102
RTVSPropertyOp4
 70
     1
102
RTVSPropertyOp5
 70
     1
102
RTVSPropertyOp6
 70
     1
102
RTVSPropertyOp7
 70
     1
102
RTVSPropertyOp8
 70
     1
102
RTVSPropertyOp9
 70
     1
102
RTVSPropertyOp10
 70
     1
102
RTVSPropertyOp11
 70
     1
102
RTVSPropertyOp12
 70
     1
102
RTVSPropertyOp13
 70
     1
102
RTVSPropertyOp14
 70
     1
102
RTVSPropertyOp15
 70
     1
102
RTVSPropertyOp16
 70
     1
102
RTVSPropertyOp17
 70
     1
102
RTVSPropertyOp18
 70
     1
102
RTVSPropertyOp19
 70
     1
102
RTVSPropertyOp20
 70
     1
102
RTVSPropertyOp21
 70
     1
102
RTVSPropertyOp22
 70
     1
102
RTVSPropertyOp23
 70
     1
102
RTVSPropertyOp24
 70
     1
102
RTVSPropertyOp25
 70
     1
102
RTVSPropertyOp26
 70
     1
102
RTVSPropertyOp27
 70
     1
102
RTVSPropertyOp28
 70
     1
102
RTVSPropertyOp29
 70
     1
102
RTVSPropertyOp30
 70
     1
102
RTVSPropertyOp31
 70
     1
102
RTVSPropertyOp32
 70
     1
  0
XRECORD
  5
145
102
{ACAD_REACTORS
330
144
102
}
330
144
100
AcDbXrecord
280
     1
102
RTVSPropertyOp0
 70
     1
102
RTVSPropertyOp1
 70
     1
102
RTVSPropertyOp2
 70
     1
102
RTVSPropertyOp3
 70
     1
102
RTVSPropertyOp4
 70
     1
102
RTVSPropertyOp5
 70
     1
102
RTVSPropertyOp6
 70
     1
102
RTVSPropertyOp7
 70
     1
102
RTVSPropertyOp8
 70
     1
102
RTVSPropertyOp9
 70
     1
102
RTVSPropertyOp10
 70
     1
102
RTVSPropertyOp11
 70
     1
102
RTVSPropertyOp12
 70
     1
102
RTVSPropertyOp13
 70
     1
102
RTVSPropertyOp14
 70
     1
102
RTVSPropertyOp15
 70
     1
102
RTVSPropertyOp16
 70
     1
102
RTVSPropertyOp17
 70
     1
102
RTVSPropertyOp18
 70
     1
102
RTVSPropertyOp19
 70
     1
102
RTVSPropertyOp20
 70
     1
102
RTVSPropertyOp21
 70
     1
102
RTVSPropertyOp22
 70
     1
102
RTVSPropertyOp23
 70
     1
102
RTVSPropertyOp24
 70
     1
102
RTVSPropertyOp25
 70
     1
102
RTVSPropertyOp26
 70
     1
102
RTVSPropertyOp27
 70
     1
102
RTVSPropertyOp28
 70
     1
102
RTVSPropertyOp29
 70
     1
102
RTVSPropertyOp30
 70
     1
102
RTVSPropertyOp31
 70
     1
102
RTVSPropertyOp32
 70
     1
  0
XRECORD
  5
143
102
{ACAD_REACTORS
330
142
102
}
330
142
100
AcDbXrecord
280
     1
102
RTVSPropertyOp0
 70
     1
102
RTVSPropertyOp1
 70
     1
102
RTVSPropertyOp2
 70
     1
102
RTVSPropertyOp3
 70
     1
102
RTVSPropertyOp4
 70
     1
102
RTVSPropertyOp5
 70
     1
102
RTVSPropertyOp6
 70
     1
102
RTVSPropertyOp7
 70
     1
102
RTVSPropertyOp8
 70
     1
102
RTVSPropertyOp9
 70
     1
102
RTVSPropertyOp10
 70
     1
102
RTVSPropertyOp11
 70
     1
102
RTVSPropertyOp12
 70
     1
102
RTVSPropertyOp13
 70
     1
102
RTVSPropertyOp14
 70
     1
102
RTVSPropertyOp15
 70
     1
102
RTVSPropertyOp16
 70
     1
102
RTVSPropertyOp17
 70
     1
102
RTVSPropertyOp18
 70
     1
102
RTVSPropertyOp19
 70
     1
102
RTVSPropertyOp20
 70
     1
102
RTVSPropertyOp21
 70
     1
102
RTVSPropertyOp22
 70
     1
102
RTVSPropertyOp23
 70
     1
102
RTVSPropertyOp24
 70
     1
102
RTVSPropertyOp25
 70
     1
102
RTVSPropertyOp26
 70
     1
102
RTVSPropertyOp27
 70
     1
102
RTVSPropertyOp28
 70
     1
102
RTVSPropertyOp29
 70
     1
102
RTVSPropertyOp30
 70
     1
102
RTVSPropertyOp31
 70
     1
102
RTVSPropertyOp32
 70
     1
  0
XRECORD
  5
147
102
{ACAD_REACTORS
330
146
102
}
330
146
100
AcDbXrecord
280
     1
102
RTVSPropertyOp0
 70
     1
102
RTVSPropertyOp1
 70
     1
102
RTVSPropertyOp2
 70
     1
102
RTVSPropertyOp3
 70
     1
102
RTVSPropertyOp4
 70
     1
102
RTVSPropertyOp5
 70
     1
102
RTVSPropertyOp6
 70
     1
102
RTVSPropertyOp7
 70
     1
102
RTVSPropertyOp8
 70
     1
102
RTVSPropertyOp9
 70
     1
102
RTVSPropertyOp10
 70
     1
102
RTVSPropertyOp11
 70
     1
102
RTVSPropertyOp12
 70
     1
102
RTVSPropertyOp13
 70
     1
102
RTVSPropertyOp14
 70
     1
102
RTVSPropertyOp15
 70
     1
102
RTVSPropertyOp16
 70
     1
102
RTVSPropertyOp17
 70
     1
102
RTVSPropertyOp18
 70
     1
102
RTVSPropertyOp19
 70
     1
102
RTVSPropertyOp20
 70
     1
102
RTVSPropertyOp21
 70
     1
102
RTVSPropertyOp22
 70
     1
102
RTVSPropertyOp23
 70
     1
102
RTVSPropertyOp24
 70
     1
102
RTVSPropertyOp25
 70
     1
102
RTVSPropertyOp26
 70
     1
102
RTVSPropertyOp27
 70
     1
102
RTVSPropertyOp28
 70
     1
102
RTVSPropertyOp29
 70
     1
102
RTVSPropertyOp30
 70
     1
102
RTVSPropertyOp31
 70
     1
102
RTVSPropertyOp32
 70
     1
  0
XRECORD
  5
14F
102
{ACAD_REACTORS
330
14E
102
}
330
14E
100
AcDbXrecord
280
     1
102
RTVSPropertyOp0
 70
     1
102
RTVSPropertyOp1
 70
     1
102
RTVSPropertyOp2
 70
     1
102
RTVSPropertyOp3
 70
     1
102
RTVSPropertyOp4
 70
     1
102
RTVSPropertyOp5
 70
     1
102
RTVSPropertyOp6
 70
     1
102
RTVSPropertyOp7
 70
     1
102
RTVSPropertyOp8
 70
     1
102
RTVSPropertyOp9
 70
     1
102
RTVSPropertyOp10
 70
     1
102
RTVSPropertyOp11
 70
     1
102
RTVSPropertyOp12
 70
     1
102
RTVSPropertyOp13
 70
     1
102
RTVSPropertyOp14
 70
     1
102
RTVSPropertyOp15
 70
     1
102
RTVSPropertyOp16
 70
     1
102
RTVSPropertyOp17
 70
     1
102
RTVSPropertyOp18
 70
     1
102
RTVSPropertyOp19
 70
     1
102
RTVSPropertyOp20
 70
     1
102
RTVSPropertyOp21
 70
     1
102
RTVSPropertyOp22
 70
     1
102
RTVSPropertyOp23
 70
     1
102
RTVSPropertyOp24
 70
     1
102
RTVSPropertyOp25
 70
     1
102
RTVSPropertyOp26
 70
     1
102
RTVSPropertyOp27
 70
     1
102
RTVSPropertyOp28
 70
     1
102
RTVSPropertyOp29
 70
     1
102
RTVSPropertyOp30
 70
     1
102
RTVSPropertyOp31
 70
     1
102
RTVSPropertyOp32
 70
     1
  0
XRECORD
  5
157
102
{ACAD_REACTORS
330
156
102
}
330
156
100
AcDbXrecord
280
     1
102
RTVSPropertyOp0
 70
     1
102
RTVSPropertyOp1
 70
     1
102
RTVSPropertyOp2
 70
     1
102
RTVSPropertyOp3
 70
     1
102
RTVSPropertyOp4
 70
     1
102
RTVSPropertyOp5
 70
     1
102
RTVSPropertyOp6
 70
     1
102
RTVSPropertyOp7
 70
     1
102
RTVSPropertyOp8
 70
     1
102
RTVSPropertyOp9
 70
     1
102
RTVSPropertyOp10
 70
     1
102
RTVSPropertyOp11
 70
     1
102
RTVSPropertyOp12
 70
     1
102
RTVSPropertyOp13
 70
     1
102
RTVSPropertyOp14
 70
     1
102
RTVSPropertyOp15
 70
     1
102
RTVSPropertyOp16
 70
     1
102
RTVSPropertyOp17
 70
     1
102
RTVSPropertyOp18
 70
     1
102
RTVSPropertyOp19
 70
     1
102
RTVSPropertyOp20
 70
     1
102
RTVSPropertyOp21
 70
     1
102
RTVSPropertyOp22
 70
     1
102
RTVSPropertyOp23
 70
     1
102
RTVSPropertyOp24
 70
     1
102
RTVSPropertyOp25
 70
     1
102
RTVSPropertyOp26
 70
     1
102
RTVSPropertyOp27
 70
     1
102
RTVSPropertyOp28
 70
     1
102
RTVSPropertyOp29
 70
     1
102
RTVSPropertyOp30
 70
     1
102
RTVSPropertyOp31
 70
     1
102
RTVSPropertyOp32
 70
     1
  0
XRECORD
  5
14B
102
{ACAD_REACTORS
330
14A
102
}
330
14A
100
AcDbXrecord
280
     1
102
RTVSPropertyOp0
 70
     1
102
RTVSPropertyOp1
 70
     1
102
RTVSPropertyOp2
 70
     1
102
RTVSPropertyOp3
 70
     1
102
RTVSPropertyOp4
 70
     1
102
RTVSPropertyOp5
 70
     1
102
RTVSPropertyOp6
 70
     1
102
RTVSPropertyOp7
 70
     1
102
RTVSPropertyOp8
 70
     1
102
RTVSPropertyOp9
 70
     1
102
RTVSPropertyOp10
 70
     1
102
RTVSPropertyOp11
 70
     1
102
RTVSPropertyOp12
 70
     1
102
RTVSPropertyOp13
 70
     1
102
RTVSPropertyOp14
 70
     1
102
RTVSPropertyOp15
 70
     1
102
RTVSPropertyOp16
 70
     1
102
RTVSPropertyOp17
 70
     1
102
RTVSPropertyOp18
 70
     1
102
RTVSPropertyOp19
 70
     1
102
RTVSPropertyOp20
 70
     1
102
RTVSPropertyOp21
 70
     1
102
RTVSPropertyOp22
 70
     1
102
RTVSPropertyOp23
 70
     1
102
RTVSPropertyOp24
 70
     1
102
RTVSPropertyOp25
 70
     1
102
RTVSPropertyOp26
 70
     1
102
RTVSPropertyOp27
 70
     1
102
RTVSPropertyOp28
 70
     1
102
RTVSPropertyOp29
 70
     1
102
RTVSPropertyOp30
 70
     1
102
RTVSPropertyOp31
 70
     1
102
RTVSPropertyOp32
 70
     1
  0
XRECORD
  5
14D
102
{ACAD_REACTORS
330
14C
102
}
330
14C
100
AcDbXrecord
280
     1
102
RTVSPropertyOp0
 70
     1
102
RTVSPropertyOp1
 70
     1
102
RTVSPropertyOp2
 70
     1
102
RTVSPropertyOp3
 70
     1
102
RTVSPropertyOp4
 70
     1
102
RTVSPropertyOp5
 70
     1
102
RTVSPropertyOp6
 70
     1
102
RTVSPropertyOp7
 70
     1
102
RTVSPropertyOp8
 70
     1
102
RTVSPropertyOp9
 70
     1
102
RTVSPropertyOp10
 70
     1
102
RTVSPropertyOp11
 70
     1
102
RTVSPropertyOp12
 70
     1
102
RTVSPropertyOp13
 70
     1
102
RTVSPropertyOp14
 70
     1
102
RTVSPropertyOp15
 70
     1
102
RTVSPropertyOp16
 70
     1
102
RTVSPropertyOp17
 70
     1
102
RTVSPropertyOp18
 70
     1
102
RTVSPropertyOp19
 70
     1
102
RTVSPropertyOp20
 70
     1
102
RTVSPropertyOp21
 70
     1
102
RTVSPropertyOp22
 70
     1
102
RTVSPropertyOp23
 70
     1
102
RTVSPropertyOp24
 70
     1
102
RTVSPropertyOp25
 70
     1
102
RTVSPropertyOp26
 70
     1
102
RTVSPropertyOp27
 70
     1
102
RTVSPropertyOp28
 70
     1
102
RTVSPropertyOp29
 70
     1
102
RTVSPropertyOp30
 70
     1
102
RTVSPropertyOp31
 70
     1
102
RTVSPropertyOp32
 70
     1
  0
XRECORD
  5
155
102
{ACAD_REACTORS
330
154
102
}
330
154
100
AcDbXrecord
280
     1
102
RTVSPropertyOp0
 70
     1
102
RTVSPropertyOp1
 70
     1
102
RTVSPropertyOp2
 70
     1
102
RTVSPropertyOp3
 70
     1
102
RTVSPropertyOp4
 70
     1
102
RTVSPropertyOp5
 70
     1
102
RTVSPropertyOp6
 70
     1
102
RTVSPropertyOp7
 70
     1
102
RTVSPropertyOp8
 70
     1
102
RTVSPropertyOp9
 70
     1
102
RTVSPropertyOp10
 70
     1
102
RTVSPropertyOp11
 70
     1
102
RTVSPropertyOp12
 70
     1
102
RTVSPropertyOp13
 70
     1
102
RTVSPropertyOp14
 70
     1
102
RTVSPropertyOp15
 70
     1
102
RTVSPropertyOp16
 70
     1
102
RTVSPropertyOp17
 70
     1
102
RTVSPropertyOp18
 70
     1
102
RTVSPropertyOp19
 70
     1
102
RTVSPropertyOp20
 70
     1
102
RTVSPropertyOp21
 70
     1
102
RTVSPropertyOp22
 70
     1
102
RTVSPropertyOp23
 70
     1
102
RTVSPropertyOp24
 70
     1
102
RTVSPropertyOp25
 70
     1
102
RTVSPropertyOp26
 70
     1
102
RTVSPropertyOp27
 70
     1
102
RTVSPropertyOp28
 70
     1
102
RTVSPropertyOp29
 70
     1
102
RTVSPropertyOp30
 70
     1
102
RTVSPropertyOp31
 70
     1
102
RTVSPropertyOp32
 70
     1
  0
XRECORD
  5
139
102
{ACAD_REACTORS
330
138
102
}
330
138
100
AcDbXrecord
280
     1
102
RTVSPropertyOp0
 70
     1
102
RTVSPropertyOp1
 70
     1
102
RTVSPropertyOp2
 70
     1
102
RTVSPropertyOp3
 70
     1
102
RTVSPropertyOp4
 70
     1
102
RTVSPropertyOp5
 70
     1
102
RTVSPropertyOp6
 70
     1
102
RTVSPropertyOp7
 70
     1
102
RTVSPropertyOp8
 70
     1
102
RTVSPropertyOp9
 70
     1
102
RTVSPropertyOp10
 70
     1
102
RTVSPropertyOp11
 70
     1
102
RTVSPropertyOp12
 70
     1
102
RTVSPropertyOp13
 70
     1
102
RTVSPropertyOp14
 70
     1
102
RTVSPropertyOp15
 70
     1
102
RTVSPropertyOp16
 70
     1
102
RTVSPropertyOp17
 70
     1
102
RTVSPropertyOp18
 70
     1
102
RTVSPropertyOp19
 70
     1
102
RTVSPropertyOp20
 70
     1
102
RTVSPropertyOp21
 70
     1
102
RTVSPropertyOp22
 70
     1
102
RTVSPropertyOp23
 70
     1
102
RTVSPropertyOp24
 70
     1
102
RTVSPropertyOp25
 70
     1
102
RTVSPropertyOp26
 70
     1
102
RTVSPropertyOp27
 70
     1
102
RTVSPropertyOp28
 70
     1
102
RTVSPropertyOp29
 70
     1
102
RTVSPropertyOp30
 70
     1
102
RTVSPropertyOp31
 70
     1
102
RTVSPropertyOp32
 70
     1
  0
XRECORD
  5
13B
102
{ACAD_REACTORS
330
13A
102
}
330
13A
100
AcDbXrecord
280
     1
102
RTVSPropertyOp0
 70
     1
102
RTVSPropertyOp1
 70
     1
102
RTVSPropertyOp2
 70
     1
102
RTVSPropertyOp3
 70
     1
102
RTVSPropertyOp4
 70
     1
102
RTVSPropertyOp5
 70
     1
102
RTVSPropertyOp6
 70
     1
102
RTVSPropertyOp7
 70
     1
102
RTVSPropertyOp8
 70
     1
102
RTVSPropertyOp9
 70
     1
102
RTVSPropertyOp10
 70
     1
102
RTVSPropertyOp11
 70
     1
102
RTVSPropertyOp12
 70
     1
102
RTVSPropertyOp13
 70
     1
102
RTVSPropertyOp14
 70
     1
102
RTVSPropertyOp15
 70
     1
102
RTVSPropertyOp16
 70
     1
102
RTVSPropertyOp17
 70
     1
102
RTVSPropertyOp18
 70
     1
102
RTVSPropertyOp19
 70
     1
102
RTVSPropertyOp20
 70
     1
102
RTVSPropertyOp21
 70
     1
102
RTVSPropertyOp22
 70
     1
102
RTVSPropertyOp23
 70
     1
102
RTVSPropertyOp24
 70
     1
102
RTVSPropertyOp25
 70
     1
102
RTVSPropertyOp26
 70
     1
102
RTVSPropertyOp27
 70
     1
102
RTVSPropertyOp28
 70
     1
102
RTVSPropertyOp29
 70
     1
102
RTVSPropertyOp30
 70
     1
102
RTVSPropertyOp31
 70
     1
102
RTVSPropertyOp32
 70
     1
  0
XRECORD
  5
13D
102
{ACAD_REACTORS
330
13C
102
}
330
13C
100
AcDbXrecord
280
     1
102
RTVSPropertyOp0
 70
     1
102
RTVSPropertyOp1
 70
     1
102
RTVSPropertyOp2
 70
     1
102
RTVSPropertyOp3
 70
     1
102
RTVSPropertyOp4
 70
     1
102
RTVSPropertyOp5
 70
     1
102
RTVSPropertyOp6
 70
     1
102
RTVSPropertyOp7
 70
     1
102
RTVSPropertyOp8
 70
     1
102
RTVSPropertyOp9
 70
     1
102
RTVSPropertyOp10
 70
     1
102
RTVSPropertyOp11
 70
     1
102
RTVSPropertyOp12
 70
     1
102
RTVSPropertyOp13
 70
     1
102
RTVSPropertyOp14
 70
     1
102
RTVSPropertyOp15
 70
     1
102
RTVSPropertyOp16
 70
     1
102
RTVSPropertyOp17
 70
     1
102
RTVSPropertyOp18
 70
     1
102
RTVSPropertyOp19
 70
     1
102
RTVSPropertyOp20
 70
     1
102
RTVSPropertyOp21
 70
     1
102
RTVSPropertyOp22
 70
     1
102
RTVSPropertyOp23
 70
     1
102
RTVSPropertyOp24
 70
     1
102
RTVSPropertyOp25
 70
     1
102
RTVSPropertyOp26
 70
     1
102
RTVSPropertyOp27
 70
     1
102
RTVSPropertyOp28
 70
     1
102
RTVSPropertyOp29
 70
     1
102
RTVSPropertyOp30
 70
     1
102
RTVSPropertyOp31
 70
     1
102
RTVSPropertyOp32
 70
     1
  0
XRECORD
  5
13F
102
{ACAD_REACTORS
330
13E
102
}
330
13E
100
AcDbXrecord
280
     1
102
RTVSPropertyOp0
 70
     1
102
RTVSPropertyOp1
 70
     1
102
RTVSPropertyOp2
 70
     1
102
RTVSPropertyOp3
 70
     1
102
RTVSPropertyOp4
 70
     1
102
RTVSPropertyOp5
 70
     1
102
RTVSPropertyOp6
 70
     1
102
RTVSPropertyOp7
 70
     1
102
RTVSPropertyOp8
 70
     1
102
RTVSPropertyOp9
 70
     1
102
RTVSPropertyOp10
 70
     1
102
RTVSPropertyOp11
 70
     1
102
RTVSPropertyOp12
 70
     1
102
RTVSPropertyOp13
 70
     1
102
RTVSPropertyOp14
 70
     1
102
RTVSPropertyOp15
 70
     1
102
RTVSPropertyOp16
 70
     1
102
RTVSPropertyOp17
 70
     1
102
RTVSPropertyOp18
 70
     1
102
RTVSPropertyOp19
 70
     1
102
RTVSPropertyOp20
 70
     1
102
RTVSPropertyOp21
 70
     1
102
RTVSPropertyOp22
 70
     1
102
RTVSPropertyOp23
 70
     1
102
RTVSPropertyOp24
 70
     1
102
RTVSPropertyOp25
 70
     1
102
RTVSPropertyOp26
 70
     1
102
RTVSPropertyOp27
 70
     1
102
RTVSPropertyOp28
 70
     1
102
RTVSPropertyOp29
 70
     1
102
RTVSPropertyOp30
 70
     1
102
RTVSPropertyOp31
 70
     1
102
RTVSPropertyOp32
 70
     1
  0
XRECORD
  5
153
102
{ACAD_REACTORS
330
152
102
}
330
152
100
AcDbXrecord
280
     1
102
RTVSPropertyOp0
 70
     1
102
RTVSPropertyOp1
 70
     1
102
RTVSPropertyOp2
 70
     1
102
RTVSPropertyOp3
 70
     1
102
RTVSPropertyOp4
 70
     1
102
RTVSPropertyOp5
 70
     1
102
RTVSPropertyOp6
 70
     1
102
RTVSPropertyOp7
 70
     1
102
RTVSPropertyOp8
 70
     1
102
RTVSPropertyOp9
 70
     1
102
RTVSPropertyOp10
 70
     1
102
RTVSPropertyOp11
 70
     1
102
RTVSPropertyOp12
 70
     1
102
RTVSPropertyOp13
 70
     1
102
RTVSPropertyOp14
 70
     1
102
RTVSPropertyOp15
 70
     1
102
RTVSPropertyOp16
 70
     1
102
RTVSPropertyOp17
 70
     1
102
RTVSPropertyOp18
 70
     1
102
RTVSPropertyOp19
 70
     1
102
RTVSPropertyOp20
 70
     1
102
RTVSPropertyOp21
 70
     1
102
RTVSPropertyOp22
 70
     1
102
RTVSPropertyOp23
 70
     1
102
RTVSPropertyOp24
 70
     1
102
RTVSPropertyOp25
 70
     1
102
RTVSPropertyOp26
 70
     1
102
RTVSPropertyOp27
 70
     1
102
RTVSPropertyOp28
 70
     1
102
RTVSPropertyOp29
 70
     1
102
RTVSPropertyOp30
 70
     1
102
RTVSPropertyOp31
 70
     1
102
RTVSPropertyOp32
 70
     1
  0
XRECORD
  5
149
102
{ACAD_REACTORS
330
148
102
}
330
148
100
AcDbXrecord
280
     1
102
RTVSPropertyOp0
 70
     1
102
RTVSPropertyOp1
 70
     1
102
RTVSPropertyOp2
 70
     1
102
RTVSPropertyOp3
 70
     1
102
RTVSPropertyOp4
 70
     1
102
RTVSPropertyOp5
 70
     1
102
RTVSPropertyOp6
 70
     1
102
RTVSPropertyOp7
 70
     1
102
RTVSPropertyOp8
 70
     1
102
RTVSPropertyOp9
 70
     1
102
RTVSPropertyOp10
 70
     1
102
RTVSPropertyOp11
 70
     1
102
RTVSPropertyOp12
 70
     1
102
RTVSPropertyOp13
 70
     1
102
RTVSPropertyOp14
 70
     1
102
RTVSPropertyOp15
 70
     1
102
RTVSPropertyOp16
 70
     1
102
RTVSPropertyOp17
 70
     1
102
RTVSPropertyOp18
 70
     1
102
RTVSPropertyOp19
 70
     1
102
RTVSPropertyOp20
 70
     1
102
RTVSPropertyOp21
 70
     1
102
RTVSPropertyOp22
 70
     1
102
RTVSPropertyOp23
 70
     1
102
RTVSPropertyOp24
 70
     1
102
RTVSPropertyOp25
 70
     1
102
RTVSPropertyOp26
 70
     1
102
RTVSPropertyOp27
 70
     1
102
RTVSPropertyOp28
 70
     1
102
RTVSPropertyOp29
 70
     1
102
RTVSPropertyOp30
 70
     1
102
RTVSPropertyOp31
 70
     1
102
RTVSPropertyOp32
 70
     1
  0
XRECORD
  5
151
102
{ACAD_REACTORS
330
150
102
}
330
150
100
AcDbXrecord
280
     1
102
RTVSPropertyOp0
 70
     1
102
RTVSPropertyOp1
 70
     1
102
RTVSPropertyOp2
 70
     1
102
RTVSPropertyOp3
 70
     1
102
RTVSPropertyOp4
 70
     1
102
RTVSPropertyOp5
 70
     1
102
RTVSPropertyOp6
 70
     1
102
RTVSPropertyOp7
 70
     1
102
RTVSPropertyOp8
 70
     1
102
RTVSPropertyOp9
 70
     1
102
RTVSPropertyOp10
 70
     1
102
RTVSPropertyOp11
 70
     1
102
RTVSPropertyOp12
 70
     1
102
RTVSPropertyOp13
 70
     1
102
RTVSPropertyOp14
 70
     1
102
RTVSPropertyOp15
 70
     1
102
RTVSPropertyOp16
 70
     1
102
RTVSPropertyOp17
 70
     1
102
RTVSPropertyOp18
 70
     1
102
RTVSPropertyOp19
 70
     1
102
RTVSPropertyOp20
 70
     1
102
RTVSPropertyOp21
 70
     1
102
RTVSPropertyOp22
 70
     1
102
RTVSPropertyOp23
 70
     1
102
RTVSPropertyOp24
 70
     1
102
RTVSPropertyOp25
 70
     1
102
RTVSPropertyOp26
 70
     1
102
RTVSPropertyOp27
 70
     1
102
RTVSPropertyOp28
 70
     1
102
RTVSPropertyOp29
 70
     1
102
RTVSPropertyOp30
 70
     1
102
RTVSPropertyOp31
 70
     1
102
RTVSPropertyOp32
 70
     1
  0
ENDSEC
  0
EOF
