  0
SECTION
  2
HEADER
  9
$ACADVER
  1
AC1027
  9
$ACADMAINTVER
 70
   125
  9
$DWGCODEPAGE
  3
ANSI_1252
  9
$REQUIREDVERSIONS
160
                 0
  9
$INSBASE
 10
0.0
 20
0.0
 30
0.0
  9
$EXTMIN
 10
1.000000000000000E+20
 20
1.000000000000000E+20
 30
1.000000000000000E+20
  9
$EXTMAX
 10
-1.000000000000000E+20
 20
-1.000000000000000E+20
 30
-1.000000000000000E+20
  9
$LIMMIN
 10
0.0
 20
0.0
  9
$LIMMAX
 10
12.0
 20
9.0
  9
$ORTHOMODE
 70
     0
  9
$REGENMODE
 70
     1
  9
$FILLMODE
 70
     1
  9
$QTEXTMODE
 70
     0
  9
$MIRRTEXT
 70
     0
  9
$LTSCALE
 40
1.0
  9
$ATTMODE
 70
     1
  9
$TEXTSIZE
 40
0.2
  9
$TRACEWID
 40
0.05
  9
$TEXTSTYLE
  7
Standard
  9
$CLAYER
  8
0
  9
$CELTYPE
  6
ByLayer
  9
$CECOLOR
 62
   256
  9
$CELTSCALE
 40
1.0
  9
$DISPSILH
 70
     0
  9
$DIMSCALE
 40
1.0
  9
$DIMASZ
 40
0.18
  9
$DIMEXO
 40
0.0625
  9
$DIMDLI
 40
0.38
  9
$DIMRND
 40
0.0
  9
$DIMDLE
 40
0.0
  9
$DIMEXE
 40
0.18
  9
$DIMTP
 40
0.0
  9
$DIMTM
 40
0.0
  9
$DIMTXT
 40
0.18
  9
$DIMCEN
 40
0.09
  9
$DIMTSZ
 40
0.0
  9
$DIMTOL
 70
     0
  9
$DIMLIM
 70
     0
  9
$DIMTIH
 70
     1
  9
$DIMTOH
 70
     1
  9
$DIMSE1
 70
     0
  9
$DIMSE2
 70
     0
  9
$DIMTAD
 70
     0
  9
$DIMZIN
 70
     0
  9
$DIMBLK
  1

  9
$DIMASO
 70
     1
  9
$DIMSHO
 70
     1
  9
$DIMPOST
  1

  9
$DIMAPOST
  1

  9
$DIMALT
 70
     0
  9
$DIMALTD
 70
     2
  9
$DIMALTF
 40
25.4
  9
$DIMLFAC
 40
1.0
  9
$DIMTOFL
 70
     0
  9
$DIMTVP
 40
0.0
  9
$DIMTIX
 70
     0
  9
$DIMSOXD
 70
     0
  9
$DIMSAH
 70
     0
  9
$DIMBLK1
  1

  9
$DIMBLK2
  1

  9
$DIMSTYLE
  2
Standard
  9
$DIMCLRD
 70
     0
  9
$DIMCLRE
 70
     0
  9
$DIMCLRT
 70
     0
  9
$DIMTFAC
 40
1.0
  9
$DIMGAP
 40
0.09
  9
$DIMJUST
 70
     0
  9
$DIMSD1
 70
     0
  9
$DIMSD2
 70
     0
  9
$DIMTOLJ
 70
     1
  9
$DIMTZIN
 70
     0
  9
$DIMALTZ
 70
     0
  9
$DIMALTTZ
 70
     0
  9
$DIMUPT
 70
     0
  9
$DIMDEC
 70
     4
  9
$DIMTDEC
 70
     4
  9
$DIMALTU
 70
     2
  9
$DIMALTTD
 70
     2
  9
$DIMTXSTY
  7
Standard
  9
$DIMAUNIT
 70
     0
  9
$DIMADEC
 70
     0
  9
$DIMALTRND
 40
0.0
  9
$DIMAZIN
 70
     0
  9
$DIMDSEP
 70
    46
  9
$DIMATFIT
 70
     3
  9
$DIMFRAC
 70
     0
  9
$DIMLDRBLK
  1

  9
$DIMLUNIT
 70
     2
  9
$DIMLWD
 70
    -2
  9
$DIMLWE
 70
    -2
  9
$DIMTMOVE
 70
     0
  9
$DIMFXL
 40
1.0
  9
$DIMFXLON
 70
     0
  9
$DIMJOGANG
 40
0.7853981633974483
  9
$DIMTFILL
 70
     0
  9
$DIMTFILLCLR
 70
     0
  9
$DIMARCSYM
 70
     0
  9
$DIMLTYPE
  6

  9
$DIMLTEX1
  6

  9
$DIMLTEX2
  6

  9
$DIMTXTDIRECTION
 70
     0
  9
$LUNITS
 70
     2
  9
$LUPREC
 70
     4
  9
$SKETCHINC
 40
0.1
  9
$FILLETRAD
 40
0.0
  9
$AUNITS
 70
     0
  9
$AUPREC
 70
     0
  9
$MENU
  1
.
  9
$ELEVATION
 40
0.0
  9
$PELEVATION
 40
0.0
  9
$THICKNESS
 40
0.0
  9
$LIMCHECK
 70
     0
  9
$CHAMFERA
 40
0.0
  9
$CHAMFERB
 40
0.0
  9
$CHAMFERC
 40
0.0
  9
$CHAMFERD
 40
0.0
  9
$SKPOLY
 70
     0
  9
$TDCREATE
 40
2459992.504768519
  9
$TDUCREATE
 40
2459992.463101852
  9
$TDUPDATE
 40
2459992.504768519
  9
$TDUUPDATE
 40
2459992.463101852
  9
$TDINDWG
 40
0.0000115741
  9
$TDUSRTIMER
 40
0.0000115741
  9
$USRTIMER
 70
     1
  9
$ANGBASE
 50
0.0
  9
$ANGDIR
 70
     0
  9
$PDMODE
 70
     0
  9
$PDSIZE
 40
0.0
  9
$PLINEWID
 40
0.0
  9
$SPLFRAME
 70
     0
  9
$SPLINETYPE
 70
     6
  9
$SPLINESEGS
 70
     8
  9
$HANDSEED
  5
104
  9
$SURFTAB1
 70
     6
  9
$SURFTAB2
 70
     6
  9
$SURFTYPE
 70
     6
  9
$SURFU
 70
     6
  9
$SURFV
 70
     6
  9
$UCSBASE
  2

  9
$UCSNAME
  2

  9
$UCSORG
 10
0.0
 20
0.0
 30
0.0
  9
$UCSXDIR
 10
1.0
 20
0.0
 30
0.0
  9
$UCSYDIR
 10
0.0
 20
1.0
 30
0.0
  9
$UCSORTHOREF
  2

  9
$UCSORTHOVIEW
 70
     0
  9
$UCSORGTOP
 10
0.0
 20
0.0
 30
0.0
  9
$UCSORGBOTTOM
 10
0.0
 20
0.0
 30
0.0
  9
$UCSORGLEFT
 10
0.0
 20
0.0
 30
0.0
  9
$UCSORGRIGHT
 10
0.0
 20
0.0
 30
0.0
  9
$UCSORGFRONT
 10
0.0
 20
0.0
 30
0.0
  9
$UCSORGBACK
 10
0.0
 20
0.0
 30
0.0
  9
$PUCSBASE
  2

  9
$PUCSNAME
  2

  9
$PUCSORG
 10
0.0
 20
0.0
 30
0.0
  9
$PUCSXDIR
 10
1.0
 20
0.0
 30
0.0
  9
$PUCSYDIR
 10
0.0
 20
1.0
 30
0.0
  9
$PUCSORTHOREF
  2

  9
$PUCSORTHOVIEW
 70
     0
  9
$PUCSORGTOP
 10
0.0
 20
0.0
 30
0.0
  9
$PUCSORGBOTTOM
 10
0.0
 20
0.0
 30
0.0
  9
$PUCSORGLEFT
 10
0.0
 20
0.0
 30
0.0
  9
$PUCSORGRIGHT
 10
0.0
 20
0.0
 30
0.0
  9
$PUCSORGFRONT
 10
0.0
 20
0.0
 30
0.0
  9
$PUCSORGBACK
 10
0.0
 20
0.0
 30
0.0
  9
$USERI1
 70
     0
  9
$USERI2
 70
     0
  9
$USERI3
 70
     0
  9
$USERI4
 70
     0
  9
$USERI5
 70
     0
  9
$USERR1
 40
0.0
  9
$USERR2
 40
0.0
  9
$USERR3
 40
0.0
  9
$USERR4
 40
0.0
  9
$USERR5
 40
0.0
  9
$WORLDVIEW
 70
     1
  9
$SHADEDGE
 70
     3
  9
$SHADEDIF
 70
    70
  9
$TILEMODE
 70
     1
  9
$MAXACTVP
 70
    64
  9
$PINSBASE
 10
0.0
 20
0.0
 30
0.0
  9
$PLIMCHECK
 70
     0
  9
$PEXTMIN
 10
1.000000000000000E+20
 20
1.000000000000000E+20
 30
1.000000000000000E+20
  9
$PEXTMAX
 10
-1.000000000000000E+20
 20
-1.000000000000000E+20
 30
-1.000000000000000E+20
  9
$PLIMMIN
 10
0.0
 20
0.0
  9
$PLIMMAX
 10
12.0
 20
9.0
  9
$UNITMODE
 70
     0
  9
$VISRETAIN
 70
     1
  9
$PLINEGEN
 70
     0
  9
$PSLTSCALE
 70
     1
  9
$TREEDEPTH
 70
  3020
  9
$CMLSTYLE
  2
Standard
  9
$CMLJUST
 70
     0
  9
$CMLSCALE
 40
1.0
  9
$PROXYGRAPHICS
 70
     1
  9
$MEASUREMENT
 70
     0
  9
$CELWEIGHT
370
    -1
  9
$ENDCAPS
280
     0
  9
$JOINSTYLE
280
     0
  9
$LWDISPLAY
290
     1
  9
$INSUNITS
 70
     4
  9
$HYPERLINKBASE
  1

  9
$STYLESHEET
  1

  9
$XEDIT
290
     1
  9
$CEPSNTYPE
380
     0
  9
$PSTYLEMODE
290
     1
  9
$FINGERPRINTGUID
  2
{AD828555-3874-E647-B5AE-1A86F97D8608}
  9
$VERSIONGUID
  2
{3348E9D2-0D38-AA47-93E9-AF59009A30CB}
  9
$EXTNAMES
290
     1
  9
$PSVPSCALE
 40
0.0
  9
$OLESTARTUP
290
     0
  9
$SORTENTS
280
   127
  9
$INDEXCTL
280
     0
  9
$HIDETEXT
280
     1
  9
$XCLIPFRAME
280
     2
  9
$HALOGAP
280
     0
  9
$OBSCOLOR
 70
   257
  9
$OBSLTYPE
280
     0
  9
$INTERSECTIONDISPLAY
280
     0
  9
$INTERSECTIONCOLOR
 70
   257
  9
$DIMASSOC
280
     2
  9
$PROJECTNAME
  1

  9
$CAMERADISPLAY
290
     0
  9
$LENSLENGTH
 40
50.0
  9
$CAMERAHEIGHT
 40
0.0
  9
$STEPSPERSEC
 40
2.0
  9
$STEPSIZE
 40
6.0
  9
$3DDWFPREC
 40
2.0
  9
$PSOLWIDTH
 40
0.25
  9
$PSOLHEIGHT
 40
4.0
  9
$LOFTANG1
 40
1.570796326794896
  9
$LOFTANG2
 40
1.570796326794896
  9
$LOFTMAG1
 40
0.0
  9
$LOFTMAG2
 40
0.0
  9
$LOFTPARAM
 70
     7
  9
$LOFTNORMALS
280
     1
  9
$LATITUDE
 40
37.795
  9
$LONGITUDE
 40
-122.394
  9
$NORTHDIRECTION
 40
0.0
  9
$TIMEZONE
 70
 -8000
  9
$LIGHTGLYPHDISPLAY
280
     1
  9
$TILEMODELIGHTSYNCH
280
     1
  9
$CMATERIAL
347
11
  9
$SOLIDHIST
280
     0
  9
$SHOWHIST
280
     1
  9
$DWFFRAME
280
     2
  9
$DGNFRAME
280
     0
  9
$REALWORLDSCALE
290
     1
  9
$INTERFERECOLOR
 62
     1
  9
$INTERFEREOBJVS
345
33
  9
$INTERFEREVPVS
346
30
  9
$CSHADOW
280
     0
  9
$SHADOWPLANELOCATION
 40
0.0
  0
ENDSEC
  0
SECTION
  2
CLASSES
  0
CLASS
  1
ACDBDICTIONARYWDFLT
  2
AcDbDictionaryWithDefault
  3
ObjectDBX Classes
 90
        0
 91
        1
280
     0
281
     0
  0
CLASS
  1
MATERIAL
  2
AcDbMaterial
  3
ObjectDBX Classes
 90
     1153
 91
        3
280
     0
281
     0
  0
CLASS
  1
VISUALSTYLE
  2
AcDbVisualStyle
  3
ObjectDBX Classes
 90
     4095
 91
       24
280
     0
281
     0
  0
CLASS
  1
SCALE
  2
AcDbScale
  3
ObjectDBX Classes
 90
     1153
 91
       17
280
     0
281
     0
  0
CLASS
  1
TABLESTYLE
  2
AcDbTableStyle
  3
ObjectDBX Classes
 90
     4095
 91
        1
280
     0
281
     0
  0
CLASS
  1
MLEADERSTYLE
  2
AcDbMLeaderStyle
  3
ACDB_MLEADERSTYLE_CLASS
 90
     4095
 91
        1
280
     0
281
     0
  0
CLASS
  1
ACDBSECTIONVIEWSTYLE
  2
AcDbSectionViewStyle
  3
ObjectDBX Classes
 90
     1025
 91
        1
280
     0
281
     0
  0
CLASS
  1
ACDBDETAILVIEWSTYLE
  2
AcDbDetailViewStyle
  3
ObjectDBX Classes
 90
     1025
 91
        1
280
     0
281
     0
  0
CLASS
  1
IMAGEDEF
  2
AcDbRasterImageDef
  3
ISM
 90
        0
 91
        1
280
     0
281
     0
  0
CLASS
  1
IMAGE
  2
AcDbRasterImage
  3
ISM
 90
     2175
 91
        1
280
     0
281
     1
  0
CLASS
  1
DICTIONARYVAR
  2
AcDbDictionaryVar
  3
ObjectDBX Classes
 90
        0
 91
        5
280
     0
281
     0
  0
CLASS
  1
CELLSTYLEMAP
  2
AcDbCellStyleMap
  3
ObjectDBX Classes
 90
     1152
 91
        1
280
     0
281
     0
  0
ENDSEC
  0
SECTION
  2
TABLES
  0
TABLE
  2
VPORT
  5
8
330
0
100
AcDbSymbolTable
 70
     1
1001
ACAD
1000
DbSaveVer
1071
      278
  0
VPORT
  5
57
330
8
100
AcDbSymbolTableRecord
100
AcDbViewportTableRecord
  2
*Active
 70
     0
 10
0.0
 20
0.0
 11
1.0
 21
1.0
 12
0.0
 22
0.0
 13
0.0
 23
0.0
 14
1.0
 24
1.0
 15
0.0
 25
0.0
 16
0.0
 26
0.0
 36
1.0
 17
103.1572472573204
 27
124.9608027238202
 37
0.0
 40
161.5251543392952
 41
0.7193774631395595
 42
50.0
 43
0.0
 44
0.0
 50
0.0
 51
0.0
 71
     0
 72
   100
 73
     1
 74
     1
 75
     0
 76
     0
 77
     0
 78
     0
281
     0
 65
     1
110
0.0
120
0.0
130
0.0
111
1.0
121
0.0
131
0.0
112
0.0
122
1.0
132
0.0
 79
     0
146
0.0
 60
     3
 61
     5
292
     1
282
     1
141
0.0
142
0.0
 63
   250
421
  3355443
  0
ENDTAB
  0
TABLE
  2
LTYPE
  5
5
330
0
100
AcDbSymbolTable
 70
     1
  0
LTYPE
  5
5B
330
5
100
AcDbSymbolTableRecord
100
AcDbLinetypeTableRecord
  2
ByBlock
 70
     0
  3

 72
    65
 73
     0
 40
0.0
  0
LTYPE
  5
5C
330
5
100
AcDbSymbolTableRecord
100
AcDbLinetypeTableRecord
  2
ByLayer
 70
     0
  3

 72
    65
 73
     0
 40
0.0
  0
LTYPE
  5
5D
330
5
100
AcDbSymbolTableRecord
100
AcDbLinetypeTableRecord
  2
Continuous
 70
     0
  3
Solid line
 72
    65
 73
     0
 40
0.0
  0
ENDTAB
  0
TABLE
  2
LAYER
  5
2
330
0
100
AcDbSymbolTable
 70
     4
  0
LAYER
  5
54
330
2
100
AcDbSymbolTableRecord
100
AcDbLayerTableRecord
  2
0
 70
     0
 62
     7
  6
Continuous
370
    -3
390
F
347
21
348
0
  0
LAYER
  5
78
330
2
100
AcDbSymbolTableRecord
100
AcDbLayerTableRecord
  2
Capa 1
 70
     5
 62
     7
  6
Continuous
370
     0
390
F
347
21
348
0
  0
LAYER
  5
7C
330
2
100
AcDbSymbolTableRecord
100
AcDbLayerTableRecord
  2
Dimensions
 70
     0
 62
     7
  6
Continuous
370
     0
390
F
347
21
348
0
  0
LAYER
  5
9E
330
2
100
AcDbSymbolTableRecord
100
AcDbLayerTableRecord
  2
Cotas
 70
     0
 62
     7
  6
Continuous
370
     0
390
F
347
21
348
0
  0
ENDTAB
  0
TABLE
  2
STYLE
  5
3
330
0
100
AcDbSymbolTable
 70
     2
  0
STYLE
  5
55
330
3
100
AcDbSymbolTableRecord
100
AcDbTextStyleTableRecord
  2
Standard
 70
     0
 40
0.0
 41
1.0
 50
0.0
 71
     0
 42
0.2
  3
txt
  4

  0
STYLE
  5
5A
330
3
100
AcDbSymbolTableRecord
100
AcDbTextStyleTableRecord
  2
Annotative
 70
     0
 40
0.0
 41
1.0
 50
0.0
 71
     0
 42
0.2
  3
txt
  4

1001
AcadAnnotative
1000
AnnotativeData
1002
{
1070
     1
1070
     1
1002
}
  0
ENDTAB
  0
TABLE
  2
VIEW
  5
6
330
0
100
AcDbSymbolTable
 70
     0
  0
ENDTAB
  0
TABLE
  2
UCS
  5
7
330
0
100
AcDbSymbolTable
 70
     0
  0
ENDTAB
  0
TABLE
  2
APPID
  5
9
330
0
100
AcDbSymbolTable
 70
     2
  0
APPID
  5
56
330
9
100
AcDbSymbolTableRecord
100
AcDbRegAppTableRecord
  2
ACAD
 70
     0
  0
APPID
  5
5E
330
9
100
AcDbSymbolTableRecord
100
AcDbRegAppTableRecord
  2
AcadAnnotative
 70
     0
  0
ENDTAB
  0
TABLE
  2
DIMSTYLE
  5
A
330
0
100
AcDbSymbolTable
 70
     2
100
AcDbDimStyleTable
 71
     0
  0
DIMSTYLE
105
58
330
A
100
AcDbSymbolTableRecord
100
AcDbDimStyleTableRecord
  2
Standard
 70
     0
340
55
  0
DIMSTYLE
105
59
330
A
100
AcDbSymbolTableRecord
100
AcDbDimStyleTableRecord
  2
Annotative
 70
     0
340
55
1001
AcadAnnotative
1000
AnnotativeData
1002
{
1070
     1
1070
     1
1002
}
  0
ENDTAB
  0
TABLE
  2
BLOCK_RECORD
  5
1
330
0
100
AcDbSymbolTable
 70
     1
  0
BLOCK_RECORD
  5
70
330
1
100
AcDbSymbolTableRecord
100
AcDbBlockTableRecord
  2
*Model_Space
340
73
 70
     0
280
     1
281
     0
  0
BLOCK_RECORD
  5
6C
330
1
100
AcDbSymbolTableRecord
100
AcDbBlockTableRecord
  2
*Paper_Space
340
6F
 70
     0
280
     1
281
     0
  0
BLOCK_RECORD
  5
74
330
1
100
AcDbSymbolTableRecord
100
AcDbBlockTableRecord
  2
*Paper_Space0
340
77
 70
     0
280
     1
281
     0
  0
ENDTAB
  0
ENDSEC
  0
SECTION
  2
BLOCKS
  0
BLOCK
  5
71
330
70
100
AcDbEntity
  8
0
100
AcDbBlockBegin
  2
*Model_Space
 70
     0
 10
0.0
 20
0.0
 30
0.0
  3
*Model_Space
  1

  0
ENDBLK
  5
72
330
70
100
AcDbEntity
  8
0
100
AcDbBlockEnd
  0
BLOCK
  5
6D
330
6C
100
AcDbEntity
 67
     1
  8
0
100
AcDbBlockBegin
  2
*Paper_Space
 70
     0
 10
0.0
 20
0.0
 30
0.0
  3
*Paper_Space
  1

  0
ENDBLK
  5
6E
330
6C
100
AcDbEntity
 67
     1
  8
0
100
AcDbBlockEnd
  0
BLOCK
  5
75
330
74
100
AcDbEntity
 67
     1
  8
0
100
AcDbBlockBegin
  2
*Paper_Space0
 70
     0
 10
0.0
 20
0.0
 30
0.0
  3
*Paper_Space0
  1

  0
ENDBLK
  5
76
330
74
100
AcDbEntity
 67
     1
  8
0
100
AcDbBlockEnd
  0
ENDSEC
  0
SECTION
  2
ENTITIES
  0
IMAGE
  5
7B
330
70
100
AcDbEntity
  8
Capa 1
160
               140
310
8C000000010000008400000006000000050000004CDA109542834C40475A7FE9E9585B4000000000000000004CDA109542834C402204AE711C5F67400000000000000000821AE38A9F1B63402204AE711C5F67400000000000000000821AE38A9F1B6340475A7FE9E9585B4000000000000000004CDA109542834C40475A7F
310
E9E9585B400000000000000000
100
AcDbRasterImage
 90
        0
 10
57.02546943018806
 20
109.3892768615416
 30
0.0
 11
0.1901542777302392
 21
0.0
 31
0.0
 12
0.0
 22
0.1901542777302392
 32
0.0
 13
504.0
 23
408.0
340
7A
 70
     3
280
     0
281
    50
282
    50
283
     0
290
     0
360
0
 71
     1
 91
        2
 14
-0.5
 24
-0.5
 14
503.5
 24
407.5
  0
SPLINE
  5
7D
330
70
100
AcDbEntity
  8
Dimensions
 62
   250
420
  1907995
370
    25
100
AcDbSpline
210
0.0
220
0.0
230
1.0
 70
     9
 71
     3
 72
    17
 73
    13
 74
     0
 42
0.0000000001
 43
0.0000000001
 40
0.0
 40
0.0
 40
0.0
 40
0.0
 40
1.0
 40
1.0
 40
1.0
 40
2.0
 40
2.0
 40
2.0
 40
3.0
 40
3.0
 40
3.0
 40
4.0
 40
4.0
 40
4.0
 40
4.0
 10
90.29269380755257
 20
163.0561777845348
 30
0.0
 10
90.29269380755257
 20
168.7671249578084
 30
0.0
 10
85.66297948122199
 20
173.3968350207226
 30
0.0
 10
79.95203657136473
 20
173.3968350207226
 30
0.0
 10
74.24112893928434
 20
173.3968350207226
 30
0.0
 10
69.61159100183813
 20
168.7671249578084
 30
0.0
 10
69.61159100183813
 20
163.0561777845348
 30
0.0
 10
69.61159100183813
 20
157.3452701524544
 30
0.0
 10
74.24112893928434
 20
152.7157360729323
 30
0.0
 10
79.95203657136473
 20
152.7157360729323
 30
0.0
 10
85.66297948122199
 20
152.7157360729323
 30
0.0
 10
90.29269380755257
 20
157.3452701524544
 30
0.0
 10
90.29269380755257
 20
163.0561777845348
 30
0.0
  0
SPLINE
  5
7E
330
70
100
AcDbEntity
  8
Dimensions
 62
   250
420
  1907995
370
    25
100
AcDbSpline
210
0.0
220
0.0
230
1.0
 70
    11
 71
     3
 72
    62
 73
    58
 74
     0
 42
0.0000000001
 43
0.0000000001
 40
0.0
 40
0.0
 40
0.0
 40
0.0
 40
1.0
 40
1.0
 40
1.0
 40
2.0
 40
2.0
 40
2.0
 40
3.0
 40
3.0
 40
3.0
 40
4.0
 40
4.0
 40
4.0
 40
5.0
 40
5.0
 40
5.0
 40
6.0
 40
6.0
 40
6.0
 40
7.0
 40
7.0
 40
7.0
 40
8.0
 40
8.0
 40
8.0
 40
9.0
 40
9.0
 40
9.0
 40
10.0
 40
10.0
 40
10.0
 40
11.0
 40
11.0
 40
11.0
 40
12.0
 40
12.0
 40
12.0
 40
13.0
 40
13.0
 40
13.0
 40
14.0
 40
14.0
 40
14.0
 40
15.0
 40
15.0
 40
15.0
 40
16.0
 40
16.0
 40
16.0
 40
17.0
 40
17.0
 40
17.0
 40
18.0
 40
18.0
 40
18.0
 40
19.0
 40
19.0
 40
19.0
 40
19.0
 10
64.2842586377497
 20
167.2984715651937
 30
0.0
 10
64.2842586377497
 20
167.2984715651937
 30
0.0
 10
70.382798482163
 20
178.5406876672698
 30
0.0
 10
70.382798482163
 20
178.5406876672698
 30
0.0
 10
70.382798482163
 20
178.5406876672698
 30
0.0
 10
103.2603459767202
 20
178.5406876672698
 30
0.0
 10
103.2603459767202
 20
178.5406876672698
 30
0.0
 10
103.2603459767202
 20
178.5406876672698
 30
0.0
 10
103.2603459767202
 20
177.0558460384846
 30
0.0
 10
103.2603459767202
 20
177.0558460384846
 30
0.0
 10
103.2603459767202
 20
177.0558460384846
 30
0.0
 10
122.7746010344256
 20
177.0558460384846
 30
0.0
 10
122.7746010344256
 20
177.0558460384846
 30
0.0
 10
122.7746010344256
 20
177.0558460384846
 30
0.0
 10
122.7746010344256
 20
155.207930762538
 30
0.0
 10
122.7746010344256
 20
155.207930762538
 30
0.0
 10
122.7746010344256
 20
155.207930762538
 30
0.0
 10
104.9443333070971
 20
155.207930762538
 30
0.0
 10
104.9443333070971
 20
155.207930762538
 30
0.0
 10
104.9443333070971
 20
155.207930762538
 30
0.0
 10
103.2603459767202
 20
155.0196532673414
 30
0.0
 10
103.2603459767202
 20
157.0641415485154
 30
0.0
 10
103.2603459767202
 20
157.0641415485154
 30
0.0
 10
97.21507557539235
 20
146.0872143285602
 30
0.0
 10
97.21507557539235
 20
146.0872143285602
 30
0.0
 10
97.21507557539235
 20
146.0872143285602
 30
0.0
 10
96.10146199269189
 20
146.0872143285602
 30
0.0
 10
96.10146199269189
 20
146.0872143285602
 30
0.0
 10
96.10146199269189
 20
146.0872143285602
 30
0.0
 10
96.10146199269189
 20
145.3444444081083
 30
0.0
 10
96.10146199269189
 20
145.3444444081083
 30
0.0
 10
96.10146199269189
 20
145.3444444081083
 30
0.0
 10
91.16980517406449
 20
145.3444444081083
 30
0.0
 10
91.16980517406449
 20
145.3444444081083
 30
0.0
 10
91.16980517406449
 20
145.3444444081083
 30
0.0
 10
91.16980517406449
 20
146.0338037743673
 30
0.0
 10
91.16980517406449
 20
146.0338037743673
 30
0.0
 10
91.16980517406449
 20
146.0338037743673
 30
0.0
 10
76.42789442533739
 20
146.0338037743673
 30
0.0
 10
76.42789442533739
 20
146.0338037743673
 30
0.0
 10
76.42789442533739
 20
146.0338037743673
 30
0.0
 10
76.42789442533739
 20
145.3444444081083
 30
0.0
 10
76.42789442533739
 20
145.3444444081083
 30
0.0
 10
76.42789442533739
 20
145.3444444081083
 30
0.0
 10
71.54911706351883
 20
145.3444444081083
 30
0.0
 10
71.54911706351883
 20
145.3444444081083
 30
0.0
 10
71.54911706351883
 20
145.3444444081083
 30
0.0
 10
71.54911706351883
 20
146.1399193272156
 30
0.0
 10
71.54911706351883
 20
146.1399193272156
 30
0.0
 10
71.54911706351883
 20
146.1399193272156
 30
0.0
 10
70.48870236835004
 20
145.9810987757119
 30
0.0
 10
70.48870236835004
 20
145.9810987757119
 30
0.0
 10
70.48870236835004
 20
145.9810987757119
 30
0.0
 10
64.2842586377497
 20
157.1700807124794
 30
0.0
 10
64.2842586377497
 20
157.1700807124794
 30
0.0
 10
64.2842586377497
 20
157.1700807124794
 30
0.0
 10
64.2842586377497
 20
167.2984715651937
 30
0.0
 10
64.2842586377497
 20
167.2984715651937
 30
0.0
  0
SPLINE
  5
7F
330
70
100
AcDbEntity
  8
Dimensions
 62
   250
420
  1907995
370
     9
100
AcDbSpline
210
0.0
220
0.0
230
1.0
 70
     8
 71
     3
 72
    14
 73
    10
 74
     0
 42
0.0000000001
 43
0.0000000001
 40
0.0
 40
0.0
 40
0.0
 40
0.0
 40
1.0
 40
1.0
 40
1.0
 40
2.0
 40
2.0
 40
2.0
 40
3.0
 40
3.0
 40
3.0
 40
3.0
 10
92.97278179473339
 20
178.6573159976277
 30
0.0
 10
92.97278179473339
 20
178.6573159976277
 30
0.0
 10
93.52967678052582
 20
178.6573159976277
 30
0.0
 10
93.52967678052582
 20
177.7980904639928
 30
0.0
 10
93.52967678052582
 20
177.7980904639928
 30
0.0
 10
93.52967678052582
 20
177.144040480679
 30
0.0
 10
93.52967678052582
 20
177.144040480679
 30
0.0
 10
93.52967678052582
 20
177.144040480679
 30
0.0
 10
103.4009305297052
 20
177.144040480679
 30
0.0
 10
103.4009305297052
 20
177.144040480679
 30
0.0
  0
SPLINE
  5
80
330
70
100
AcDbEntity
  8
Dimensions
 62
   250
420
  1907995
370
     9
100
AcDbSpline
210
0.0
220
0.0
230
1.0
 70
     8
 71
     3
 72
    17
 73
    13
 74
     0
 42
0.0000000001
 43
0.0000000001
 40
0.0
 40
0.0
 40
0.0
 40
0.0
 40
1.0
 40
1.0
 40
1.0
 40
2.0
 40
2.0
 40
2.0
 40
3.0
 40
3.0
 40
3.0
 40
4.0
 40
4.0
 40
4.0
 40
4.0
 10
94.51068119994275
 20
177.144040480679
 30
0.0
 10
94.51068119994275
 20
177.144040480679
 30
0.0
 10
94.51068119994275
 20
170.5332673160005
 30
0.0
 10
94.51068119994275
 20
170.5332673160005
 30
0.0
 10
94.51068119994275
 20
170.5332673160005
 30
0.0
 10
94.51068119994275
 20
169.5255576194871
 30
0.0
 10
95.49683617478384
 20
169.5255576194871
 30
0.0
 10
95.49683617478384
 20
169.5255576194871
 30
0.0
 10
103.2603459767202
 20
169.5255576194871
 30
0.0
 10
103.2603459767202
 20
169.5255576194871
 30
0.0
 10
103.2603459767202
 20
169.5255576194871
 30
0.0
 10
103.2603459767202
 20
155.8974701893908
 30
0.0
 10
103.2603459767202
 20
155.8974701893908
 30
0.0
  0
SPLINE
  5
81
330
70
100
AcDbEntity
  8
Dimensions
 62
   250
420
  1907995
370
     9
100
AcDbSpline
210
0.0
220
0.0
230
1.0
 70
     8
 71
     3
 72
    14
 73
    10
 74
     0
 42
0.0000000001
 43
0.0000000001
 40
0.0
 40
0.0
 40
0.0
 40
0.0
 40
1.0
 40
1.0
 40
1.0
 40
2.0
 40
2.0
 40
2.0
 40
3.0
 40
3.0
 40
3.0
 40
3.0
 10
122.7746010344256
 20
172.6943486497557
 30
0.0
 10
122.7746010344256
 20
172.6943486497557
 30
0.0
 10
117.5645672784558
 20
172.6943486497557
 30
0.0
 10
117.5645672784558
 20
172.6943486497557
 30
0.0
 10
117.5645672784558
 20
172.6943486497557
 30
0.0
 10
116.7294717442053
 20
172.7126225381783
 30
0.0
 10
116.7294717442053
 20
171.9784610681163
 30
0.0
 10
116.7294717442053
 20
171.9784610681163
 30
0.0
 10
116.7294717442053
 20
154.9960524346101
 30
0.0
 10
116.7294717442053
 20
154.9960524346101
 30
0.0
  0
LINE
  5
82
330
70
100
AcDbEntity
  8
Dimensions
 62
   250
420
  1907995
370
     9
100
AcDbLine
 10
117.763357551162
 20
172.6445717065811
 30
0.0
 11
117.763357551162
 21
154.9960524346101
 31
0.0
  0
LINE
  5
83
330
70
100
AcDbEntity
  8
Dimensions
 62
   250
420
  1907995
370
     9
100
AcDbLine
 10
121.9395055001751
 20
172.6445717065811
 30
0.0
 11
121.9395055001751
 21
154.9960524346101
 31
0.0
  0
SPLINE
  5
84
330
70
100
AcDbEntity
  8
Dimensions
 62
   250
420
  1907995
370
     9
100
AcDbSpline
210
0.0
220
0.0
230
1.0
 70
    11
 71
     3
 72
    17
 73
    13
 74
     0
 42
0.0000000001
 43
0.0000000001
 40
0.0
 40
0.0
 40
0.0
 40
0.0
 40
1.0
 40
1.0
 40
1.0
 40
2.0
 40
2.0
 40
2.0
 40
3.0
 40
3.0
 40
3.0
 40
4.0
 40
4.0
 40
4.0
 40
4.0
 10
121.2632305174283
 20
171.4613550701008
 30
0.0
 10
121.2632305174283
 20
171.8348056161288
 30
0.0
 10
120.9607588584784
 20
172.1374536639632
 30
0.0
 10
120.5873083124503
 20
172.1374536639632
 30
0.0
 10
120.2138577664223
 20
172.1374536639632
 30
0.0
 10
119.9110333297035
 20
171.8348056161288
 30
0.0
 10
119.9110333297035
 20
171.4613550701008
 30
0.0
 10
119.9110333297035
 20
171.0879045240728
 30
0.0
 10
120.2138577664223
 20
170.7852564762384
 30
0.0
 10
120.5873083124503
 20
170.7852564762384
 30
0.0
 10
120.9607588584784
 20
170.7852564762384
 30
0.0
 10
121.2632305174283
 20
171.0879045240728
 30
0.0
 10
121.2632305174283
 20
171.4613550701008
 30
0.0
  0
SPLINE
  5
85
330
70
100
AcDbEntity
  8
Dimensions
 62
   250
420
  1907995
370
     9
100
AcDbSpline
210
0.0
220
0.0
230
1.0
 70
    11
 71
     3
 72
    17
 73
    13
 74
     0
 42
0.0000000001
 43
0.0000000001
 40
0.0
 40
0.0
 40
0.0
 40
0.0
 40
1.0
 40
1.0
 40
1.0
 40
2.0
 40
2.0
 40
2.0
 40
3.0
 40
3.0
 40
3.0
 40
4.0
 40
4.0
 40
4.0
 40
4.0
 10
121.2632305174283
 20
168.5729870882337
 30
0.0
 10
121.2632305174283
 20
168.9464376342617
 30
0.0
 10
120.9607588584784
 20
169.2490856820961
 30
0.0
 10
120.5873083124503
 20
169.2490856820961
 30
0.0
 10
120.2138577664223
 20
169.2490856820961
 30
0.0
 10
119.9110333297035
 20
168.9464376342617
 30
0.0
 10
119.9110333297035
 20
168.5729870882337
 30
0.0
 10
119.9110333297035
 20
168.1995365422056
 30
0.0
 10
120.2138577664223
 20
167.8968884943713
 30
0.0
 10
120.5873083124503
 20
167.8968884943713
 30
0.0
 10
120.9607588584784
 20
167.8968884943713
 30
0.0
 10
121.2632305174283
 20
168.1995365422056
 30
0.0
 10
121.2632305174283
 20
168.5729870882337
 30
0.0
  0
SPLINE
  5
86
330
70
100
AcDbEntity
  8
Dimensions
 62
   250
420
  1907995
370
     9
100
AcDbSpline
210
0.0
220
0.0
230
1.0
 70
     9
 71
     3
 72
    17
 73
    13
 74
     0
 42
0.0000000001
 43
0.0000000001
 40
0.0
 40
0.0
 40
0.0
 40
0.0
 40
1.0
 40
1.0
 40
1.0
 40
2.0
 40
2.0
 40
2.0
 40
3.0
 40
3.0
 40
3.0
 40
4.0
 40
4.0
 40
4.0
 40
4.0
 10
121.2632305174283
 20
165.6849718841353
 30
0.0
 10
121.2632305174283
 20
166.0584224301634
 30
0.0
 10
120.9607588584784
 20
166.3608940891133
 30
0.0
 10
120.5873083124503
 20
166.3608940891133
 30
0.0
 10
120.2138577664223
 20
166.3608940891133
 30
0.0
 10
119.9110333297035
 20
166.0584224301634
 30
0.0
 10
119.9110333297035
 20
165.6849718841353
 30
0.0
 10
119.9110333297035
 20
165.3113449492229
 30
0.0
 10
120.2138577664223
 20
165.0086969013885
 30
0.0
 10
120.5873083124503
 20
165.0086969013885
 30
0.0
 10
120.9607588584784
 20
165.0086969013885
 30
0.0
 10
121.2632305174283
 20
165.3113449492229
 30
0.0
 10
121.2632305174283
 20
165.6849718841353
 30
0.0
  0
SPLINE
  5
87
330
70
100
AcDbEntity
  8
Dimensions
 62
   250
420
  1907995
370
     9
100
AcDbSpline
210
0.0
220
0.0
230
1.0
 70
    11
 71
     3
 72
    17
 73
    13
 74
     0
 42
0.0000000001
 43
0.0000000001
 40
0.0
 40
0.0
 40
0.0
 40
0.0
 40
1.0
 40
1.0
 40
1.0
 40
2.0
 40
2.0
 40
2.0
 40
3.0
 40
3.0
 40
3.0
 40
4.0
 40
4.0
 40
4.0
 40
4.0
 10
121.2632305174283
 20
162.7967802911525
 30
0.0
 10
121.2632305174283
 20
163.1702308371806
 30
0.0
 10
120.9607588584784
 20
163.472878885015
 30
0.0
 10
120.5873083124503
 20
163.472878885015
 30
0.0
 10
120.2138577664223
 20
163.472878885015
 30
0.0
 10
119.9110333297035
 20
163.1702308371806
 30
0.0
 10
119.9110333297035
 20
162.7967802911525
 30
0.0
 10
119.9110333297035
 20
162.4233297451245
 30
0.0
 10
120.2138577664223
 20
162.1206816972901
 30
0.0
 10
120.5873083124503
 20
162.1206816972901
 30
0.0
 10
120.9607588584784
 20
162.1206816972901
 30
0.0
 10
121.2632305174283
 20
162.4233297451245
 30
0.0
 10
121.2632305174283
 20
162.7967802911525
 30
0.0
  0
SPLINE
  5
88
330
70
100
AcDbEntity
  8
Dimensions
 62
   250
420
  1907995
370
     9
100
AcDbSpline
210
0.0
220
0.0
230
1.0
 70
    11
 71
     3
 72
    17
 73
    13
 74
     0
 42
0.0000000001
 43
0.0000000001
 40
0.0
 40
0.0
 40
0.0
 40
0.0
 40
1.0
 40
1.0
 40
1.0
 40
2.0
 40
2.0
 40
2.0
 40
3.0
 40
3.0
 40
3.0
 40
4.0
 40
4.0
 40
4.0
 40
4.0
 10
121.2632305174283
 20
159.9084123092854
 30
0.0
 10
121.2632305174283
 20
160.2818628553134
 30
0.0
 10
120.9607588584784
 20
160.5845109031478
 30
0.0
 10
120.5873083124503
 20
160.5845109031478
 30
0.0
 10
120.2138577664223
 20
160.5845109031478
 30
0.0
 10
119.9110333297035
 20
160.2818628553134
 30
0.0
 10
119.9110333297035
 20
159.9084123092854
 30
0.0
 10
119.9110333297035
 20
159.5349617632573
 30
0.0
 10
120.2138577664223
 20
159.232313715423
 30
0.0
 10
120.5873083124503
 20
159.232313715423
 30
0.0
 10
120.9607588584784
 20
159.232313715423
 30
0.0
 10
121.2632305174283
 20
159.5349617632573
 30
0.0
 10
121.2632305174283
 20
159.9084123092854
 30
0.0
  0
SPLINE
  5
89
330
70
100
AcDbEntity
  8
Dimensions
 62
   250
420
  1907995
370
     9
100
AcDbSpline
210
0.0
220
0.0
230
1.0
 70
     9
 71
     3
 72
    17
 73
    13
 74
     0
 42
0.0000000001
 43
0.0000000001
 40
0.0
 40
0.0
 40
0.0
 40
0.0
 40
1.0
 40
1.0
 40
1.0
 40
2.0
 40
2.0
 40
2.0
 40
3.0
 40
3.0
 40
3.0
 40
4.0
 40
4.0
 40
4.0
 40
4.0
 10
121.2632305174283
 20
157.0202207163026
 30
0.0
 10
121.2632305174283
 20
157.3938476512151
 30
0.0
 10
120.9607588584784
 20
157.6964956990494
 30
0.0
 10
120.5873083124503
 20
157.6964956990494
 30
0.0
 10
120.2138577664223
 20
157.6964956990494
 30
0.0
 10
119.9110333297035
 20
157.3938476512151
 30
0.0
 10
119.9110333297035
 20
157.0202207163026
 30
0.0
 10
119.9110333297035
 20
156.6467701702746
 30
0.0
 10
120.2138577664223
 20
156.3442985113246
 30
0.0
 10
120.5873083124503
 20
156.3442985113246
 30
0.0
 10
120.9607588584784
 20
156.3442985113246
 30
0.0
 10
121.2632305174283
 20
156.6467701702746
 30
0.0
 10
121.2632305174283
 20
157.0202207163026
 30
0.0
  0
LWPOLYLINE
  5
8A
330
70
100
AcDbEntity
  8
Dimensions
 62
   250
420
  1907995
370
     9
100
AcDbPolyline
 90
        8
 70
     0
 43
0.0
 10
71.42201123342825
 20
145.3444444081083
 10
71.42201123342825
 20
147.0993690249602
 10
73.17108341102792
 20
147.0993690249602
 10
73.17108341102792
 20
148.1807777407325
 10
74.59355393029323
 20
148.1807777407325
 10
74.59355393029323
 20
147.1696423565007
 10
76.52899860313815
 20
147.1696423565007
 10
76.52899860313815
 20
145.5607993419902
  0
LINE
  5
8B
330
70
100
AcDbEntity
  8
Dimensions
 62
   250
420
  1907995
370
     9
100
AcDbLine
 10
71.42201123342825
 20
146.4699429299071
 30
0.0
 11
76.52899860313815
 21
146.4699429299071
 31
0.0
  0
LINE
  5
8C
330
70
100
AcDbEntity
  8
Dimensions
 62
   250
420
  1907995
370
     9
100
AcDbLine
 10
71.42201123342825
 20
146.0038176640211
 30
0.0
 11
76.52899860313815
 21
146.0038176640211
 31
0.0
  0
LWPOLYLINE
  5
8D
330
70
100
AcDbEntity
  8
Dimensions
 62
   250
420
  1907995
370
     9
100
AcDbPolyline
 90
        8
 70
     0
 43
0.0
 10
91.08005850968746
 20
145.3444444081083
 10
91.08005850968746
 20
147.0993690249602
 10
92.82895429840273
 20
147.0993690249602
 10
92.82895429840273
 20
148.1807777407325
 10
94.25142481766805
 20
148.1807777407325
 10
94.25142481766805
 20
147.1696423565007
 10
96.18690476828984
 20
147.1696423565007
 10
96.18690476828984
 20
145.5607993419902
  0
LINE
  5
8E
330
70
100
AcDbEntity
  8
Dimensions
 62
   250
420
  1907995
370
     9
100
AcDbLine
 10
91.08005850968746
 20
146.4699429299071
 30
0.0
 11
96.18690476828984
 21
146.4699429299071
 31
0.0
  0
LINE
  5
8F
330
70
100
AcDbEntity
  8
Dimensions
 62
   250
420
  1907995
370
     9
100
AcDbLine
 10
91.08005850968746
 20
146.0038176640211
 30
0.0
 11
96.18690476828984
 21
146.0038176640211
 31
0.0
  0
LWPOLYLINE
  5
90
330
70
100
AcDbEntity
  8
Dimensions
 62
   250
420
  1907995
370
    25
100
AcDbPolyline
 90
        4
 70
     1
 43
0.0
 10
148.759223704836
 20
146.0872143285602
 10
138.7894417369641
 20
146.0872143285602
 10
138.7894417369641
 20
178.5406876672698
 10
148.759223704836
 20
178.5406876672698
  0
SPLINE
  5
91
330
70
100
AcDbEntity
  8
Dimensions
 62
   250
420
  1907995
370
     9
100
AcDbSpline
210
0.0
220
0.0
230
1.0
 70
    11
 71
     3
 72
    17
 73
    13
 74
     0
 42
0.0000000001
 43
0.0000000001
 40
0.0
 40
0.0
 40
0.0
 40
0.0
 40
1.0
 40
1.0
 40
1.0
 40
2.0
 40
2.0
 40
2.0
 40
3.0
 40
3.0
 40
3.0
 40
4.0
 40
4.0
 40
4.0
 40
4.0
 10
152.8630169334728
 20
146.0872143285602
 30
0.0
 10
152.8630169334728
 20
146.0872143285602
 30
0.0
 10
152.7679471840301
 20
145.3923126796219
 30
0.0
 10
152.0844363977805
 20
145.3923126796219
 30
0.0
 10
152.0844363977805
 20
145.3923126796219
 30
0.0
 10
148.4291648243676
 20
145.3923126796219
 30
0.0
 10
148.4291648243676
 20
145.3923126796219
 30
0.0
 10
148.4291648243676
 20
145.3923126796219
 30
0.0
 10
148.4291648243676
 20
146.0872143285602
 30
0.0
 10
148.4291648243676
 20
146.0872143285602
 30
0.0
 10
148.4291648243676
 20
146.0872143285602
 30
0.0
 10
152.8630169334728
 20
146.0872143285602
 30
0.0
 10
152.8630169334728
 20
146.0872143285602
 30
0.0
  0
SPLINE
  5
92
330
70
100
AcDbEntity
  8
Dimensions
 62
   250
420
  1907995
370
     9
100
AcDbSpline
210
0.0
220
0.0
230
1.0
 70
    11
 71
     3
 72
    17
 73
    13
 74
     0
 42
0.0000000001
 43
0.0000000001
 40
0.0
 40
0.0
 40
0.0
 40
0.0
 40
1.0
 40
1.0
 40
1.0
 40
2.0
 40
2.0
 40
2.0
 40
3.0
 40
3.0
 40
3.0
 40
4.0
 40
4.0
 40
4.0
 40
4.0
 10
135.0543012766999
 20
146.0872143285602
 30
0.0
 10
135.0543012766999
 20
146.0872143285602
 30
0.0
 10
135.1490221076167
 20
145.3923126796219
 30
0.0
 10
135.8328818123922
 20
145.3923126796219
 30
0.0
 10
135.8328818123922
 20
145.3923126796219
 30
0.0
 10
139.4881181080283
 20
145.3923126796219
 30
0.0
 10
139.4881181080283
 20
145.3923126796219
 30
0.0
 10
139.4881181080283
 20
145.3923126796219
 30
0.0
 10
139.4881181080283
 20
146.0872143285602
 30
0.0
 10
139.4881181080283
 20
146.0872143285602
 30
0.0
 10
139.4881181080283
 20
146.0872143285602
 30
0.0
 10
135.0543012766999
 20
146.0872143285602
 30
0.0
 10
135.0543012766999
 20
146.0872143285602
 30
0.0
  0
LWPOLYLINE
  5
93
330
70
100
AcDbEntity
  8
Dimensions
 62
   250
420
  1907995
370
    25
100
AcDbPolyline
 90
        4
 70
     1
 43
0.0
 10
122.7746010344256
 20
122.453855487053
 10
64.2842586377497
 20
122.453855487053
 10
64.2842586377497
 20
131.6532766412451
 10
122.7746010344256
 20
131.6532766412451
  0
LINE
  5
94
330
70
100
AcDbEntity
  8
Dimensions
 62
   250
420
  1907995
370
     9
100
AcDbLine
 10
103.3365106969993
 20
131.8193291370087
 30
0.0
 11
103.3365106969993
 21
122.2150954931442
 31
0.0
  0
LWPOLYLINE
  5
95
330
70
100
AcDbEntity
  8
Dimensions
 62
   250
420
  1907995
370
     9
100
AcDbPolyline
 90
        4
 70
     0
 43
0.0
 10
103.3365106969993
 20
131.1261913769144
 10
122.062483830371
 20
131.1261913769144
 10
122.062483830371
 20
122.7570327015405
 10
103.3365106969993
 20
122.7570327015405
  0
SPLINE
  5
96
330
70
100
AcDbEntity
  8
Dimensions
 62
   250
420
  1907995
370
     9
100
AcDbSpline
210
0.0
220
0.0
230
1.0
 70
     8
 71
     3
 72
    20
 73
    16
 74
     0
 42
0.0000000001
 43
0.0000000001
 40
0.0
 40
0.0
 40
0.0
 40
0.0
 40
1.0
 40
1.0
 40
1.0
 40
2.0
 40
2.0
 40
2.0
 40
3.0
 40
3.0
 40
3.0
 40
4.0
 40
4.0
 40
4.0
 40
5.0
 40
5.0
 40
5.0
 40
5.0
 10
103.3365106969993
 20
129.1397350387042
 30
0.0
 10
103.3365106969993
 20
129.1397350387042
 30
0.0
 10
101.168832418968
 20
129.3802236436799
 30
0.0
 10
101.168832418968
 20
127.8750620154131
 30
0.0
 10
101.168832418968
 20
127.8750620154131
 30
0.0
 10
100.4462377151807
 20
127.8750620154131
 30
0.0
 10
100.4462377151807
 20
127.8750620154131
 30
0.0
 10
100.4462377151807
 20
127.8750620154131
 30
0.0
 10
100.4462377151807
 20
126.3699003871463
 30
0.0
 10
100.4462377151807
 20
126.3699003871463
 30
0.0
 10
100.4462377151807
 20
126.3699003871463
 30
0.0
 10
101.168832418968
 20
126.3699003871463
 30
0.0
 10
101.168832418968
 20
126.3699003871463
 30
0.0
 10
101.168832418968
 20
126.3699003871463
 30
0.0
 10
101.1085426982839
 20
124.9549793121329
 30
0.0
 10
103.3365106969993
 20
124.9549793121329
 30
0.0
  0
LWPOLYLINE
  5
97
330
70
100
AcDbEntity
  8
Dimensions
 62
   250
420
  1907995
370
     9
100
AcDbPolyline
 90
        4
 70
     1
 43
0.0
 10
101.0181257561462
 20
127.4230478602783
 10
102.5537673836354
 20
127.4230478602783
 10
102.5537673836354
 20
126.7612367660514
 10
101.0181257561462
 20
126.7612367660514
  0
LWPOLYLINE
  5
98
330
70
100
AcDbEntity
  8
Dimensions
 62
   250
420
  1907995
370
     9
100
AcDbPolyline
 90
        6
 70
     0
 43
0.0
 10
93.52967678052582
 20
131.8193291370087
 10
93.52967678052582
 20
130.7651586083473
 10
92.0770790398069
 20
130.7651586083473
 10
92.0770790398069
 20
123.118738858109
 10
93.64267149986529
 20
123.118738858109
 10
93.64267149986529
 20
122.2150954931442
  0
LWPOLYLINE
  5
99
330
70
100
AcDbEntity
  8
Dimensions
 62
   250
420
  1907995
370
     9
100
AcDbPolyline
 90
        4
 70
     1
 43
0.0
 10
91.56530433064114
 20
123.3292382424979
 10
80.33550600602605
 20
123.3292382424979
 10
80.33550600602605
 20
130.5546561137177
 10
91.56530433064114
 20
130.5546561137177
  0
SPLINE
  5
9A
330
70
100
AcDbEntity
  8
Dimensions
 62
   250
420
  1907995
370
     9
100
AcDbSpline
210
0.0
220
0.0
230
1.0
 70
    11
 71
     3
 72
    32
 73
    28
 74
     0
 42
0.0000000001
 43
0.0000000001
 40
0.0
 40
0.0
 40
0.0
 40
0.0
 40
1.0
 40
1.0
 40
1.0
 40
2.0
 40
2.0
 40
2.0
 40
3.0
 40
3.0
 40
3.0
 40
4.0
 40
4.0
 40
4.0
 40
5.0
 40
5.0
 40
5.0
 40
6.0
 40
6.0
 40
6.0
 40
7.0
 40
7.0
 40
7.0
 40
8.0
 40
8.0
 40
8.0
 40
9.0
 40
9.0
 40
9.0
 40
9.0
 10
71.54481317473976
 20
122.2150954931442
 30
0.0
 10
71.54481317473976
 20
122.2150954931442
 30
0.0
 10
71.54481317473976
 20
118.2112089286252
 30
0.0
 10
71.54481317473976
 20
118.2112089286252
 30
0.0
 10
71.54481317473976
 20
118.2112089286252
 30
0.0
 10
76.33193886980584
 20
118.2112089286252
 30
0.0
 10
76.33193886980584
 20
118.2112089286252
 30
0.0
 10
76.33193886980584
 20
118.2112089286252
 30
0.0
 10
76.33193886980584
 20
119.4459311193471
 30
0.0
 10
76.33193886980584
 20
119.4459311193471
 30
0.0
 10
76.33193886980584
 20
119.4459311193471
 30
0.0
 10
73.93848089144999
 20
119.4459311193471
 30
0.0
 10
73.93848089144999
 20
119.4459311193471
 30
0.0
 10
73.93848089144999
 20
119.4459311193471
 30
0.0
 10
73.08027841334454
 20
119.4762700074619
 30
0.0
 10
73.08027841334454
 20
120.3040983196756
 30
0.0
 10
73.08027841334454
 20
120.3040983196756
 30
0.0
 10
73.05050396965971
 20
121.282177747457
 30
0.0
 10
73.93848089144999
 20
121.282177747457
 30
0.0
 10
73.93848089144999
 20
121.282177747457
 30
0.0
 10
76.33193886980584
 20
121.282177747457
 30
0.0
 10
76.33193886980584
 20
121.282177747457
 30
0.0
 10
76.33193886980584
 20
121.282177747457
 30
0.0
 10
76.33193886980584
 20
122.2150954931442
 30
0.0
 10
76.33193886980584
 20
122.2150954931442
 30
0.0
 10
76.33193886980584
 20
122.2150954931442
 30
0.0
 10
71.54481317473976
 20
122.2150954931442
 30
0.0
 10
71.54481317473976
 20
122.2150954931442
 30
0.0
  0
SPLINE
  5
9B
330
70
100
AcDbEntity
  8
Dimensions
 62
   250
420
  1907995
370
     9
100
AcDbSpline
210
0.0
220
0.0
230
1.0
 70
    11
 71
     3
 72
    32
 73
    28
 74
     0
 42
0.0000000001
 43
0.0000000001
 40
0.0
 40
0.0
 40
0.0
 40
0.0
 40
1.0
 40
1.0
 40
1.0
 40
2.0
 40
2.0
 40
2.0
 40
3.0
 40
3.0
 40
3.0
 40
4.0
 40
4.0
 40
4.0
 40
5.0
 40
5.0
 40
5.0
 40
6.0
 40
6.0
 40
6.0
 40
7.0
 40
7.0
 40
7.0
 40
8.0
 40
8.0
 40
8.0
 40
9.0
 40
9.0
 40
9.0
 40
9.0
 10
91.24939183870074
 20
122.2150954931442
 30
0.0
 10
91.24939183870074
 20
122.2150954931442
 30
0.0
 10
91.24939183870074
 20
118.2112089286252
 30
0.0
 10
91.24939183870074
 20
118.2112089286252
 30
0.0
 10
91.24939183870074
 20
118.2112089286252
 30
0.0
 10
96.03651560545992
 20
118.2112089286252
 30
0.0
 10
96.03651560545992
 20
118.2112089286252
 30
0.0
 10
96.03651560545992
 20
118.2112089286252
 30
0.0
 10
96.03651560545992
 20
119.4459311193471
 30
0.0
 10
96.03651560545992
 20
119.4459311193471
 30
0.0
 10
96.03651560545992
 20
119.4459311193471
 30
0.0
 10
93.64302427763409
 20
119.4459311193471
 30
0.0
 10
93.64302427763409
 20
119.4459311193471
 30
0.0
 10
93.64302427763409
 20
119.4459311193471
 30
0.0
 10
92.78485707730553
 20
119.4762700074619
 30
0.0
 10
92.78485707730553
 20
120.3040983196756
 30
0.0
 10
92.78485707730553
 20
120.3040983196756
 30
0.0
 10
92.75504735584382
 20
121.282177747457
 30
0.0
 10
93.64302427763409
 20
121.282177747457
 30
0.0
 10
93.64302427763409
 20
121.282177747457
 30
0.0
 10
96.03651560545992
 20
121.282177747457
 30
0.0
 10
96.03651560545992
 20
121.282177747457
 30
0.0
 10
96.03651560545992
 20
121.282177747457
 30
0.0
 10
96.03651560545992
 20
122.2150954931442
 30
0.0
 10
96.03651560545992
 20
122.2150954931442
 30
0.0
 10
96.03651560545992
 20
122.2150954931442
 30
0.0
 10
91.24939183870074
 20
122.2150954931442
 30
0.0
 10
91.24939183870074
 20
122.2150954931442
 30
0.0
  0
SPLINE
  5
9C
330
70
100
AcDbEntity
  8
Dimensions
 62
   250
420
  1907995
370
     9
100
AcDbSpline
210
0.0
220
0.0
230
1.0
 70
    11
 71
     3
 72
    32
 73
    28
 74
     0
 42
0.0000000001
 43
0.0000000001
 40
0.0
 40
0.0
 40
0.0
 40
0.0
 40
1.0
 40
1.0
 40
1.0
 40
2.0
 40
2.0
 40
2.0
 40
3.0
 40
3.0
 40
3.0
 40
4.0
 40
4.0
 40
4.0
 40
5.0
 40
5.0
 40
5.0
 40
6.0
 40
6.0
 40
6.0
 40
7.0
 40
7.0
 40
7.0
 40
8.0
 40
8.0
 40
8.0
 40
9.0
 40
9.0
 40
9.0
 40
9.0
 10
71.54481317473976
 20
135.8232157015277
 30
0.0
 10
71.54481317473976
 20
135.8232157015277
 30
0.0
 10
71.54481317473976
 20
131.8193291370087
 30
0.0
 10
71.54481317473976
 20
131.8193291370087
 30
0.0
 10
71.54481317473976
 20
131.8193291370087
 30
0.0
 10
76.33193886980584
 20
131.8193291370087
 30
0.0
 10
76.33193886980584
 20
131.8193291370087
 30
0.0
 10
76.33193886980584
 20
131.8193291370087
 30
0.0
 10
76.33193886980584
 20
133.0540513277306
 30
0.0
 10
76.33193886980584
 20
133.0540513277306
 30
0.0
 10
76.33193886980584
 20
133.0540513277306
 30
0.0
 10
73.93848089144999
 20
133.0540513277306
 30
0.0
 10
73.93848089144999
 20
133.0540513277306
 30
0.0
 10
73.93848089144999
 20
133.0540513277306
 30
0.0
 10
73.08027841334454
 20
133.0843902158454
 30
0.0
 10
73.08027841334454
 20
133.912253805836
 30
0.0
 10
73.08027841334454
 20
133.912253805836
 30
0.0
 10
73.05050396965971
 20
134.8902948919952
 30
0.0
 10
73.93848089144999
 20
134.8902948919952
 30
0.0
 10
73.93848089144999
 20
134.8902948919952
 30
0.0
 10
76.33193886980584
 20
134.8902948919952
 30
0.0
 10
76.33193886980584
 20
134.8902948919952
 30
0.0
 10
76.33193886980584
 20
134.8902948919952
 30
0.0
 10
76.33193886980584
 20
135.8232157015277
 30
0.0
 10
76.33193886980584
 20
135.8232157015277
 30
0.0
 10
76.33193886980584
 20
135.8232157015277
 30
0.0
 10
71.54481317473976
 20
135.8232157015277
 30
0.0
 10
71.54481317473976
 20
135.8232157015277
 30
0.0
  0
SPLINE
  5
9D
330
70
100
AcDbEntity
  8
Dimensions
 62
   250
420
  1907995
370
     9
100
AcDbSpline
210
0.0
220
0.0
230
1.0
 70
    11
 71
     3
 72
    32
 73
    28
 74
     0
 42
0.0000000001
 43
0.0000000001
 40
0.0
 40
0.0
 40
0.0
 40
0.0
 40
1.0
 40
1.0
 40
1.0
 40
2.0
 40
2.0
 40
2.0
 40
3.0
 40
3.0
 40
3.0
 40
4.0
 40
4.0
 40
4.0
 40
5.0
 40
5.0
 40
5.0
 40
6.0
 40
6.0
 40
6.0
 40
7.0
 40
7.0
 40
7.0
 40
8.0
 40
8.0
 40
8.0
 40
9.0
 40
9.0
 40
9.0
 40
9.0
 10
91.24939183870074
 20
135.8232157015277
 30
0.0
 10
91.24939183870074
 20
135.8232157015277
 30
0.0
 10
91.24939183870074
 20
131.8193291370087
 30
0.0
 10
91.24939183870074
 20
131.8193291370087
 30
0.0
 10
91.24939183870074
 20
131.8193291370087
 30
0.0
 10
96.03651560545992
 20
131.8193291370087
 30
0.0
 10
96.03651560545992
 20
131.8193291370087
 30
0.0
 10
96.03651560545992
 20
131.8193291370087
 30
0.0
 10
96.03651560545992
 20
133.0540513277306
 30
0.0
 10
96.03651560545992
 20
133.0540513277306
 30
0.0
 10
96.03651560545992
 20
133.0540513277306
 30
0.0
 10
93.64302427763409
 20
133.0540513277306
 30
0.0
 10
93.64302427763409
 20
133.0540513277306
 30
0.0
 10
93.64302427763409
 20
133.0540513277306
 30
0.0
 10
92.78485707730553
 20
133.0843902158454
 30
0.0
 10
92.78485707730553
 20
133.912253805836
 30
0.0
 10
92.78485707730553
 20
133.912253805836
 30
0.0
 10
92.75504735584382
 20
134.8902948919952
 30
0.0
 10
93.64302427763409
 20
134.8902948919952
 30
0.0
 10
93.64302427763409
 20
134.8902948919952
 30
0.0
 10
96.03651560545992
 20
134.8902948919952
 30
0.0
 10
96.03651560545992
 20
134.8902948919952
 30
0.0
 10
96.03651560545992
 20
134.8902948919952
 30
0.0
 10
96.03651560545992
 20
135.8232157015277
 30
0.0
 10
96.03651560545992
 20
135.8232157015277
 30
0.0
 10
96.03651560545992
 20
135.8232157015277
 30
0.0
 10
91.24939183870074
 20
135.8232157015277
 30
0.0
 10
91.24939183870074
 20
135.8232157015277
 30
0.0
  0
LINE
  5
9F
330
70
100
AcDbEntity
  8
Cotas
 62
   250
420
  1907995
370
     5
100
AcDbLine
 10
122.7746010344256
 20
184.8555555093417
 30
0.0
 11
122.7746010344256
 21
179.0934551531675
 31
0.0
  0
LINE
  5
A0
330
70
100
AcDbEntity
  8
Cotas
 62
   250
420
  1907995
370
     5
100
AcDbLine
 10
64.2842586377497
 20
184.8555555093417
 30
0.0
 11
64.2842586377497
 21
169.2490856820961
 31
0.0
  0
LINE
  5
A1
330
70
100
AcDbEntity
  8
Cotas
 62
   250
420
  1907995
370
     5
100
AcDbLine
 10
64.2842586377497
 20
183.6208332874281
 30
0.0
 11
122.7746010344256
 21
183.6208332874281
 31
0.0
  0
LINE
  5
A2
330
70
100
AcDbEntity
  8
Cotas
 62
   250
420
  1907995
370
     5
100
AcDbLine
 10
64.2842586377497
 20
138.4556434121467
 30
0.0
 11
73.97548727939476
 21
138.4556434121467
 31
0.0
  0
LINE
  5
A3
330
70
100
AcDbEntity
  8
Cotas
 62
   250
420
  1907995
370
     5
100
AcDbLine
 10
73.97548727939476
 20
138.4556434121467
 30
0.0
 11
93.6428478887497
 21
138.4556434121467
 31
0.0
  0
LINE
  5
A4
330
70
100
AcDbEntity
  8
Cotas
 62
   250
420
  1907995
370
     5
100
AcDbLine
 10
59.53124998511719
 20
145.3444444081083
 30
0.0
 11
59.53124998511719
 21
178.540334889501
 31
0.0
  0
LINE
  5
A5
330
70
100
AcDbEntity
  8
Cotas
 62
   250
420
  1907995
370
     5
100
AcDbLine
 10
59.53124998511719
 20
119.9971463830622
 30
0.0
 11
59.53124998511719
 21
133.8209582998778
 31
0.0
  0
MTEXT
  5
A6
330
70
100
AcDbEntity
  8
Cotas
100
AcDbMText
 10
91.92668928921147
 20
185.3848315172855
 30
0.0
 40
0.2
 41
0.0
 46
0.0
 71
     7
 72
     1
  1
\C250;\c1776925;\FHelvetica Neue LT Std 55 Roman|b0|i0|c1;\H3.496733;\W1.000000;A
 73
     1
 44
1.0
  0
MTEXT
  5
A7
330
70
100
AcDbEntity
  8
Cotas
100
AcDbMText
 10
67.52714569734822
 20
139.7546101114779
 30
0.0
 40
0.2
 41
0.0
 46
0.0
 71
     7
 72
     1
  1
\C250;\c1776925;\FHelvetica Neue LT Std 55 Roman|b0|i0|c1;\H3.496733;\W1.000000;C
 73
     1
 44
1.0
  0
MTEXT
  5
A8
330
70
100
AcDbEntity
  8
Cotas
100
AcDbMText
 10
93.56556427523837
 20
109.0643214906782
 30
0.0
 40
0.2
 41
0.0
 46
0.0
 71
     7
 72
     1
  1
\C250;\c1776925;\FHelvetica Neue LT Std 55 Roman|b0|i0|c1;\H3.496733;\W1.000000;8
 73
     1
 44
1.0
  0
MTEXT
  5
A9
330
70
100
AcDbEntity
  8
Cotas
100
AcDbMText
 10
105.7132663462523
 20
115.8912895760619
 30
0.0
 40
0.2
 41
0.0
 46
0.0
 71
     7
 72
     1
  1
\C250;\c1776925;\FHelvetica Neue LT Std 55 Roman|b0|i0|c1;\H3.496733;\W1.000000;6,5
 11
0.0000000000000001
 21
1.0
 31
0.0
 73
     1
 44
1.0
  0
MTEXT
  5
AA
330
70
100
AcDbEntity
  8
Cotas
100
AcDbMText
 10
82.21927148564873
 20
139.7546101114779
 30
0.0
 40
0.2
 41
0.0
 46
0.0
 71
     7
 72
     1
  1
\C250;\c1776925;\FHelvetica Neue LT Std 55 Roman|b0|i0|c1;\H3.496733;\W1.000000;D
 73
     1
 44
1.0
  0
MTEXT
  5
AB
330
70
100
AcDbEntity
  8
Cotas
100
AcDbMText
 10
141.1622707437893
 20
181.9743595780975
 30
0.0
 40
0.2
 41
0.0
 46
0.0
 71
     7
 72
     1
  1
\C250;\c1776925;\FHelvetica Neue LT Std 55 Roman|b0|i0|c1;\H3.496733;\W1.000000;33
 73
     1
 44
1.0
  0
MTEXT
  5
AC
330
70
100
AcDbEntity
  8
Cotas
100
AcDbMText
 10
57.76748793270423
 20
160.2506835536873
 30
0.0
 40
0.2
 41
0.0
 46
0.0
 71
     7
 72
     1
  1
\C250;\c1776925;\FHelvetica Neue LT Std 55 Roman|b0|i0|c1;\H3.496733;\W1.000000;B
 11
0.0000000000000001
 21
1.0
 31
0.0
 73
     1
 44
1.0
  0
MTEXT
  5
AD
330
70
100
AcDbEntity
  8
Cotas
100
AcDbMText
 10
57.76748793270423
 20
124.1629638361467
 30
0.0
 40
0.2
 41
0.0
 46
0.0
 71
     7
 72
     1
  1
\C250;\c1776925;\FHelvetica Neue LT Std 55 Roman|b0|i0|c1;\H3.496733;\W1.000000;46
 11
0.0000000000000001
 21
1.0
 31
0.0
 73
     1
 44
1.0
  0
MTEXT
  5
AE
330
70
100
AcDbEntity
  8
Cotas
100
AcDbMText
 10
77.99445191211479
 20
162.6643449702811
 30
0.0
 40
0.2
 41
0.0
 46
0.0
 71
     7
 72
     1
  1
\C250;\c1776925;\FHelvetica Neue LT Std 55 Roman|b0|i0|c1;\H3.496749;\W1.000005;E
 11
0.7071067811865476
 21
0.7071067811865476
 31
0.0
 73
     1
 44
1.0
  0
LINE
  5
AF
330
70
100
AcDbEntity
  8
Cotas
 62
   250
420
  1907995
370
     5
100
AcDbLine
 10
67.82152776082241
 20
178.5406876672698
 30
0.0
 11
58.29652776320365
 21
178.5406876672698
 31
0.0
  0
LINE
  5
B0
330
70
100
AcDbEntity
  8
Cotas
 62
   250
420
  1907995
370
     5
100
AcDbLine
 10
67.82152776082241
 20
145.3923126796219
 30
0.0
 11
58.29652776320365
 21
145.3923126796219
 31
0.0
  0
LINE
  5
B1
330
70
100
AcDbEntity
  8
Cotas
 62
   250
420
  1907995
370
     5
100
AcDbLine
 10
67.82152776082241
 20
133.8212724192682
 30
0.0
 11
58.29652776320365
 21
133.8212724192682
 31
0.0
  0
LINE
  5
B2
330
70
100
AcDbEntity
  8
Cotas
 62
   250
420
  1907995
370
     5
100
AcDbLine
 10
67.82152776082241
 20
120.2131522108847
 30
0.0
 11
58.29652776320365
 21
120.2131522108847
 31
0.0
  0
LINE
  5
B3
330
70
100
AcDbEntity
  8
Cotas
 62
   250
420
  1907995
370
     5
100
AcDbLine
 10
72.70682786731651
 20
155.8109690804865
 30
0.0
 11
87.19759805318172
 21
170.3015628774674
 31
0.0
  0
LINE
  5
B4
330
70
100
AcDbEntity
  8
Cotas
 62
   250
420
  1907995
370
     5
100
AcDbLine
 10
148.759223704836
 20
184.2299347443472
 30
0.0
 11
148.759223704836
 21
179.9853831859681
 31
0.0
  0
LINE
  5
B5
330
70
100
AcDbEntity
  8
Cotas
 62
   250
420
  1907995
370
     5
100
AcDbLine
 10
138.7894417369641
 20
184.2299347443472
 30
0.0
 11
138.7894417369641
 21
179.9853831859681
 31
0.0
  0
LINE
  5
B6
330
70
100
AcDbEntity
  8
Cotas
 62
   250
420
  1907995
370
     5
100
AcDbLine
 10
138.7894417369641
 20
183.1850069932278
 30
0.0
 11
134.2984396293169
 21
183.1850069932278
 31
0.0
  0
LINE
  5
B7
330
70
100
AcDbEntity
  8
Cotas
 62
   250
420
  1907995
370
     5
100
AcDbLine
 10
153.2502610902601
 20
183.1850069932278
 30
0.0
 11
148.759223704836
 21
183.1850069932278
 31
0.0
  0
LINE
  5
B8
330
70
100
AcDbEntity
  8
Cotas
 62
   250
420
  1907995
370
     5
100
AcDbLine
 10
64.2842586377497
 20
139.3692672777271
 30
0.0
 11
64.2842586377497
 21
133.1005860778358
 31
0.0
  0
LINE
  5
B9
330
70
100
AcDbEntity
  8
Cotas
 62
   250
420
  1907995
370
     5
100
AcDbLine
 10
93.6428478887497
 20
139.3692672777271
 30
0.0
 11
93.6428478887497
 21
133.8212724192682
 31
0.0
  0
LINE
  5
BA
330
70
100
AcDbEntity
  8
Cotas
 62
   250
420
  1907995
370
     5
100
AcDbLine
 10
73.97548727939476
 20
139.3692672777271
 30
0.0
 11
73.97548727939476
 21
133.8212724192682
 31
0.0
  0
LINE
  5
BB
330
70
100
AcDbEntity
  8
Cotas
 62
   250
420
  1907995
370
     5
100
AcDbLine
 10
96.03651560545992
 20
117.6210822770139
 30
0.0
 11
96.03651560545992
 21
113.3767071075192
 31
0.0
  0
LINE
  5
BC
330
70
100
AcDbEntity
  8
Cotas
 62
   250
420
  1907995
370
     5
100
AcDbLine
 10
93.74741121941539
 20
117.6210822770139
 30
0.0
 11
93.74741121941539
 21
113.3767071075192
 31
0.0
  0
LINE
  5
BD
330
70
100
AcDbEntity
  8
Cotas
 62
   250
420
  1907995
370
     5
100
AcDbLine
 10
93.74741121941539
 20
116.5761545258945
 30
0.0
 11
89.25640911176818
 21
116.5761545258945
 31
0.0
  0
LINE
  5
BE
330
70
100
AcDbEntity
  8
Cotas
 62
   250
420
  1907995
370
     5
100
AcDbLine
 10
100.5276941019915
 20
116.5761545258945
 30
0.0
 11
96.03651560545992
 21
116.5761545258945
 31
0.0
  0
LINE
  5
BF
330
70
100
AcDbEntity
  8
Cotas
 62
   250
420
  1907995
370
     5
100
AcDbLine
 10
97.07795085666848
 20
121.3738263479401
 30
0.0
 11
101.3223260261632
 21
121.3738263479401
 31
0.0
  0
LINE
  5
C0
330
70
100
AcDbEntity
  8
Cotas
 62
   250
420
  1907995
370
     5
100
AcDbLine
 10
97.07795085666848
 20
119.4376761195577
 30
0.0
 11
101.3223260261632
 21
119.4376761195577
 31
0.0
  0
LINE
  5
C1
330
70
100
AcDbEntity
  8
Cotas
 62
   250
420
  1907995
370
     5
100
AcDbLine
 10
98.12252583001914
 20
119.4373233417889
 30
0.0
 11
98.12252583001914
 21
117.537368112483
 31
0.0
  0
LINE
  5
C2
330
70
100
AcDbEntity
  8
Cotas
 62
   250
420
  1907995
370
     5
100
AcDbLine
 10
98.12252583001914
 20
123.3292382424979
 30
0.0
 11
98.12252583001914
 21
121.3734735701714
 31
0.0
  0
LINE
  5
C3
330
70
100
AcDbEntity
  8
Cotas
 62
   178
420
   526345
370
    25
100
AcDbLine
 10
140.8870583501161
 20
98.56847220753101
 30
0.0
 11
140.8870583501161
 21
53.2250636421155
 31
0.0
  0
LINE
  5
C4
330
70
100
AcDbEntity
  8
Cotas
 62
   178
420
   526345
370
    25
100
AcDbLine
 10
129.0536219853456
 20
98.56847220753101
 30
0.0
 11
129.0536219853456
 21
53.2250636421155
 31
0.0
  0
LINE
  5
C5
330
70
100
AcDbEntity
  8
Cotas
 62
   178
420
   526345
370
    25
100
AcDbLine
 10
117.2202208983519
 20
98.56847220753101
 30
0.0
 11
117.2202208983519
 21
53.2250636421155
 31
0.0
  0
LINE
  5
C6
330
70
100
AcDbEntity
  8
Cotas
 62
   178
420
   526345
370
    25
100
AcDbLine
 10
93.55338344658767
 20
98.56847220753101
 30
0.0
 11
93.55338344658767
 21
53.2250636421155
 31
0.0
  0
LINE
  5
C7
330
70
100
AcDbEntity
  8
Cotas
 62
   178
420
   526345
370
    25
100
AcDbLine
 10
105.3867845335813
 20
98.56847220753101
 30
0.0
 11
105.3867845335813
 21
53.2250636421155
 31
0.0
  0
LINE
  5
C8
330
70
100
AcDbEntity
  8
Cotas
 62
   178
420
   526345
370
    25
100
AcDbLine
 10
83.60145203381593
 20
98.77749303553176
 30
0.0
 11
83.60145203381593
 21
53.43411974789315
 31
0.0
  0
LINE
  5
C9
330
70
100
AcDbEntity
  8
Cotas
 62
   178
420
   526345
370
    25
100
AcDbLine
 10
66.18820025584277
 20
98.56847220753101
 30
0.0
 11
66.18820025584277
 21
53.2250636421155
 31
0.0
  0
MTEXT
  5
CA
330
70
100
AcDbEntity
  8
Cotas
100
AcDbMText
 10
132.605806857972
 20
56.01140803950125
 30
0.0
 40
0.2
 41
0.0
 46
0.0
 71
     7
 72
     1
  1
\C178;\c591880;\FMyriad Pro|b0|i0|c1;\H2.519077;\W0.939500;210
 73
     1
 44
1.0
  0
MTEXT
  5
CB
330
70
100
AcDbEntity
  8
Cotas
100
AcDbMText
 10
132.605806857972
 20
63.64160552023259
 30
0.0
 40
0.2
 41
0.0
 46
0.0
 71
     7
 72
     1
  1
\C178;\c591880;\FMyriad Pro|b0|i0|c1;\H2.519077;\W0.939500;140
 73
     1
 44
1.0
  0
MTEXT
  5
CC
330
70
100
AcDbEntity
  8
Cotas
100
AcDbMText
 10
132.605806857972
 20
70.65168581361895
 30
0.0
 40
0.2
 41
0.0
 46
0.0
 71
     7
 72
     1
  1
\C178;\c591880;\FMyriad Pro|b0|i0|c1;\H2.519077;\W0.939500;105
 73
     1
 44
1.0
  0
MTEXT
  5
CD
330
70
100
AcDbEntity
  8
Cotas
100
AcDbMText
 10
132.605806857972
 20
78.66153281682483
 30
0.0
 40
0.2
 41
0.0
 46
0.0
 71
     7
 72
     1
  1
\C178;\c591880;\FMyriad Pro|b0|i0|c1;\H2.519077;\W0.939500;70
 73
     1
 44
1.0
  0
MTEXT
  5
CE
330
70
100
AcDbEntity
  8
Cotas
100
AcDbMText
 10
132.605806857972
 20
85.90725764140229
 30
0.0
 40
0.2
 41
0.0
 46
0.0
 71
     7
 72
     1
  1
\C178;\c591880;\FMyriad Pro|b0|i0|c1;\H2.519077;\W0.939500;35
 73
     1
 44
1.0
  0
MTEXT
  5
CF
330
70
100
AcDbEntity
  8
Cotas
100
AcDbMText
 10
120.195194881908
 20
56.01140803950125
 30
0.0
 40
0.2
 41
0.0
 46
0.0
 71
     7
 72
     1
  1
\C178;\c591880;\FMyriad Pro|b0|i0|c1;\H2.519077;\W0.939500;161
 73
     1
 44
1.0
  0
MTEXT
  5
D0
330
70
100
AcDbEntity
  8
Cotas
100
AcDbMText
 10
120.195194881908
 20
63.64160552023259
 30
0.0
 40
0.2
 41
0.0
 46
0.0
 71
     7
 72
     1
  1
\C178;\c591880;\FMyriad Pro|b0|i0|c1;\H2.519077;\W0.939500;123
 73
     1
 44
1.0
  0
MTEXT
  5
D1
330
70
100
AcDbEntity
  8
Cotas
100
AcDbMText
 10
120.195194881908
 20
70.65168581361895
 30
0.0
 40
0.2
 41
0.0
 46
0.0
 71
     7
 72
     1
  1
\C178;\c591880;\FMyriad Pro|b0|i0|c1;\H2.519077;\W0.939500;94
 73
     1
 44
1.0
  0
MTEXT
  5
D2
330
70
100
AcDbEntity
  8
Cotas
100
AcDbMText
 10
120.195194881908
 20
78.66153281682483
 30
0.0
 40
0.2
 41
0.0
 46
0.0
 71
     7
 72
     1
  1
\C178;\c591880;\FMyriad Pro|b0|i0|c1;\H2.519077;\W0.939500;66
 73
     1
 44
1.0
  0
MTEXT
  5
D3
330
70
100
AcDbEntity
  8
Cotas
100
AcDbMText
 10
120.195194881908
 20
85.90725764140229
 30
0.0
 40
0.2
 41
0.0
 46
0.0
 71
     7
 72
     1
  1
\C178;\c591880;\FMyriad Pro|b0|i0|c1;\H2.519077;\W0.939500;48,5
 73
     1
 44
1.0
  0
MTEXT
  5
D4
330
70
100
AcDbEntity
  8
Cotas
100
AcDbMText
 10
108.0154043033557
 20
56.01140803950125
 30
0.0
 40
0.2
 41
0.0
 46
0.0
 71
     7
 72
     1
  1
\C178;\c591880;\FMyriad Pro|b0|i0|c1;\H2.519077;\W0.939500;69
 73
     1
 44
1.0
  0
MTEXT
  5
D5
330
70
100
AcDbEntity
  8
Cotas
100
AcDbMText
 10
108.0154043033557
 20
63.64160552023259
 30
0.0
 40
0.2
 41
0.0
 46
0.0
 71
     7
 72
     1
  1
\C178;\c591880;\FMyriad Pro|b0|i0|c1;\H2.519077;\W0.939500;48,5
 73
     1
 44
1.0
  0
MTEXT
  5
D6
330
70
100
AcDbEntity
  8
Cotas
100
AcDbMText
 10
108.0154043033557
 20
70.65168581361895
 30
0.0
 40
0.2
 41
0.0
 46
0.0
 71
     7
 72
     1
  1
\C178;\c591880;\FMyriad Pro|b0|i0|c1;\H2.519077;\W0.939500;38
 73
     1
 44
1.0
  0
MTEXT
  5
D7
330
70
100
AcDbEntity
  8
Cotas
100
AcDbMText
 10
108.0154043033557
 20
78.66153281682483
 30
0.0
 40
0.2
 41
0.0
 46
0.0
 71
     7
 72
     1
  1
\C178;\c591880;\FMyriad Pro|b0|i0|c1;\H2.519077;\W0.939500;32
 73
     1
 44
1.0
  0
MTEXT
  5
D8
330
70
100
AcDbEntity
  8
Cotas
100
AcDbMText
 10
108.0154043033557
 20
85.90725764140229
 30
0.0
 40
0.2
 41
0.0
 46
0.0
 71
     7
 72
     1
  1
\C178;\c591880;\FMyriad Pro|b0|i0|c1;\H2.519077;\W0.939500;26
 73
     1
 44
1.0
  0
MTEXT
  5
D9
330
70
100
AcDbEntity
  8
Cotas
100
AcDbMText
 10
97.02003755263234
 20
56.01140803950125
 30
0.0
 40
0.2
 41
0.0
 46
0.0
 71
     7
 72
     1
  1
\C178;\c591880;\FMyriad Pro|b0|i0|c1;\H2.519077;\W0.939500;284
 73
     1
 44
1.0
  0
MTEXT
  5
DA
330
70
100
AcDbEntity
  8
Cotas
100
AcDbMText
 10
97.02003755263234
 20
63.64160552023259
 30
0.0
 40
0.2
 41
0.0
 46
0.0
 71
     7
 72
     1
  1
\C178;\c591880;\FMyriad Pro|b0|i0|c1;\H2.519077;\W0.939500;196
 73
     1
 44
1.0
  0
MTEXT
  5
DB
330
70
100
AcDbEntity
  8
Cotas
100
AcDbMText
 10
97.02003755263234
 20
70.65168581361895
 30
0.0
 40
0.2
 41
0.0
 46
0.0
 71
     7
 72
     1
  1
\C178;\c591880;\FMyriad Pro|b0|i0|c1;\H2.519077;\W0.939500;146
 73
     1
 44
1.0
  0
MTEXT
  5
DC
330
70
100
AcDbEntity
  8
Cotas
100
AcDbMText
 10
97.02003755263234
 20
78.66153281682483
 30
0.0
 40
0.2
 41
0.0
 46
0.0
 71
     7
 72
     1
  1
\C178;\c591880;\FMyriad Pro|b0|i0|c1;\H2.519077;\W0.939500;110
 73
     1
 44
1.0
  0
MTEXT
  5
DD
330
70
100
AcDbEntity
  8
Cotas
100
AcDbMText
 10
97.02003755263234
 20
85.90725764140229
 30
0.0
 40
0.2
 41
0.0
 46
0.0
 71
     7
 72
     1
  1
\C178;\c591880;\FMyriad Pro|b0|i0|c1;\H2.519077;\W0.939500;79
 73
     1
 44
1.0
  0
MTEXT
  5
DE
330
70
100
AcDbEntity
  8
Cotas
100
AcDbMText
 10
85.30257878820059
 20
56.01140803950125
 30
0.0
 40
0.2
 41
0.0
 46
0.0
 71
     7
 72
     1
  1
\C178;\c591880;\FMyriad Pro|b0|i0|c1;\H2.519077;\W0.939500;365
 73
     1
 44
1.0
  0
MTEXT
  5
DF
330
70
100
AcDbEntity
  8
Cotas
100
AcDbMText
 10
85.30257878820059
 20
63.64160552023259
 30
0.0
 40
0.2
 41
0.0
 46
0.0
 71
     7
 72
     1
  1
\C178;\c591880;\FMyriad Pro|b0|i0|c1;\H2.519077;\W0.939500;286
 73
     1
 44
1.0
  0
MTEXT
  5
E0
330
70
100
AcDbEntity
  8
Cotas
100
AcDbMText
 10
85.30257878820059
 20
70.65168581361895
 30
0.0
 40
0.2
 41
0.0
 46
0.0
 71
     7
 72
     1
  1
\C178;\c591880;\FMyriad Pro|b0|i0|c1;\H2.519077;\W0.939500;236
 73
     1
 44
1.0
  0
MTEXT
  5
E1
330
70
100
AcDbEntity
  8
Cotas
100
AcDbMText
 10
85.30257878820059
 20
78.66153281682483
 30
0.0
 40
0.2
 41
0.0
 46
0.0
 71
     7
 72
     1
  1
\C178;\c591880;\FMyriad Pro|b0|i0|c1;\H2.519077;\W0.939500;196
 73
     1
 44
1.0
  0
MTEXT
  5
E2
330
70
100
AcDbEntity
  8
Cotas
100
AcDbMText
 10
85.30257878820059
 20
85.90725764140229
 30
0.0
 40
0.2
 41
0.0
 46
0.0
 71
     7
 72
     1
  1
\C178;\c591880;\FMyriad Pro|b0|i0|c1;\H2.519077;\W0.939500;166
 73
     1
 44
1.0
  0
MTEXT
  5
E3
330
70
100
AcDbEntity
  8
Cotas
100
AcDbMText
 10
67.52106295063208
 20
55.95628651173725
 30
0.0
 40
0.2
 41
0.0
 46
0.0
 71
     7
 72
     1
  1
\C178;\c591880;\FMyriad Pro|b0|i0|c1;\H2.519077;\W0.939500;WGBU-210
 73
     1
 44
1.0
  0
MTEXT
  5
E4
330
70
100
AcDbEntity
  8
Cotas
100
AcDbMText
 10
67.52106295063208
 20
63.71946467819923
 30
0.0
 40
0.2
 41
0.0
 46
0.0
 71
     7
 72
     1
  1
\C178;\c591880;\FMyriad Pro|b0|i0|c1;\H2.519077;\W0.939500;WGBU-140
 73
     1
 44
1.0
  0
MTEXT
  5
E5
330
70
100
AcDbEntity
  8
Cotas
100
AcDbMText
 10
67.52106295063208
 20
70.96450048367964
 30
0.0
 40
0.2
 41
0.0
 46
0.0
 71
     7
 72
     1
  1
\C178;\c591880;\FMyriad Pro|b0|i0|c1;\H2.519077;\W0.939500;WGBU-105
 73
     1
 44
1.0
  0
MTEXT
  5
E6
330
70
100
AcDbEntity
  8
Cotas
100
AcDbMText
 10
67.52106295063208
 20
78.72767865014163
 30
0.0
 40
0.2
 41
0.0
 46
0.0
 71
     7
 72
     1
  1
\C178;\c591880;\FMyriad Pro|b0|i0|c1;\H2.519077;\W0.939500;WGBU-70
 73
     1
 44
1.0
  0
MTEXT
  5
E7
330
70
100
AcDbEntity
  8
Cotas
100
AcDbMText
 10
67.52106295063208
 20
85.97340347471908
 30
0.0
 40
0.2
 41
0.0
 46
0.0
 71
     7
 72
     1
  1
\C178;\c591880;\FMyriad Pro|b0|i0|c1;\H2.519077;\W0.939500;WGBU-35
 73
     1
 44
1.0
  0
LINE
  5
E8
330
70
100
AcDbEntity
  8
Cotas
 62
   178
420
   526345
370
    25
100
AcDbLine
 10
66.18820025584277
 20
53.2250636421155
 30
0.0
 11
140.8870583501161
 21
53.2250636421155
 31
0.0
  0
LINE
  5
E9
330
70
100
AcDbEntity
  8
Cotas
 62
   178
420
   526345
370
    25
100
AcDbLine
 10
66.18820025584277
 20
60.78230428264756
 30
0.0
 11
140.8870583501161
 21
60.78230428264756
 31
0.0
  0
LINE
  5
EA
330
70
100
AcDbEntity
  8
Cotas
 62
   178
420
   526345
370
    25
100
AcDbLine
 10
66.18820025584277
 20
68.33954492317963
 30
0.0
 11
140.8870583501161
 21
68.33954492317963
 31
0.0
  0
LINE
  5
EB
330
70
100
AcDbEntity
  8
Cotas
 62
   178
420
   526345
370
    25
100
AcDbLine
 10
66.18820025584277
 20
75.89675028593481
 30
0.0
 11
140.8870583501161
 21
75.89675028593481
 31
0.0
  0
LINE
  5
EC
330
70
100
AcDbEntity
  8
Cotas
 62
   178
420
   526345
370
    25
100
AcDbLine
 10
66.18820025584277
 20
83.45399092646687
 30
0.0
 11
140.8870583501161
 21
83.45399092646687
 31
0.0
  0
LINE
  5
ED
330
70
100
AcDbEntity
  8
Cotas
 62
   178
420
   526345
370
    25
100
AcDbLine
 10
66.18820025584277
 20
91.01123156699893
 30
0.0
 11
140.8870583501161
 21
91.01123156699893
 31
0.0
  0
LINE
  5
EE
330
70
100
AcDbEntity
  8
Cotas
 62
   178
420
   526345
370
    25
100
AcDbLine
 10
66.18820025584277
 20
98.56847220753101
 30
0.0
 11
140.8870583501161
 21
98.56847220753101
 31
0.0
  0
MTEXT
  5
EF
330
70
100
AcDbEntity
  8
Cotas
100
AcDbMText
 10
135.2847131073023
 20
93.63116171933242
 30
0.0
 40
0.2
 41
0.0
 46
0.0
 71
     7
 72
     1
  1
\C178;\c591880;\FMyriad Pro|b0|i0|c1;\H2.519077;\W0.939500;E
 73
     1
 44
1.0
  0
MTEXT
  5
F0
330
70
100
AcDbEntity
  8
Cotas
100
AcDbMText
 10
122.333221140054
 20
93.75931927138372
 30
0.0
 40
0.2
 41
0.0
 46
0.0
 71
     7
 72
     1
  1
\C178;\c591880;\FMyriad Pro|b0|i0|c1;\H2.519077;\W0.939500;D
 73
     1
 44
1.0
  0
MTEXT
  5
F1
330
70
100
AcDbEntity
  8
Cotas
100
AcDbMText
 10
110.6302317766603
 20
93.64011896759407
 30
0.0
 40
0.2
 41
0.0
 46
0.0
 71
     7
 72
     1
  1
\C178;\c591880;\FMyriad Pro|b0|i0|c1;\H2.519077;\W0.939500;C
 73
     1
 44
1.0
  0
MTEXT
  5
F2
330
70
100
AcDbEntity
  8
Cotas
100
AcDbMText
 10
98.45044119810808
 20
93.76896553874242
 30
0.0
 40
0.2
 41
0.0
 46
0.0
 71
     7
 72
     1
  1
\C178;\c591880;\FMyriad Pro|b0|i0|c1;\H2.519077;\W0.939500;B
 73
     1
 44
1.0
  0
MTEXT
  5
F3
330
70
100
AcDbEntity
  8
Cotas
100
AcDbMText
 10
87.94668957312984
 20
93.90814739634651
 30
0.0
 40
0.2
 41
0.0
 46
0.0
 71
     7
 72
     1
  1
\C178;\c591880;\FMyriad Pro|b0|i0|c1;\H2.519077;\W0.939500;A
 73
     1
 44
1.0
  0
MTEXT
  5
F4
330
70
100
AcDbEntity
  8
Cotas
100
AcDbMText
 10
69.06239867073286
 20
93.77792278700406
 30
0.0
 40
0.2
 41
0.0
 46
0.0
 71
     7
 72
     1
  1
\C178;\c591880;\FMyriad Pro|b0|i0|c1;\H2.519077;\W0.939500;TIPO
 73
     1
 44
1.0
  0
MTEXT
  5
F5
330
70
100
AcDbEntity
  8
Cotas
100
AcDbMText
 10
131.9002513025928
 20
93.55536961865693
 30
0.0
 40
0.2
 41
0.0
 46
0.0
 71
     7
 72
     1
  1
\C178;\c591880;\FMyriad Pro|b0|i0|c1;\H2.519077;\W0.939500;Ø
 73
     1
 44
1.0
  0
ENDSEC
  0
SECTION
  2
OBJECTS
  0
DICTIONARY
  5
C
330
0
100
AcDbDictionary
281
     1
  3
ACAD_COLOR
350
63
  3
ACAD_DETAILVIEWSTYLE
350
6A
  3
ACAD_GROUP
350
D
  3
ACAD_IMAGE_DICT
350
79
  3
ACAD_LAYOUT
350
62
  3
ACAD_MATERIAL
350
10
  3
ACAD_MLEADERSTYLE
350
66
  3
ACAD_MLINESTYLE
350
5F
  3
ACAD_PLOTSETTINGS
350
61
  3
ACAD_PLOTSTYLENAME
350
E
  3
ACAD_SCALELIST
350
42
  3
ACAD_SECTIONVIEWSTYLE
350
68
  3
ACAD_TABLESTYLE
350
64
  3
ACAD_VISUALSTYLE
350
29
  3
ACDB_RECOMPOSE_DATA
350
FF
  3
AcDbVariableDictionary
350
F6
  0
DICTIONARY
  5
63
102
{ACAD_REACTORS
330
C
102
}
330
C
100
AcDbDictionary
281
     1
  0
DICTIONARY
  5
6A
102
{ACAD_REACTORS
330
C
102
}
330
C
100
AcDbDictionary
281
     1
  3
Imperial24
350
6B
  0
DICTIONARY
  5
D
102
{ACAD_REACTORS
330
C
102
}
330
C
100
AcDbDictionary
281
     1
  0
DICTIONARY
  5
79
102
{ACAD_REACTORS
330
C
102
}
330
C
100
AcDbDictionary
281
     1
  3
DI_WGBU_MD12_1.png
350
7A
  0
DICTIONARY
  5
62
102
{ACAD_REACTORS
330
C
102
}
330
C
100
AcDbDictionary
281
     1
  3
Layout1
350
6F
  3
Layout2
350
77
  3
Model
350
73
  0
DICTIONARY
  5
10
102
{ACAD_REACTORS
330
C
102
}
330
C
100
AcDbDictionary
281
     1
  3
ByBlock
350
19
  3
ByLayer
350
11
  3
Global
350
21
  0
DICTIONARY
  5
66
102
{ACAD_REACTORS
330
C
102
}
330
C
100
AcDbDictionary
281
     1
  3
Standard
350
67
  0
DICTIONARY
  5
5F
102
{ACAD_REACTORS
330
C
102
}
330
C
100
AcDbDictionary
281
     1
  3
Standard
350
60
  0
DICTIONARY
  5
61
102
{ACAD_REACTORS
330
C
102
}
330
C
100
AcDbDictionary
281
     1
  0
ACDBDICTIONARYWDFLT
  5
E
102
{ACAD_REACTORS
330
C
102
}
330
C
100
AcDbDictionary
281
     1
  3
Normal
350
F
100
AcDbDictionaryWithDefault
340
F
  0
DICTIONARY
  5
42
102
{ACAD_REACTORS
330
C
102
}
330
C
100
AcDbDictionary
281
     1
  3
A0
350
43
  3
A1
350
44
  3
A2
350
45
  3
A3
350
46
  3
A4
350
47
  3
A5
350
48
  3
A6
350
49
  3
A7
350
4A
  3
A8
350
4B
  3
A9
350
4C
  3
B0
350
4D
  3
B1
350
4E
  3
B2
350
4F
  3
B3
350
50
  3
B4
350
51
  3
B5
350
52
  3
B6
350
53
  0
DICTIONARY
  5
68
102
{ACAD_REACTORS
330
C
102
}
330
C
100
AcDbDictionary
281
     1
  3
Imperial24
350
69
  0
DICTIONARY
  5
64
102
{ACAD_REACTORS
330
C
102
}
330
C
100
AcDbDictionary
281
     1
  3
Standard
350
65
  0
DICTIONARY
  5
29
102
{ACAD_REACTORS
330
C
102
}
330
C
100
AcDbDictionary
281
     1
  3
2dWireframe
350
2F
  3
Basic
350
2E
  3
Brighten
350
35
  3
ColorChange
350
39
  3
Conceptual
350
32
  3
Dim
350
34
  3
EdgeColorOff
350
41
  3
Facepattern
350
38
  3
Flat
350
2A
  3
FlatWithEdges
350
2B
  3
Gouraud
350
2C
  3
GouraudWithEdges
350
2D
  3
Hidden
350
31
  3
JitterOff
350
3F
  3
Linepattern
350
37
  3
OverhangOff
350
40
  3
Realistic
350
33
  3
Shaded
350
3E
  3
Shaded with edges
350
3D
  3
Shades of Gray
350
3A
  3
Sketchy
350
3B
  3
Thicken
350
36
  3
Wireframe
350
30
  3
X-Ray
350
3C
  0
XRECORD
  5
FF
102
{ACAD_REACTORS
330
C
102
}
330
C
100
AcDbXrecord
280
     1
 90
        1
330
65
  0
DICTIONARY
  5
F6
102
{ACAD_REACTORS
330
C
102
}
330
C
100
AcDbDictionary
281
     1
  3
CANNOSCALE
350
FB
  3
CMLEADERSTYLE
350
F8
  3
CTABLESTYLE
350
F7
  3
CVIEWDETAILSTYLE
350
F9
  3
CVIEWSECTIONSTYLE
350
FA
  0
ACDBDETAILVIEWSTYLE
  5
6B
102
{ACAD_XDICTIONARY
360
102
102
}
102
{ACAD_REACTORS
330
6A
102
}
330
6A
100
AcDbModelDocViewStyle
 70
     0
  3
Imperial24
290
     0
100
AcDbDetailViewStyle
 70
     0
 71
     0
 90
        3
 71
     1
340
55
 62
   256
 40
0.24
340
0
 62
   256
 40
0.24
300

 40
0.36
280
     3
 71
     2
340
5D
 90
       25
 62
   256
 71
     3
340
55
 62
   256
 40
0.24
 90
        1
 40
0.75
 90
        1
300
%<\AcVar ViewType \f "%tc1">% %<\AcVar ViewDetailId>%\PSCALE %<\AcVar ViewScale \f "%sn">%
 71
     4
340
5D
 90
       25
 62
   256
340
5D
 90
       25
 62
   256
280
     0
  0
IMAGEDEF
  5
7A
102
{ACAD_REACTORS
330
79
102
}
330
79
100
AcDbRasterImageDef
 90
        0
  1
V:\PRODUC-TECA\PRODUCTES\P - Proteccio i Control\P1\WGBU\DI_WGBU_MD12_1.png
 10
504.0
 20
408.0
 11
0.3527336860670194
 21
0.3527336860670194
280
     1
281
     2
  0
LAYOUT
  5
6F
102
{ACAD_REACTORS
330
62
102
}
330
62
100
AcDbPlotSettings
  1

  2

  4

  6

 40
0.0
 41
0.0
 42
0.0
 43
0.0
 44
0.0
 45
0.0
 46
0.0
 47
0.0
 48
0.0
 49
0.0
140
0.0
141
0.0
142
1.0
143
1.0
 70
   688
 72
     0
 73
     0
 74
     5
  7

 75
    16
147
1.0
 76
     0
 77
     2
 78
   300
148
0.0
149
0.0
100
AcDbLayout
  1
Layout1
 70
     1
 71
     1
 10
0.0
 20
0.0
 11
12.0
 21
9.0
 12
0.0
 22
0.0
 32
0.0
 14
0.0
 24
0.0
 34
0.0
 15
0.0
 25
0.0
 35
0.0
146
0.0
 13
0.0
 23
0.0
 33
0.0
 16
1.0
 26
0.0
 36
0.0
 17
0.0
 27
1.0
 37
0.0
 76
     0
330
6C
  0
LAYOUT
  5
77
102
{ACAD_REACTORS
330
62
102
}
330
62
100
AcDbPlotSettings
  1

  2

  4

  6

 40
0.0
 41
0.0
 42
0.0
 43
0.0
 44
0.0
 45
0.0
 46
0.0
 47
0.0
 48
0.0
 49
0.0
140
0.0
141
0.0
142
1.0
143
1.0
 70
   688
 72
     0
 73
     0
 74
     5
  7

 75
    16
147
1.0
 76
     0
 77
     2
 78
   300
148
0.0
149
0.0
100
AcDbLayout
  1
Layout2
 70
     1
 71
     2
 10
0.0
 20
0.0
 11
12.0
 21
9.0
 12
0.0
 22
0.0
 32
0.0
 14
0.0
 24
0.0
 34
0.0
 15
0.0
 25
0.0
 35
0.0
146
0.0
 13
0.0
 23
0.0
 33
0.0
 16
1.0
 26
0.0
 36
0.0
 17
0.0
 27
1.0
 37
0.0
 76
     0
330
74
  0
LAYOUT
  5
73
102
{ACAD_REACTORS
330
62
102
}
330
62
100
AcDbPlotSettings
  1

  2

  4

  6

 40
0.0
 41
0.0
 42
0.0
 43
0.0
 44
0.0
 45
0.0
 46
0.0
 47
0.0
 48
0.0
 49
0.0
140
0.0
141
0.0
142
1.0
143
1.0
 70
  1712
 72
     0
 73
     0
 74
     0
  7

 75
     0
147
1.0
 76
     0
 77
     2
 78
   300
148
0.0
149
0.0
100
AcDbLayout
  1
Model
 70
     1
 71
     0
 10
0.0
 20
0.0
 11
12.0
 21
9.0
 12
0.0
 22
0.0
 32
0.0
 14
0.0
 24
0.0
 34
0.0
 15
0.0
 25
0.0
 35
0.0
146
0.0
 13
0.0
 23
0.0
 33
0.0
 16
1.0
 26
0.0
 36
0.0
 17
0.0
 27
1.0
 37
0.0
 76
     0
330
70
  0
MATERIAL
  5
19
102
{ACAD_XDICTIONARY
360
1A
102
}
102
{ACAD_REACTORS
330
10
102
}
330
10
100
AcDbMaterial
  1
ByBlock
 72
     0
 43
0.0208333333333333
 43
0.0
 43
0.0
 43
0.0
 43
0.0
 43
0.0208333333333333
 43
0.0
 43
0.0
 43
0.0
 43
0.0
 43
1.0
 43
0.0
 43
0.0
 43
0.0
 43
0.0
 43
1.0
 77
     0
 47
0.0208333333333333
 47
0.0
 47
0.0
 47
0.0
 47
0.0
 47
0.0208333333333333
 47
0.0
 47
0.0
 47
0.0
 47
0.0
 47
1.0
 47
0.0
 47
0.0
 47
0.0
 47
0.0
 47
1.0
171
     0
 49
0.0208333333333333
 49
0.0
 49
0.0
 49
0.0
 49
0.0
 49
0.0208333333333333
 49
0.0
 49
0.0
 49
0.0
 49
0.0
 49
1.0
 49
0.0
 49
0.0
 49
0.0
 49
0.0
 49
1.0
175
     0
142
0.0208333333333333
142
0.0
142
0.0
142
0.0
142
0.0
142
0.0208333333333333
142
0.0
142
0.0
142
0.0
142
0.0
142
1.0
142
0.0
142
0.0
142
0.0
142
0.0
142
1.0
179
     0
144
0.0208333333333333
144
0.0
144
0.0
144
0.0
144
0.0
144
0.0208333333333333
144
0.0
144
0.0
144
0.0
144
0.0
144
1.0
144
0.0
144
0.0
144
0.0
144
0.0
144
1.0
147
0.0208333333333333
147
0.0
147
0.0
147
0.0
147
0.0
147
0.0208333333333333
147
0.0
147
0.0
147
0.0
147
0.0
147
1.0
147
0.0
147
0.0
147
0.0
147
0.0
147
1.0
  0
MATERIAL
  5
11
102
{ACAD_XDICTIONARY
360
12
102
}
102
{ACAD_REACTORS
330
10
102
}
330
10
100
AcDbMaterial
  1
ByLayer
 72
     0
 43
0.0208333333333333
 43
0.0
 43
0.0
 43
0.0
 43
0.0
 43
0.0208333333333333
 43
0.0
 43
0.0
 43
0.0
 43
0.0
 43
1.0
 43
0.0
 43
0.0
 43
0.0
 43
0.0
 43
1.0
 77
     0
 47
0.0208333333333333
 47
0.0
 47
0.0
 47
0.0
 47
0.0
 47
0.0208333333333333
 47
0.0
 47
0.0
 47
0.0
 47
0.0
 47
1.0
 47
0.0
 47
0.0
 47
0.0
 47
0.0
 47
1.0
171
     0
 49
0.0208333333333333
 49
0.0
 49
0.0
 49
0.0
 49
0.0
 49
0.0208333333333333
 49
0.0
 49
0.0
 49
0.0
 49
0.0
 49
1.0
 49
0.0
 49
0.0
 49
0.0
 49
0.0
 49
1.0
175
     0
142
0.0208333333333333
142
0.0
142
0.0
142
0.0
142
0.0
142
0.0208333333333333
142
0.0
142
0.0
142
0.0
142
0.0
142
1.0
142
0.0
142
0.0
142
0.0
142
0.0
142
1.0
179
     0
144
0.0208333333333333
144
0.0
144
0.0
144
0.0
144
0.0
144
0.0208333333333333
144
0.0
144
0.0
144
0.0
144
0.0
144
1.0
144
0.0
144
0.0
144
0.0
144
0.0
144
1.0
147
0.0208333333333333
147
0.0
147
0.0
147
0.0
147
0.0
147
0.0208333333333333
147
0.0
147
0.0
147
0.0
147
0.0
147
1.0
147
0.0
147
0.0
147
0.0
147
0.0
147
1.0
  0
MATERIAL
  5
21
102
{ACAD_XDICTIONARY
360
22
102
}
102
{ACAD_REACTORS
330
10
102
}
330
10
100
AcDbMaterial
  1
Global
 72
     0
 43
0.0208333333333333
 43
0.0
 43
0.0
 43
0.0
 43
0.0
 43
0.0208333333333333
 43
0.0
 43
0.0
 43
0.0
 43
0.0
 43
1.0
 43
0.0
 43
0.0
 43
0.0
 43
0.0
 43
1.0
 77
     0
 47
0.0208333333333333
 47
0.0
 47
0.0
 47
0.0
 47
0.0
 47
0.0208333333333333
 47
0.0
 47
0.0
 47
0.0
 47
0.0
 47
1.0
 47
0.0
 47
0.0
 47
0.0
 47
0.0
 47
1.0
171
     0
 49
0.0208333333333333
 49
0.0
 49
0.0
 49
0.0
 49
0.0
 49
0.0208333333333333
 49
0.0
 49
0.0
 49
0.0
 49
0.0
 49
1.0
 49
0.0
 49
0.0
 49
0.0
 49
0.0
 49
1.0
175
     0
142
0.0208333333333333
142
0.0
142
0.0
142
0.0
142
0.0
142
0.0208333333333333
142
0.0
142
0.0
142
0.0
142
0.0
142
1.0
142
0.0
142
0.0
142
0.0
142
0.0
142
1.0
179
     0
144
0.0208333333333333
144
0.0
144
0.0
144
0.0
144
0.0
144
0.0208333333333333
144
0.0
144
0.0
144
0.0
144
0.0
144
1.0
144
0.0
144
0.0
144
0.0
144
0.0
144
1.0
147
0.0208333333333333
147
0.0
147
0.0
147
0.0
147
0.0
147
0.0208333333333333
147
0.0
147
0.0
147
0.0
147
0.0
147
1.0
147
0.0
147
0.0
147
0.0
147
0.0
147
1.0
  0
MLEADERSTYLE
  5
67
102
{ACAD_REACTORS
330
66
102
}
330
66
100
AcDbMLeaderStyle
179
     2
170
     2
171
     1
172
     0
 90
        2
 40
0.0
 41
0.0
173
     1
 91
-1056964608
340
5B
 92
       -2
290
     1
 42
0.09
291
     1
 43
0.36
  3
Standard
 44
0.18
300

342
55
174
     1
178
     6
175
     1
176
     0
 93
-1056964608
 45
0.18
292
     0
297
     0
 46
0.18
 94
-1056964608
 47
1.0
 49
1.0
140
1.0
293
     1
141
0.0
294
     1
177
     0
142
1.0
295
     0
296
     0
143
0.125
271
     0
272
     9
273
     9
298
     1
  0
MLINESTYLE
  5
60
102
{ACAD_REACTORS
330
5F
102
}
330
5F
100
AcDbMlineStyle
  2
STANDARD
 70
     0
  3

 62
   256
 51
90.0
 52
90.0
 71
     2
 49
0.5
 62
   256
  6
BYLAYER
 49
-0.5
 62
   256
  6
BYLAYER
  0
ACDBPLACEHOLDER
  5
F
102
{ACAD_REACTORS
330
E
102
}
330
E
  0
SCALE
  5
43
102
{ACAD_REACTORS
330
42
102
}
330
42
100
AcDbScale
 70
     0
300
1:1
140
1.0
141
1.0
290
     1
  0
SCALE
  5
44
102
{ACAD_REACTORS
330
42
102
}
330
42
100
AcDbScale
 70
     0
300
1/128" = 1'-0"
140
0.0078125
141
12.0
290
     0
  0
SCALE
  5
45
102
{ACAD_REACTORS
330
42
102
}
330
42
100
AcDbScale
 70
     0
300
1/64" = 1'-0"
140
0.015625
141
12.0
290
     0
  0
SCALE
  5
46
102
{ACAD_REACTORS
330
42
102
}
330
42
100
AcDbScale
 70
     0
300
1/32" = 1'-0"
140
0.03125
141
12.0
290
     0
  0
SCALE
  5
47
102
{ACAD_REACTORS
330
42
102
}
330
42
100
AcDbScale
 70
     0
300
1/16" = 1'-0"
140
0.0625
141
12.0
290
     0
  0
SCALE
  5
48
102
{ACAD_REACTORS
330
42
102
}
330
42
100
AcDbScale
 70
     0
300
3/32" = 1'-0"
140
0.09375
141
12.0
290
     0
  0
SCALE
  5
49
102
{ACAD_REACTORS
330
42
102
}
330
42
100
AcDbScale
 70
     0
300
1/8" = 1'-0"
140
0.125
141
12.0
290
     0
  0
SCALE
  5
4A
102
{ACAD_REACTORS
330
42
102
}
330
42
100
AcDbScale
 70
     0
300
3/16" = 1'-0"
140
0.1875
141
12.0
290
     0
  0
SCALE
  5
4B
102
{ACAD_REACTORS
330
42
102
}
330
42
100
AcDbScale
 70
     0
300
1/4" = 1'-0"
140
0.25
141
12.0
290
     0
  0
SCALE
  5
4C
102
{ACAD_REACTORS
330
42
102
}
330
42
100
AcDbScale
 70
     0
300
3/8" = 1'-0"
140
0.375
141
12.0
290
     0
  0
SCALE
  5
4D
102
{ACAD_REACTORS
330
42
102
}
330
42
100
AcDbScale
 70
     0
300
1/2" = 1'-0"
140
0.5
141
12.0
290
     0
  0
SCALE
  5
4E
102
{ACAD_REACTORS
330
42
102
}
330
42
100
AcDbScale
 70
     0
300
3/4" = 1'-0"
140
0.75
141
12.0
290
     0
  0
SCALE
  5
4F
102
{ACAD_REACTORS
330
42
102
}
330
42
100
AcDbScale
 70
     0
300
1" = 1'-0"
140
1.0
141
12.0
290
     0
  0
SCALE
  5
50
102
{ACAD_REACTORS
330
42
102
}
330
42
100
AcDbScale
 70
     0
300
1-1/2" = 1'-0"
140
1.5
141
12.0
290
     0
  0
SCALE
  5
51
102
{ACAD_REACTORS
330
42
102
}
330
42
100
AcDbScale
 70
     0
300
3" = 1'-0"
140
3.0
141
12.0
290
     0
  0
SCALE
  5
52
102
{ACAD_REACTORS
330
42
102
}
330
42
100
AcDbScale
 70
     0
300
6" = 1'-0"
140
6.0
141
12.0
290
     0
  0
SCALE
  5
53
102
{ACAD_REACTORS
330
42
102
}
330
42
100
AcDbScale
 70
     0
300
1'-0" = 1'-0"
140
12.0
141
12.0
290
     0
  0
ACDBSECTIONVIEWSTYLE
  5
69
102
{ACAD_XDICTIONARY
360
100
102
}
102
{ACAD_REACTORS
330
68
102
}
330
68
100
AcDbModelDocViewStyle
 70
     0
  3
Imperial24
290
     0
100
AcDbSectionViewStyle
 70
     0
 71
     0
 90
       78
 71
     1
340
55
 62
   256
 40
0.24
340
0
340
0
 62
   256
 40
0.24
300
I, O, Q, S, X, Z
 40
0.48
 90
        3
 40
0.18
 90
        1
 71
     2
340
5D
 90
       25
 62
   256
340
5D
 90
       50
 62
   256
 40
0.24
 40
0.0
 40
0.24
 71
     3
340
55
 62
   256
 40
0.24
 90
        1
 40
0.75
 90
        1
300
%<\AcVar ViewType \f "%tc1">% %<\AcVar ViewSectionStartId>%-%<\AcVar ViewSectionEndId>%\PSCALE %<\AcVar ViewScale \f "%sn">%
 71
     4
 62
   256
 62
   257
300
ANSI31
 40
1.0
 90
        0
290
     0
290
     0
 90
        6
 40
0.0
 40
1.570796326794896
 40
0.2617993877991494
 40
1.308996938995747
 40
-0.2617993877991494
 40
1.832595714594046
  0
TABLESTYLE
  5
65
102
{ACAD_XDICTIONARY
360
FC
102
}
102
{ACAD_REACTORS
330
64
102
}
330
64
100
AcDbTableStyle
280
     0
  3
Standard
 70
     0
 71
     0
 40
0.06
 41
0.06
280
     0
281
     0
  7
Standard
140
0.18
170
     2
 62
     0
 63
     7
283
     0
 90
      512
 91
        0
  1

274
    -2
284
     1
 64
     0
275
    -2
285
     1
 65
     0
276
    -2
286
     1
 66
     0
277
    -2
287
     1
 67
     0
278
    -2
288
     1
 68
     0
279
    -2
289
     1
 69
     0
  7
Standard
140
0.25
170
     5
 62
     0
 63
     7
283
     0
 90
      512
 91
        0
  1

274
    -2
284
     1
 64
     0
275
    -2
285
     1
 65
     0
276
    -2
286
     1
 66
     0
277
    -2
287
     1
 67
     0
278
    -2
288
     1
 68
     0
279
    -2
289
     1
 69
     0
  7
Standard
140
0.18
170
     5
 62
     0
 63
     7
283
     0
 90
      512
 91
        0
  1

274
    -2
284
     1
 64
     0
275
    -2
285
     1
 65
     0
276
    -2
286
     1
 66
     0
277
    -2
287
     1
 67
     0
278
    -2
288
     1
 68
     0
279
    -2
289
     1
 69
     0
  0
VISUALSTYLE
  5
2F
102
{ACAD_REACTORS
330
29
102
}
330
29
100
AcDbVisualStyle
  2
2dWireframe
 70
     4
177
     3
291
     0
 70
    58
 90
        0
176
     1
 90
        2
176
     1
 90
        0
176
     1
 90
        0
176
     1
 40
0.6
176
     1
 40
30.0
176
     1
 62
     7
420
 16777215
176
     1
 90
        1
176
     1
 90
        4
176
     1
 62
     7
176
     1
 62
   257
176
     1
 90
        1
176
     1
 90
        1
176
     1
 40
1.0
176
     1
 90
        0
176
     1
 62
   257
176
     1
 40
1.0
176
     1
 90
        1
176
     1
 90
        6
176
     1
 90
        2
176
     1
 62
     7
176
     1
 90
        5
176
     1
 90
        0
176
     1
 90
        0
176
     1
290
     0
176
     1
 90
        1
176
     1
 40
0.0
176
     1
 90
        0
176
     1
290
     1
176
     1
290
     1
176
     1
290
     0
176
     1
290
     0
176
     1
290
     0
176
     1
290
     0
176
     1
290
     0
176
     1
290
     0
176
     1
290
     0
176
     1
 90
       50
176
     1
 40
0.0
176
     1
 40
1.0
176
     1
 90
        0
176
     1
 62
    18
420
        0
176
     1
 90
       50
176
     1
 90
        3
176
     1
 62
     5
420
      255
176
     1
290
     0
176
     1
 90
       50
176
     1
 90
       50
176
     1
 90
       50
176
     1
290
     0
176
     1
 90
       50
176
     1
 62
   256
176
     0
 40
1.0
176
     0
 90
        2
176
     1
  1
strokes_ogs.tif
176
     1
290
     0
176
     1
 40
1.0
176
     1
 40
1.0
176
     1
1001
ACAD
1000
AcDbSavedByObjectVersion
1070
     0
  0
VISUALSTYLE
  5
2E
102
{ACAD_REACTORS
330
29
102
}
330
29
100
AcDbVisualStyle
  2
Basic
 70
     7
177
     3
291
     1
 70
    58
 90
        1
176
     1
 90
        0
176
     1
 90
        1
176
     1
 90
        0
176
     1
 40
0.6
176
     1
 40
30.0
176
     1
 62
     7
420
 16777215
176
     1
 90
        0
176
     1
 90
        4
176
     1
 62
     7
176
     1
 62
   257
176
     1
 90
        1
176
     1
 90
        1
176
     1
 40
1.0
176
     1
 90
        8
176
     1
 62
     7
176
     1
 40
1.0
176
     1
 90
        1
176
     1
 90
        6
176
     1
 90
        2
176
     1
 62
     7
176
     1
 90
        5
176
     1
 90
        0
176
     1
 90
        0
176
     1
290
     0
176
     1
 90
        1
176
     1
 40
0.0
176
     1
 90
        0
176
     1
290
     0
176
     1
290
     1
176
     1
290
     1
176
     1
290
     0
176
     1
290
     0
176
     1
290
     0
176
     1
290
     0
176
     1
290
     0
176
     1
290
     0
176
     1
 90
       50
176
     1
 40
0.0
176
     1
 40
1.0
176
     1
 90
        0
176
     1
 62
    18
420
        0
176
     1
 90
       50
176
     1
 90
        3
176
     1
 62
     5
420
      255
176
     1
290
     0
176
     1
 90
       50
176
     1
 90
       50
176
     1
 90
       50
176
     1
290
     0
176
     1
 90
       50
176
     1
 62
   256
176
     0
 40
1.0
176
     0
 90
        2
176
     1
  1
strokes_ogs.tif
176
     1
290
     0
176
     1
 40
1.0
176
     1
 40
1.0
176
     1
1001
ACAD
1000
AcDbSavedByObjectVersion
1070
     0
  0
VISUALSTYLE
  5
35
102
{ACAD_REACTORS
330
29
102
}
330
29
100
AcDbVisualStyle
  2
Brighten
 70
    12
177
     3
291
     1
 70
    58
 90
        2
176
     1
 90
        2
176
     1
 90
        0
176
     1
 90
        0
176
     1
 40
0.6
176
     1
 40
30.0
176
     1
 62
     7
420
 16777215
176
     1
 90
        1
176
     1
 90
        4
176
     1
 62
     7
176
     1
 62
   257
176
     1
 90
        1
176
     1
 90
        1
176
     1
 40
1.0
176
     1
 90
        8
176
     1
 62
     7
176
     1
 40
1.0
176
     1
 90
        1
176
     1
 90
        6
176
     1
 90
        2
176
     1
 62
     7
176
     1
 90
        5
176
     1
 90
        0
176
     1
 90
        0
176
     1
290
     0
176
     1
 90
        1
176
     1
 40
50.0
176
     1
 90
        0
176
     1
290
     0
176
     1
290
     1
176
     1
290
     1
176
     1
290
     0
176
     1
290
     0
176
     1
290
     0
176
     1
290
     0
176
     1
290
     0
176
     1
290
     0
176
     1
 90
       50
176
     1
 40
0.0
176
     1
 40
1.0
176
     1
 90
        0
176
     1
 62
    18
420
        0
176
     1
 90
       50
176
     1
 90
        3
176
     1
 62
     5
420
      255
176
     1
290
     0
176
     1
 90
       50
176
     1
 90
       50
176
     1
 90
       50
176
     1
290
     0
176
     1
 90
       50
176
     1
 62
   256
176
     0
 40
1.0
176
     0
 90
        2
176
     1
  1
strokes_ogs.tif
176
     1
290
     0
176
     1
 40
1.0
176
     1
 40
1.0
176
     1
1001
ACAD
1000
AcDbSavedByObjectVersion
1070
     0
  0
VISUALSTYLE
  5
39
102
{ACAD_REACTORS
330
29
102
}
330
29
100
AcDbVisualStyle
  2
ColorChange
 70
    16
177
     3
291
     1
 70
    58
 90
        2
176
     1
 90
        2
176
     1
 90
        3
176
     1
 90
        0
176
     1
 40
0.6
176
     1
 40
30.0
176
     1
 62
     8
420
  8421504
176
     1
 90
        1
176
     1
 90
        4
176
     1
 62
     7
176
     1
 62
   257
176
     1
 90
        1
176
     1
 90
        1
176
     1
 40
1.0
176
     1
 90
        8
176
     1
 62
     8
420
  8421504
176
     1
 40
1.0
176
     1
 90
        1
176
     1
 90
        6
176
     1
 90
        2
176
     1
 62
     7
176
     1
 90
        5
176
     1
 90
        0
176
     1
 90
        0
176
     1
290
     0
176
     1
 90
        1
176
     1
 40
0.0
176
     1
 90
        0
176
     1
290
     0
176
     1
290
     1
176
     1
290
     1
176
     1
290
     0
176
     1
290
     0
176
     1
290
     0
176
     1
290
     0
176
     1
290
     0
176
     1
290
     0
176
     1
 90
       50
176
     1
 40
0.0
176
     1
 40
1.0
176
     1
 90
        0
176
     1
 62
    18
420
        0
176
     1
 90
       50
176
     1
 90
        3
176
     1
 62
     5
420
      255
176
     1
290
     0
176
     1
 90
       50
176
     1
 90
       50
176
     1
 90
       50
176
     1
290
     0
176
     1
 90
       50
176
     1
 62
   256
176
     0
 40
1.0
176
     0
 90
        2
176
     1
  1
strokes_ogs.tif
176
     1
290
     0
176
     1
 40
1.0
176
     1
 40
1.0
176
     1
1001
ACAD
1000
AcDbSavedByObjectVersion
1070
     0
  0
VISUALSTYLE
  5
32
102
{ACAD_REACTORS
330
29
102
}
330
29
100
AcDbVisualStyle
  2
Conceptual
 70
     9
177
     3
291
     0
 70
    58
 90
        3
176
     1
 90
        2
176
     1
 90
        0
176
     1
 90
        0
176
     1
 40
0.6
176
     1
 40
30.0
176
     1
 62
     7
420
 16777215
176
     1
 90
        2
176
     1
 90
        2
176
     1
 62
     7
176
     1
 62
   257
176
     1
 90
        1
176
     1
 90
        1
176
     1
 40
179.0
176
     1
 90
        8
176
     1
 62
     7
176
     1
 40
1.0
176
     1
 90
        1
176
     1
 90
        6
176
     1
 90
        2
176
     1
 62
     7
176
     1
 90
        3
176
     1
 90
        0
176
     1
 90
        0
176
     1
290
     0
176
     1
 90
        1
176
     1
 40
0.0
176
     1
 90
        0
176
     1
290
     0
176
     1
290
     1
176
     1
290
     1
176
     1
290
     0
176
     1
290
     0
176
     1
290
     0
176
     1
290
     0
176
     1
290
     0
176
     1
290
     0
176
     1
 90
       50
176
     1
 40
0.0
176
     1
 40
1.0
176
     1
 90
        0
176
     1
 62
    18
420
        0
176
     1
 90
       50
176
     1
 90
        3
176
     1
 62
     5
420
      255
176
     1
290
     0
176
     1
 90
       50
176
     1
 90
       50
176
     1
 90
       50
176
     1
290
     0
176
     1
 90
       50
176
     1
 62
   256
176
     0
 40
1.0
176
     0
 90
        2
176
     1
  1
strokes_ogs.tif
176
     1
290
     0
176
     1
 40
1.0
176
     1
 40
1.0
176
     1
1001
ACAD
1000
AcDbSavedByObjectVersion
1070
     0
  0
VISUALSTYLE
  5
34
102
{ACAD_REACTORS
330
29
102
}
330
29
100
AcDbVisualStyle
  2
Dim
 70
    11
177
     3
291
     1
 70
    58
 90
        2
176
     1
 90
        2
176
     1
 90
        0
176
     1
 90
        0
176
     1
 40
0.6
176
     1
 40
30.0
176
     1
 62
     7
420
 16777215
176
     1
 90
        1
176
     1
 90
        4
176
     1
 62
     7
176
     1
 62
   257
176
     1
 90
        1
176
     1
 90
        1
176
     1
 40
1.0
176
     1
 90
        8
176
     1
 62
     7
176
     1
 40
1.0
176
     1
 90
        1
176
     1
 90
        6
176
     1
 90
        2
176
     1
 62
     7
176
     1
 90
        5
176
     1
 90
        0
176
     1
 90
        0
176
     1
290
     0
176
     1
 90
        1
176
     1
 40
-50.0
176
     1
 90
        0
176
     1
290
     0
176
     1
290
     1
176
     1
290
     1
176
     1
290
     0
176
     1
290
     0
176
     1
290
     0
176
     1
290
     0
176
     1
290
     0
176
     1
290
     0
176
     1
 90
       50
176
     1
 40
0.0
176
     1
 40
1.0
176
     1
 90
        0
176
     1
 62
    18
420
        0
176
     1
 90
       50
176
     1
 90
        3
176
     1
 62
     5
420
      255
176
     1
290
     0
176
     1
 90
       50
176
     1
 90
       50
176
     1
 90
       50
176
     1
290
     0
176
     1
 90
       50
176
     1
 62
   256
176
     0
 40
1.0
176
     0
 90
        2
176
     1
  1
strokes_ogs.tif
176
     1
290
     0
176
     1
 40
1.0
176
     1
 40
1.0
176
     1
1001
ACAD
1000
AcDbSavedByObjectVersion
1070
     0
  0
VISUALSTYLE
  5
41
102
{ACAD_REACTORS
330
29
102
}
330
29
100
AcDbVisualStyle
  2
EdgeColorOff
 70
    22
177
     3
291
     1
 70
    58
 90
        2
176
     0
 90
        2
176
     0
 90
        0
176
     0
 90
        0
176
     0
 40
0.6
176
     0
 40
30.0
176
     0
 62
     7
420
 16777215
176
     0
 90
        1
176
     0
 90
        4
176
     0
 62
     7
176
     0
 62
   257
176
     0
 90
        1
176
     0
 90
        1
176
     0
 40
1.0
176
     0
 90
        8
176
     2
 62
     7
176
     0
 40
1.0
176
     0
 90
        1
176
     0
 90
        6
176
     0
 90
        2
176
     0
 62
     7
176
     0
 90
        5
176
     0
 90
        0
176
     0
 90
        0
176
     0
290
     0
176
     0
 90
        1
176
     0
 40
0.0
176
     0
 90
        0
176
     0
290
     0
176
     0
290
     1
176
     0
290
     1
176
     0
290
     0
176
     0
290
     0
176
     0
290
     0
176
     0
290
     0
176
     0
290
     0
176
     0
290
     0
176
     0
 90
       50
176
     0
 40
0.0
176
     0
 40
1.0
176
     0
 90
        0
176
     0
 62
    18
420
        0
176
     0
 90
       50
176
     0
 90
        3
176
     0
 62
     5
420
      255
176
     0
290
     0
176
     0
 90
       50
176
     0
 90
       50
176
     0
 90
       50
176
     0
290
     0
176
     0
 90
       50
176
     0
 62
   256
176
     0
 40
1.0
176
     0
 90
        2
176
     0
  1
strokes_ogs.tif
176
     0
290
     0
176
     0
 40
1.0
176
     0
 40
1.0
176
     0
1001
ACAD
1000
AcDbSavedByObjectVersion
1070
     0
  0
VISUALSTYLE
  5
38
102
{ACAD_REACTORS
330
29
102
}
330
29
100
AcDbVisualStyle
  2
Facepattern
 70
    15
177
     3
291
     1
 70
    58
 90
        2
176
     1
 90
        2
176
     1
 90
        0
176
     1
 90
        0
176
     1
 40
0.6
176
     1
 40
30.0
176
     1
 62
     7
420
 16777215
176
     1
 90
        1
176
     1
 90
        4
176
     1
 62
     7
176
     1
 62
   257
176
     1
 90
        1
176
     1
 90
        1
176
     1
 40
1.0
176
     1
 90
        8
176
     1
 62
     7
176
     1
 40
1.0
176
     1
 90
        1
176
     1
 90
        6
176
     1
 90
        2
176
     1
 62
     7
176
     1
 90
        5
176
     1
 90
        0
176
     1
 90
        0
176
     1
290
     0
176
     1
 90
        1
176
     1
 40
0.0
176
     1
 90
        0
176
     1
290
     0
176
     1
290
     1
176
     1
290
     1
176
     1
290
     0
176
     1
290
     0
176
     1
290
     0
176
     1
290
     0
176
     1
290
     0
176
     1
290
     0
176
     1
 90
       50
176
     1
 40
0.0
176
     1
 40
1.0
176
     1
 90
        0
176
     1
 62
    18
420
        0
176
     1
 90
       50
176
     1
 90
        3
176
     1
 62
     5
420
      255
176
     1
290
     0
176
     1
 90
       50
176
     1
 90
       50
176
     1
 90
       50
176
     1
290
     0
176
     1
 90
       50
176
     1
 62
   256
176
     0
 40
1.0
176
     0
 90
        2
176
     1
  1
strokes_ogs.tif
176
     1
290
     0
176
     1
 40
1.0
176
     1
 40
1.0
176
     1
1001
ACAD
1000
AcDbSavedByObjectVersion
1070
     0
  0
VISUALSTYLE
  5
2A
102
{ACAD_REACTORS
330
29
102
}
330
29
100
AcDbVisualStyle
  2
Flat
 70
     0
177
     3
291
     1
 70
    58
 90
        2
176
     1
 90
        1
176
     1
 90
        1
176
     1
 90
        2
176
     1
 40
0.6
176
     1
 40
30.0
176
     1
 62
     7
420
 16777215
176
     1
 90
        0
176
     1
 90
        0
176
     1
 62
     7
176
     1
 62
   257
176
     1
 90
        1
176
     1
 90
        1
176
     1
 40
1.0
176
     1
 90
        8
176
     1
 62
     7
176
     1
 40
1.0
176
     1
 90
        1
176
     1
 90
        6
176
     1
 90
        2
176
     1
 62
     7
176
     1
 90
        5
176
     1
 90
        0
176
     1
 90
        0
176
     1
290
     0
176
     1
 90
       13
176
     1
 40
0.0
176
     1
 90
        0
176
     1
290
     0
176
     1
290
     1
176
     1
290
     1
176
     1
290
     0
176
     1
290
     0
176
     1
290
     0
176
     1
290
     0
176
     1
290
     0
176
     1
290
     0
176
     1
 90
       50
176
     1
 40
0.0
176
     1
 40
1.0
176
     1
 90
        0
176
     1
 62
    18
420
        0
176
     1
 90
       50
176
     1
 90
        3
176
     1
 62
     5
420
      255
176
     1
290
     0
176
     1
 90
       50
176
     1
 90
       50
176
     1
 90
       50
176
     1
290
     0
176
     1
 90
       50
176
     1
 62
   256
176
     0
 40
1.0
176
     0
 90
        2
176
     1
  1
strokes_ogs.tif
176
     1
290
     0
176
     1
 40
1.0
176
     1
 40
1.0
176
     1
1001
ACAD
1000
AcDbSavedByObjectVersion
1070
     0
  0
VISUALSTYLE
  5
2B
102
{ACAD_REACTORS
330
29
102
}
330
29
100
AcDbVisualStyle
  2
FlatWithEdges
 70
     1
177
     3
291
     1
 70
    58
 90
        2
176
     1
 90
        1
176
     1
 90
        1
176
     1
 90
        2
176
     1
 40
0.6
176
     1
 40
30.0
176
     1
 62
     7
420
 16777215
176
     1
 90
        1
176
     1
 90
        0
176
     1
 62
     7
176
     1
 62
   257
176
     1
 90
        1
176
     1
 90
        1
176
     1
 40
1.0
176
     1
 90
        0
176
     1
 62
   257
176
     1
 40
1.0
176
     1
 90
        1
176
     1
 90
        6
176
     1
 90
        2
176
     1
 62
     7
176
     1
 90
        5
176
     1
 90
        0
176
     1
 90
        0
176
     1
290
     0
176
     1
 90
       13
176
     1
 40
0.0
176
     1
 90
        0
176
     1
290
     0
176
     1
290
     1
176
     1
290
     1
176
     1
290
     0
176
     1
290
     0
176
     1
290
     0
176
     1
290
     0
176
     1
290
     0
176
     1
290
     0
176
     1
 90
       50
176
     1
 40
0.0
176
     1
 40
1.0
176
     1
 90
        0
176
     1
 62
    18
420
        0
176
     1
 90
       50
176
     1
 90
        3
176
     1
 62
     5
420
      255
176
     1
290
     0
176
     1
 90
       50
176
     1
 90
       50
176
     1
 90
       50
176
     1
290
     0
176
     1
 90
       50
176
     1
 62
   256
176
     0
 40
1.0
176
     0
 90
        2
176
     1
  1
strokes_ogs.tif
176
     1
290
     0
176
     1
 40
1.0
176
     1
 40
1.0
176
     1
1001
ACAD
1000
AcDbSavedByObjectVersion
1070
     0
  0
VISUALSTYLE
  5
2C
102
{ACAD_REACTORS
330
29
102
}
330
29
100
AcDbVisualStyle
  2
Gouraud
 70
     2
177
     3
291
     1
 70
    58
 90
        2
176
     1
 90
        2
176
     1
 90
        1
176
     1
 90
        2
176
     1
 40
0.6
176
     1
 40
30.0
176
     1
 62
     7
420
 16777215
176
     1
 90
        0
176
     1
 90
        0
176
     1
 62
     7
176
     1
 62
   257
176
     1
 90
        1
176
     1
 90
        1
176
     1
 40
1.0
176
     1
 90
        0
176
     1
 62
     7
176
     1
 40
1.0
176
     1
 90
        1
176
     1
 90
        6
176
     1
 90
        2
176
     1
 62
     7
176
     1
 90
        5
176
     1
 90
        0
176
     1
 90
        0
176
     1
290
     0
176
     1
 90
       13
176
     1
 40
0.0
176
     1
 90
        0
176
     1
290
     0
176
     1
290
     1
176
     1
290
     1
176
     1
290
     0
176
     1
290
     0
176
     1
290
     0
176
     1
290
     0
176
     1
290
     0
176
     1
290
     0
176
     1
 90
       50
176
     1
 40
0.0
176
     1
 40
1.0
176
     1
 90
        0
176
     1
 62
    18
420
        0
176
     1
 90
       50
176
     1
 90
        3
176
     1
 62
     5
420
      255
176
     1
290
     0
176
     1
 90
       50
176
     1
 90
       50
176
     1
 90
       50
176
     1
290
     0
176
     1
 90
       50
176
     1
 62
   256
176
     0
 40
1.0
176
     0
 90
        2
176
     1
  1
strokes_ogs.tif
176
     1
290
     0
176
     1
 40
1.0
176
     1
 40
1.0
176
     1
1001
ACAD
1000
AcDbSavedByObjectVersion
1070
     0
  0
VISUALSTYLE
  5
2D
102
{ACAD_REACTORS
330
29
102
}
330
29
100
AcDbVisualStyle
  2
GouraudWithEdges
 70
     3
177
     3
291
     1
 70
    58
 90
        2
176
     1
 90
        2
176
     1
 90
        1
176
     1
 90
        2
176
     1
 40
0.6
176
     1
 40
30.0
176
     1
 62
     7
420
 16777215
176
     1
 90
        1
176
     1
 90
        0
176
     1
 62
     7
176
     1
 62
   257
176
     1
 90
        1
176
     1
 90
        1
176
     1
 40
1.0
176
     1
 90
        0
176
     1
 62
   257
176
     1
 40
1.0
176
     1
 90
        1
176
     1
 90
        6
176
     1
 90
        2
176
     1
 62
     7
176
     1
 90
        5
176
     1
 90
        0
176
     1
 90
        0
176
     1
290
     0
176
     1
 90
       13
176
     1
 40
0.0
176
     1
 90
        0
176
     1
290
     0
176
     1
290
     1
176
     1
290
     1
176
     1
290
     0
176
     1
290
     0
176
     1
290
     0
176
     1
290
     0
176
     1
290
     0
176
     1
290
     0
176
     1
 90
       50
176
     1
 40
0.0
176
     1
 40
1.0
176
     1
 90
        0
176
     1
 62
    18
420
        0
176
     1
 90
       50
176
     1
 90
        3
176
     1
 62
     5
420
      255
176
     1
290
     0
176
     1
 90
       50
176
     1
 90
       50
176
     1
 90
       50
176
     1
290
     0
176
     1
 90
       50
176
     1
 62
   256
176
     0
 40
1.0
176
     0
 90
        2
176
     1
  1
strokes_ogs.tif
176
     1
290
     0
176
     1
 40
1.0
176
     1
 40
1.0
176
     1
1001
ACAD
1000
AcDbSavedByObjectVersion
1070
     0
  0
VISUALSTYLE
  5
31
102
{ACAD_REACTORS
330
29
102
}
330
29
100
AcDbVisualStyle
  2
Hidden
 70
     6
177
     3
291
     0
 70
    58
 90
        1
176
     1
 90
        2
176
     1
 90
        2
176
     1
 90
        0
176
     1
 40
0.6
176
     1
 40
30.0
176
     1
 62
     7
420
 16777215
176
     1
 90
        2
176
     1
 90
        2
176
     1
 62
     7
176
     1
 62
   257
176
     1
 90
        2
176
     1
 90
        1
176
     1
 40
40.0
176
     1
 90
        0
176
     1
 62
   257
176
     1
 40
1.0
176
     1
 90
        1
176
     1
 90
        6
176
     1
 90
        2
176
     1
 62
     7
176
     1
 90
        3
176
     1
 90
        0
176
     1
 90
        0
176
     1
290
     0
176
     1
 90
        1
176
     1
 40
0.0
176
     1
 90
        0
176
     1
290
     0
176
     1
290
     1
176
     1
290
     1
176
     1
290
     0
176
     1
290
     0
176
     1
290
     0
176
     1
290
     0
176
     1
290
     0
176
     1
290
     0
176
     1
 90
       50
176
     1
 40
0.0
176
     1
 40
1.0
176
     1
 90
        0
176
     1
 62
    18
420
        0
176
     1
 90
       50
176
     1
 90
        3
176
     1
 62
     5
420
      255
176
     1
290
     0
176
     1
 90
       50
176
     1
 90
       50
176
     1
 90
       50
176
     1
290
     0
176
     1
 90
       50
176
     1
 62
   256
176
     0
 40
1.0
176
     0
 90
        2
176
     1
  1
strokes_ogs.tif
176
     1
290
     0
176
     1
 40
1.0
176
     1
 40
1.0
176
     1
1001
ACAD
1000
AcDbSavedByObjectVersion
1070
     0
  0
VISUALSTYLE
  5
3F
102
{ACAD_REACTORS
330
29
102
}
330
29
100
AcDbVisualStyle
  2
JitterOff
 70
    20
177
     3
291
     1
 70
    58
 90
        2
176
     0
 90
        2
176
     0
 90
        0
176
     0
 90
        0
176
     0
 40
0.6
176
     0
 40
30.0
176
     0
 62
     7
420
 16777215
176
     0
 90
        1
176
     0
 90
        4
176
     0
 62
     7
176
     0
 62
   257
176
     0
 90
        1
176
     0
 90
        1
176
     0
 40
1.0
176
     0
 90
       10
176
     2
 62
     7
176
     0
 40
1.0
176
     0
 90
        1
176
     0
 90
        6
176
     0
 90
        2
176
     0
 62
     7
176
     0
 90
        5
176
     0
 90
        0
176
     0
 90
        0
176
     0
290
     0
176
     0
 90
        1
176
     0
 40
0.0
176
     0
 90
        0
176
     0
290
     0
176
     0
290
     1
176
     0
290
     1
176
     0
290
     0
176
     0
290
     0
176
     0
290
     0
176
     0
290
     0
176
     0
290
     0
176
     0
290
     0
176
     0
 90
       50
176
     0
 40
0.0
176
     0
 40
1.0
176
     0
 90
        0
176
     0
 62
    18
420
        0
176
     0
 90
       50
176
     0
 90
        3
176
     0
 62
     5
420
      255
176
     0
290
     0
176
     0
 90
       50
176
     0
 90
       50
176
     0
 90
       50
176
     0
290
     0
176
     0
 90
       50
176
     0
 62
   256
176
     0
 40
1.0
176
     0
 90
        2
176
     0
  1
strokes_ogs.tif
176
     0
290
     0
176
     0
 40
1.0
176
     0
 40
1.0
176
     0
1001
ACAD
1000
AcDbSavedByObjectVersion
1070
     0
  0
VISUALSTYLE
  5
37
102
{ACAD_REACTORS
330
29
102
}
330
29
100
AcDbVisualStyle
  2
Linepattern
 70
    14
177
     3
291
     1
 70
    58
 90
        2
176
     1
 90
        2
176
     1
 90
        0
176
     1
 90
        0
176
     1
 40
0.6
176
     1
 40
30.0
176
     1
 62
     7
420
 16777215
176
     1
 90
        1
176
     1
 90
        4
176
     1
 62
     7
176
     1
 62
   257
176
     1
 90
        7
176
     1
 90
        7
176
     1
 40
1.0
176
     1
 90
        8
176
     1
 62
     7
176
     1
 40
1.0
176
     1
 90
        1
176
     1
 90
        6
176
     1
 90
        2
176
     1
 62
     7
176
     1
 90
        5
176
     1
 90
        0
176
     1
 90
        0
176
     1
290
     0
176
     1
 90
        1
176
     1
 40
0.0
176
     1
 90
        0
176
     1
290
     0
176
     1
290
     1
176
     1
290
     1
176
     1
290
     0
176
     1
290
     0
176
     1
290
     0
176
     1
290
     0
176
     1
290
     0
176
     1
290
     0
176
     1
 90
       50
176
     1
 40
0.0
176
     1
 40
1.0
176
     1
 90
        0
176
     1
 62
    18
420
        0
176
     1
 90
       50
176
     1
 90
        3
176
     1
 62
     5
420
      255
176
     1
290
     0
176
     1
 90
       50
176
     1
 90
       50
176
     1
 90
       50
176
     1
290
     0
176
     1
 90
       50
176
     1
 62
   256
176
     0
 40
1.0
176
     0
 90
        2
176
     1
  1
strokes_ogs.tif
176
     1
290
     0
176
     1
 40
1.0
176
     1
 40
1.0
176
     1
1001
ACAD
1000
AcDbSavedByObjectVersion
1070
     0
  0
VISUALSTYLE
  5
40
102
{ACAD_REACTORS
330
29
102
}
330
29
100
AcDbVisualStyle
  2
OverhangOff
 70
    21
177
     3
291
     1
 70
    58
 90
        2
176
     0
 90
        2
176
     0
 90
        0
176
     0
 90
        0
176
     0
 40
0.6
176
     0
 40
30.0
176
     0
 62
     7
420
 16777215
176
     0
 90
        1
176
     0
 90
        4
176
     0
 62
     7
176
     0
 62
   257
176
     0
 90
        1
176
     0
 90
        1
176
     0
 40
1.0
176
     0
 90
        9
176
     2
 62
     7
176
     0
 40
1.0
176
     0
 90
        1
176
     0
 90
        6
176
     0
 90
        2
176
     0
 62
     7
176
     0
 90
        5
176
     0
 90
        0
176
     0
 90
        0
176
     0
290
     0
176
     0
 90
        1
176
     0
 40
0.0
176
     0
 90
        0
176
     0
290
     0
176
     0
290
     1
176
     0
290
     1
176
     0
290
     0
176
     0
290
     0
176
     0
290
     0
176
     0
290
     0
176
     0
290
     0
176
     0
290
     0
176
     0
 90
       50
176
     0
 40
0.0
176
     0
 40
1.0
176
     0
 90
        0
176
     0
 62
    18
420
        0
176
     0
 90
       50
176
     0
 90
        3
176
     0
 62
     5
420
      255
176
     0
290
     0
176
     0
 90
       50
176
     0
 90
       50
176
     0
 90
       50
176
     0
290
     0
176
     0
 90
       50
176
     0
 62
   256
176
     0
 40
1.0
176
     0
 90
        2
176
     0
  1
strokes_ogs.tif
176
     0
290
     0
176
     0
 40
1.0
176
     0
 40
1.0
176
     0
1001
ACAD
1000
AcDbSavedByObjectVersion
1070
     0
  0
VISUALSTYLE
  5
33
102
{ACAD_REACTORS
330
29
102
}
330
29
100
AcDbVisualStyle
  2
Realistic
 70
     8
177
     3
291
     0
 70
    58
 90
        2
176
     1
 90
        3
176
     1
 90
        0
176
     1
 90
        2
176
     1
 40
0.6
176
     1
 40
30.0
176
     1
 62
     7
420
 16777215
176
     1
 90
        0
176
     1
 90
        0
176
     1
 62
     7
176
     1
 62
   257
176
     1
 90
        1
176
     1
 90
        1
176
     1
 40
1.0
176
     1
 90
        8
176
     1
 62
   257
176
     1
 40
1.0
176
     1
 90
        1
176
     1
 90
        6
176
     1
 90
        2
176
     1
 62
     7
176
     1
 90
        3
176
     1
 90
        0
176
     1
 90
        0
176
     1
290
     0
176
     1
 90
       13
176
     1
 40
0.0
176
     1
 90
        0
176
     1
290
     0
176
     1
290
     1
176
     1
290
     1
176
     1
290
     0
176
     1
290
     0
176
     1
290
     0
176
     1
290
     0
176
     1
290
     0
176
     1
290
     0
176
     1
 90
       50
176
     1
 40
0.0
176
     1
 40
1.0
176
     1
 90
        0
176
     1
 62
    18
420
        0
176
     1
 90
       50
176
     1
 90
        3
176
     1
 62
     5
420
      255
176
     1
290
     0
176
     1
 90
       50
176
     1
 90
       50
176
     1
 90
       50
176
     1
290
     0
176
     1
 90
       50
176
     1
 62
   256
176
     0
 40
1.0
176
     0
 90
        2
176
     1
  1
strokes_ogs.tif
176
     1
290
     0
176
     1
 40
1.0
176
     1
 40
1.0
176
     1
1001
ACAD
1000
AcDbSavedByObjectVersion
1070
     0
  0
VISUALSTYLE
  5
3E
102
{ACAD_REACTORS
330
29
102
}
330
29
100
AcDbVisualStyle
  2
Shaded
 70
    27
177
     3
291
     0
 70
    58
 90
        2
176
     1
 90
        2
176
     1
 90
        1
176
     1
 90
        2
176
     1
 40
0.6
176
     1
 40
30.0
176
     1
 62
     7
420
 16777215
176
     1
 90
        0
176
     1
 90
        4
176
     1
 62
     7
176
     1
 62
   257
176
     1
 90
        1
176
     1
 90
        1
176
     1
 40
1.0
176
     1
 90
        8
176
     1
 62
   257
176
     1
 40
1.0
176
     1
 90
        1
176
     1
 90
        6
176
     1
 90
        2
176
     1
 62
     8
420
  7895160
176
     1
 90
        3
176
     1
 90
        0
176
     1
 90
        0
176
     1
290
     0
176
     1
 90
        5
176
     1
 40
0.0
176
     1
 90
        0
176
     1
290
     0
176
     1
290
     1
176
     1
290
     1
176
     1
290
     0
176
     1
290
     0
176
     1
290
     0
176
     1
290
     0
176
     1
290
     0
176
     1
290
     0
176
     1
 90
       50
176
     1
 40
0.0
176
     1
 40
1.0
176
     1
 90
        0
176
     1
 62
    18
420
        0
176
     1
 90
       50
176
     1
 90
        3
176
     1
 62
     5
420
      255
176
     1
290
     0
176
     1
 90
       50
176
     1
 90
       50
176
     1
 90
       50
176
     1
290
     0
176
     1
 90
       50
176
     1
 62
   256
176
     0
 40
1.0
176
     0
 90
        2
176
     1
  1
strokes_ogs.tif
176
     1
290
     0
176
     1
 40
1.0
176
     1
 40
1.0
176
     1
1001
ACAD
1000
AcDbSavedByObjectVersion
1070
     0
  0
VISUALSTYLE
  5
3D
102
{ACAD_REACTORS
330
29
102
}
330
29
100
AcDbVisualStyle
  2
Shaded with edges
 70
    26
177
     3
291
     0
 70
    58
 90
        2
176
     1
 90
        2
176
     1
 90
        1
176
     1
 90
        2
176
     1
 40
0.6
176
     1
 40
30.0
176
     1
 62
     7
420
 16777215
176
     1
 90
        1
176
     1
 90
        2
176
     1
 62
     7
176
     1
 62
   257
176
     1
 90
        2
176
     1
 90
        1
176
     1
 40
1.0
176
     1
 90
        8
176
     1
 62
   257
176
     1
 40
1.0
176
     1
 90
        1
176
     1
 90
        6
176
     1
 90
        2
176
     1
 62
     7
176
     1
 90
        3
176
     1
 90
        0
176
     1
 90
        0
176
     1
290
     0
176
     1
 90
        5
176
     1
 40
0.0
176
     1
 90
        0
176
     1
290
     0
176
     1
290
     1
176
     1
290
     1
176
     1
290
     0
176
     1
290
     0
176
     1
290
     0
176
     1
290
     0
176
     1
290
     0
176
     1
290
     0
176
     1
 90
       50
176
     1
 40
0.0
176
     1
 40
1.0
176
     1
 90
        0
176
     1
 62
    18
420
        0
176
     1
 90
       50
176
     1
 90
        3
176
     1
 62
     5
420
      255
176
     1
290
     0
176
     1
 90
       50
176
     1
 90
       50
176
     1
 90
       50
176
     1
290
     0
176
     1
 90
       50
176
     1
 62
   256
176
     0
 40
1.0
176
     0
 90
        2
176
     1
  1
strokes_ogs.tif
176
     1
290
     0
176
     1
 40
1.0
176
     1
 40
1.0
176
     1
1001
ACAD
1000
AcDbSavedByObjectVersion
1070
     0
  0
VISUALSTYLE
  5
3A
102
{ACAD_REACTORS
330
29
102
}
330
29
100
AcDbVisualStyle
  2
Shades of Gray
 70
    23
177
     3
291
     0
 70
    58
 90
        2
176
     1
 90
        2
176
     1
 90
        3
176
     1
 90
        0
176
     1
 40
0.6
176
     1
 40
30.0
176
     1
 62
     7
420
 16777215
176
     1
 90
        2
176
     1
 90
        2
176
     1
 62
     7
176
     1
 62
     7
176
     1
 90
        1
176
     1
 90
        1
176
     1
 40
40.0
176
     1
 90
        8
176
     1
 62
     7
176
     1
 40
1.0
176
     1
 90
        1
176
     1
 90
        6
176
     1
 90
        2
176
     1
 62
     7
176
     1
 90
        3
176
     1
 90
        0
176
     1
 90
        0
176
     1
290
     0
176
     1
 90
        1
176
     1
 40
0.0
176
     1
 90
        0
176
     1
290
     0
176
     1
290
     1
176
     1
290
     1
176
     1
290
     0
176
     1
290
     0
176
     1
290
     0
176
     1
290
     0
176
     1
290
     0
176
     1
290
     0
176
     1
 90
       50
176
     1
 40
0.0
176
     1
 40
1.0
176
     1
 90
        0
176
     1
 62
    18
420
        0
176
     1
 90
       50
176
     1
 90
        3
176
     1
 62
     5
420
      255
176
     1
290
     0
176
     1
 90
       50
176
     1
 90
       50
176
     1
 90
       50
176
     1
290
     0
176
     1
 90
       50
176
     1
 62
   256
176
     0
 40
1.0
176
     0
 90
        2
176
     1
  1
strokes_ogs.tif
176
     1
290
     0
176
     1
 40
1.0
176
     1
 40
1.0
176
     1
1001
ACAD
1000
AcDbSavedByObjectVersion
1070
     0
  0
VISUALSTYLE
  5
3B
102
{ACAD_REACTORS
330
29
102
}
330
29
100
AcDbVisualStyle
  2
Sketchy
 70
    24
177
     3
291
     0
 70
    58
 90
        1
176
     1
 90
        2
176
     1
 90
        2
176
     1
 90
        0
176
     1
 40
0.6
176
     1
 40
30.0
176
     1
 62
     7
420
 16777215
176
     1
 90
        2
176
     1
 90
        2
176
     1
 62
     7
176
     1
 62
     7
176
     1
 90
        1
176
     1
 90
        1
176
     1
 40
40.0
176
     1
 90
       11
176
     1
 62
     7
176
     1
 40
1.0
176
     1
 90
        1
176
     1
 90
        6
176
     1
 90
        2
176
     1
 62
     7
176
     1
 90
        6
176
     1
 90
        0
176
     1
 90
        0
176
     1
290
     0
176
     1
 90
        1
176
     1
 40
0.0
176
     1
 90
        0
176
     1
290
     0
176
     1
290
     1
176
     1
290
     1
176
     1
290
     0
176
     1
290
     0
176
     1
290
     0
176
     1
290
     0
176
     1
290
     0
176
     1
290
     0
176
     1
 90
       50
176
     1
 40
0.0
176
     1
 40
1.0
176
     1
 90
        0
176
     1
 62
    18
420
        0
176
     1
 90
       50
176
     1
 90
        3
176
     1
 62
     5
420
      255
176
     1
290
     0
176
     1
 90
       50
176
     1
 90
       50
176
     1
 90
       50
176
     1
290
     0
176
     1
 90
       50
176
     1
 62
   256
176
     0
 40
1.0
176
     0
 90
        2
176
     1
  1
strokes_ogs.tif
176
     1
290
     0
176
     1
 40
1.0
176
     1
 40
1.0
176
     1
1001
ACAD
1000
AcDbSavedByObjectVersion
1070
     0
  0
VISUALSTYLE
  5
36
102
{ACAD_REACTORS
330
29
102
}
330
29
100
AcDbVisualStyle
  2
Thicken
 70
    13
177
     3
291
     1
 70
    58
 90
        2
176
     1
 90
        2
176
     1
 90
        0
176
     1
 90
        0
176
     1
 40
0.6
176
     1
 40
30.0
176
     1
 62
     7
420
 16777215
176
     1
 90
        1
176
     1
 90
        4
176
     1
 62
     7
176
     1
 62
   257
176
     1
 90
        1
176
     1
 90
        1
176
     1
 40
1.0
176
     1
 90
       12
176
     1
 62
     7
176
     1
 40
1.0
176
     1
 90
        1
176
     1
 90
        6
176
     1
 90
        2
176
     1
 62
     7
176
     1
 90
        5
176
     1
 90
        0
176
     1
 90
        0
176
     1
290
     0
176
     1
 90
        1
176
     1
 40
0.0
176
     1
 90
        0
176
     1
290
     0
176
     1
290
     1
176
     1
290
     1
176
     1
290
     0
176
     1
290
     0
176
     1
290
     0
176
     1
290
     0
176
     1
290
     0
176
     1
290
     0
176
     1
 90
       50
176
     1
 40
0.0
176
     1
 40
1.0
176
     1
 90
        0
176
     1
 62
    18
420
        0
176
     1
 90
       50
176
     1
 90
        3
176
     1
 62
     5
420
      255
176
     1
290
     0
176
     1
 90
       50
176
     1
 90
       50
176
     1
 90
       50
176
     1
290
     0
176
     1
 90
       50
176
     1
 62
   256
176
     0
 40
1.0
176
     0
 90
        2
176
     1
  1
strokes_ogs.tif
176
     1
290
     0
176
     1
 40
1.0
176
     1
 40
1.0
176
     1
1001
ACAD
1000
AcDbSavedByObjectVersion
1070
     0
  0
VISUALSTYLE
  5
30
102
{ACAD_REACTORS
330
29
102
}
330
29
100
AcDbVisualStyle
  2
Wireframe
 70
     5
177
     3
291
     0
 70
    58
 90
        0
176
     1
 90
        2
176
     1
 90
        0
176
     1
 90
        0
176
     1
 40
0.6
176
     1
 40
30.0
176
     1
 62
     7
420
 16777215
176
     1
 90
        1
176
     1
 90
        4
176
     1
 62
     7
176
     1
 62
   257
176
     1
 90
        1
176
     1
 90
        1
176
     1
 40
1.0
176
     1
 90
        0
176
     1
 62
   257
176
     1
 40
1.0
176
     1
 90
        1
176
     1
 90
        6
176
     1
 90
        2
176
     1
 62
     7
176
     1
 90
        3
176
     1
 90
        0
176
     1
 90
        0
176
     1
290
     0
176
     1
 90
        1
176
     1
 40
0.0
176
     1
 90
        0
176
     1
290
     0
176
     1
290
     1
176
     1
290
     1
176
     1
290
     0
176
     1
290
     0
176
     1
290
     0
176
     1
290
     0
176
     1
290
     0
176
     1
290
     0
176
     1
 90
       50
176
     1
 40
0.0
176
     1
 40
1.0
176
     1
 90
        0
176
     1
 62
    18
420
        0
176
     1
 90
       50
176
     1
 90
        3
176
     1
 62
     5
420
      255
176
     1
290
     0
176
     1
 90
       50
176
     1
 90
       50
176
     1
 90
       50
176
     1
290
     0
176
     1
 90
       50
176
     1
 62
   256
176
     0
 40
1.0
176
     0
 90
        2
176
     1
  1
strokes_ogs.tif
176
     1
290
     0
176
     1
 40
1.0
176
     1
 40
1.0
176
     1
1001
ACAD
1000
AcDbSavedByObjectVersion
1070
     0
  0
VISUALSTYLE
  5
3C
102
{ACAD_REACTORS
330
29
102
}
330
29
100
AcDbVisualStyle
  2
X-Ray
 70
    25
177
     3
291
     0
 70
    58
 90
        2
176
     1
 90
        2
176
     1
 90
        1
176
     1
 90
        1
176
     1
 40
0.5
176
     1
 40
30.0
176
     1
 62
     7
420
 16777215
176
     1
 90
        1
176
     1
 90
        0
176
     1
 62
     7
176
     1
 62
   257
176
     1
 90
        1
176
     1
 90
        1
176
     1
 40
1.0
176
     1
 90
        8
176
     1
 62
     7
176
     1
 40
1.0
176
     1
 90
        1
176
     1
 90
        6
176
     1
 90
        2
176
     1
 62
     7
176
     1
 90
        3
176
     1
 90
        0
176
     1
 90
        0
176
     1
290
     0
176
     1
 90
       13
176
     1
 40
0.0
176
     1
 90
        0
176
     1
290
     0
176
     1
290
     1
176
     1
290
     1
176
     1
290
     0
176
     1
290
     0
176
     1
290
     0
176
     1
290
     0
176
     1
290
     0
176
     1
290
     0
176
     1
 90
       50
176
     1
 40
0.0
176
     1
 40
1.0
176
     1
 90
        0
176
     1
 62
    18
420
        0
176
     1
 90
       50
176
     1
 90
        3
176
     1
 62
     5
420
      255
176
     1
290
     0
176
     1
 90
       50
176
     1
 90
       50
176
     1
 90
       50
176
     1
290
     0
176
     1
 90
       50
176
     1
 62
   256
176
     0
 40
1.0
176
     0
 90
        2
176
     1
  1
strokes_ogs.tif
176
     1
290
     0
176
     1
 40
1.0
176
     1
 40
1.0
176
     1
1001
ACAD
1000
AcDbSavedByObjectVersion
1070
     0
  0
DICTIONARYVAR
  5
FB
102
{ACAD_REACTORS
330
F6
102
}
330
F6
100
DictionaryVariables
280
     0
  1
1:1
  0
DICTIONARYVAR
  5
F8
102
{ACAD_REACTORS
330
F6
102
}
330
F6
100
DictionaryVariables
280
     0
  1
STANDARD
  0
DICTIONARYVAR
  5
F7
102
{ACAD_REACTORS
330
F6
102
}
330
F6
100
DictionaryVariables
280
     0
  1
STANDARD
  0
DICTIONARYVAR
  5
F9
102
{ACAD_REACTORS
330
F6
102
}
330
F6
100
DictionaryVariables
280
     0
  1
Imperial24
  0
DICTIONARYVAR
  5
FA
102
{ACAD_REACTORS
330
F6
102
}
330
F6
100
DictionaryVariables
280
     0
  1
Imperial24
  0
DICTIONARY
  5
102
330
6B
100
AcDbDictionary
280
     1
281
     1
  3
ACAD_XREC_ROUNDTRIP
360
103
  0
DICTIONARY
  5
1A
330
19
100
AcDbDictionary
280
     1
281
     1
  3
BUMPTILE
360
1C
  3
DIFFUSETILE
360
1B
  3
OPACITYTILE
360
1F
  3
REFLECTIONTILE
360
1E
  3
REFRACTIONTILE
360
20
  3
SPECULARTILE
360
1D
  0
DICTIONARY
  5
12
330
11
100
AcDbDictionary
280
     1
281
     1
  3
BUMPTILE
360
14
  3
DIFFUSETILE
360
13
  3
OPACITYTILE
360
17
  3
REFLECTIONTILE
360
16
  3
REFRACTIONTILE
360
18
  3
SPECULARTILE
360
15
  0
DICTIONARY
  5
22
330
21
100
AcDbDictionary
280
     1
281
     1
  3
BUMPTILE
360
24
  3
DIFFUSETILE
360
23
  3
OPACITYTILE
360
27
  3
REFLECTIONTILE
360
26
  3
REFRACTIONTILE
360
28
  3
SPECULARTILE
360
25
  0
DICTIONARY
  5
100
330
69
100
AcDbDictionary
280
     1
281
     1
  3
ACAD_XREC_ROUNDTRIP
360
101
  0
DICTIONARY
  5
FC
330
65
100
AcDbDictionary
280
     1
281
     1
  3
ACAD_ROUNDTRIP_2008_TABLESTYLE_CELLSTYLEMAP
360
FD
  0
XRECORD
  5
103
102
{ACAD_REACTORS
330
102
102
}
330
102
100
AcDbXrecord
280
     1
102
DISPLAYNAME
  1
Imperial24
102
FLAGS
 90
        0
  0
XRECORD
  5
1C
102
{ACAD_REACTORS
330
1A
102
}
330
1A
100
AcDbXrecord
280
     1
270
     1
271
     1
  0
XRECORD
  5
1B
102
{ACAD_REACTORS
330
1A
102
}
330
1A
100
AcDbXrecord
280
     1
270
     1
271
     1
  0
XRECORD
  5
1F
102
{ACAD_REACTORS
330
1A
102
}
330
1A
100
AcDbXrecord
280
     1
270
     1
271
     1
  0
XRECORD
  5
1E
102
{ACAD_REACTORS
330
1A
102
}
330
1A
100
AcDbXrecord
280
     1
270
     1
271
     1
  0
XRECORD
  5
20
102
{ACAD_REACTORS
330
1A
102
}
330
1A
100
AcDbXrecord
280
     1
270
     1
271
     1
  0
XRECORD
  5
1D
102
{ACAD_REACTORS
330
1A
102
}
330
1A
100
AcDbXrecord
280
     1
270
     1
271
     1
  0
XRECORD
  5
14
102
{ACAD_REACTORS
330
12
102
}
330
12
100
AcDbXrecord
280
     1
270
     1
271
     1
  0
XRECORD
  5
13
102
{ACAD_REACTORS
330
12
102
}
330
12
100
AcDbXrecord
280
     1
270
     1
271
     1
  0
XRECORD
  5
17
102
{ACAD_REACTORS
330
12
102
}
330
12
100
AcDbXrecord
280
     1
270
     1
271
     1
  0
XRECORD
  5
16
102
{ACAD_REACTORS
330
12
102
}
330
12
100
AcDbXrecord
280
     1
270
     1
271
     1
  0
XRECORD
  5
18
102
{ACAD_REACTORS
330
12
102
}
330
12
100
AcDbXrecord
280
     1
270
     1
271
     1
  0
XRECORD
  5
15
102
{ACAD_REACTORS
330
12
102
}
330
12
100
AcDbXrecord
280
     1
270
     1
271
     1
  0
XRECORD
  5
24
102
{ACAD_REACTORS
330
22
102
}
330
22
100
AcDbXrecord
280
     1
270
     1
271
     1
  0
XRECORD
  5
23
102
{ACAD_REACTORS
330
22
102
}
330
22
100
AcDbXrecord
280
     1
270
     1
271
     1
  0
XRECORD
  5
27
102
{ACAD_REACTORS
330
22
102
}
330
22
100
AcDbXrecord
280
     1
270
     1
271
     1
  0
XRECORD
  5
26
102
{ACAD_REACTORS
330
22
102
}
330
22
100
AcDbXrecord
280
     1
270
     1
271
     1
  0
XRECORD
  5
28
102
{ACAD_REACTORS
330
22
102
}
330
22
100
AcDbXrecord
280
     1
270
     1
271
     1
  0
XRECORD
  5
25
102
{ACAD_REACTORS
330
22
102
}
330
22
100
AcDbXrecord
280
     1
270
     1
271
     1
  0
XRECORD
  5
101
102
{ACAD_REACTORS
330
100
102
}
330
100
100
AcDbXrecord
280
     1
102
DISPLAYNAME
  1
Imperial24
102
FLAGS
 90
        0
  0
CELLSTYLEMAP
  5
FD
102
{ACAD_REACTORS
330
FC
102
}
330
FC
100
AcDbCellStyleMap
 90
        3
300
CELLSTYLE
  1
TABLEFORMAT_BEGIN
 90
        5
170
     1
 91
        0
 92
    32768
 62
   257
 93
        1
300
CONTENTFORMAT
  1
CONTENTFORMAT_BEGIN
 90
        0
 91
        0
 92
      512
 93
        0
300

 40
0.0
140
1.0
 94
        5
 62
     0
340
55
144
0.25
309
CONTENTFORMAT_END
171
     0
 94
        0
309
TABLEFORMAT_END
  1
CELLSTYLE_BEGIN
 90
        1
 91
        1
300
_TITLE
309
CELLSTYLE_END
300
CELLSTYLE
  1
TABLEFORMAT_BEGIN
 90
        5
170
     1
 91
        0
 92
        0
 62
   257
 93
        1
300
CONTENTFORMAT
  1
CONTENTFORMAT_BEGIN
 90
        0
 91
        0
 92
      512
 93
        0
300

 40
0.0
140
1.0
 94
        5
 62
     0
340
55
144
0.18
309
CONTENTFORMAT_END
171
     0
 94
        0
309
TABLEFORMAT_END
  1
CELLSTYLE_BEGIN
 90
        2
 91
        1
300
_HEADER
309
CELLSTYLE_END
300
CELLSTYLE
  1
TABLEFORMAT_BEGIN
 90
        5
170
     1
 91
        0
 92
        0
 62
   257
 93
        1
300
CONTENTFORMAT
  1
CONTENTFORMAT_BEGIN
 90
        0
 91
        0
 92
      512
 93
        0
300

 40
0.0
140
1.0
 94
        2
 62
     0
340
55
144
0.18
309
CONTENTFORMAT_END
171
     0
 94
        0
309
TABLEFORMAT_END
  1
CELLSTYLE_BEGIN
 90
        3
 91
        2
300
_DATA
309
CELLSTYLE_END
  0
ENDSEC
  0
EOF
