  0
SECTION
  2
HEADER
  9
$ACADVER
  1
AC1018
  9
$ACADMAINTVER
 70
     0
  9
$DWGCODEPAGE
  3
ANSI_1252
  9
$INSBASE
 10
0.0
 20
0.0
 30
0.0
  9
$EXTMIN
 10
1.000000000000000E+20
 20
1.000000000000000E+20
 30
1.000000000000000E+20
  9
$EXTMAX
 10
-1.000000000000000E+20
 20
-1.000000000000000E+20
 30
-1.000000000000000E+20
  9
$LIMMIN
 10
0.0
 20
0.0
  9
$LIMMAX
 10
12.0
 20
9.0
  9
$ORTHOMODE
 70
     0
  9
$REGENMODE
 70
     1
  9
$FILLMODE
 70
     1
  9
$QTEXTMODE
 70
     0
  9
$MIRRTEXT
 70
     1
  9
$LTSCALE
 40
1.0
  9
$ATTMODE
 70
     1
  9
$TEXTSIZE
 40
0.2
  9
$TRACEWID
 40
0.05
  9
$TEXTSTYLE
  7
Standard
  9
$CLAYER
  8
0
  9
$CELTYPE
  6
ByLayer
  9
$CECOLOR
 62
   256
  9
$CELTSCALE
 40
1.0
  9
$DISPSILH
 70
     0
  9
$DIMSCALE
 40
1.0
  9
$DIMASZ
 40
0.18
  9
$DIMEXO
 40
0.0625
  9
$DIMDLI
 40
0.38
  9
$DIMRND
 40
0.0
  9
$DIMDLE
 40
0.0
  9
$DIMEXE
 40
0.18
  9
$DIMTP
 40
0.0
  9
$DIMTM
 40
0.0
  9
$DIMTXT
 40
0.18
  9
$DIMCEN
 40
0.09
  9
$DIMTSZ
 40
0.0
  9
$DIMTOL
 70
     0
  9
$DIMLIM
 70
     0
  9
$DIMTIH
 70
     1
  9
$DIMTOH
 70
     1
  9
$DIMSE1
 70
     0
  9
$DIMSE2
 70
     0
  9
$DIMTAD
 70
     0
  9
$DIMZIN
 70
     0
  9
$DIMBLK
  1

  9
$DIMASO
 70
     1
  9
$DIMSHO
 70
     1
  9
$DIMPOST
  1

  9
$DIMAPOST
  1

  9
$DIMALT
 70
     0
  9
$DIMALTD
 70
     2
  9
$DIMALTF
 40
25.4
  9
$DIMLFAC
 40
1.0
  9
$DIMTOFL
 70
     0
  9
$DIMTVP
 40
0.0
  9
$DIMTIX
 70
     0
  9
$DIMSOXD
 70
     0
  9
$DIMSAH
 70
     0
  9
$DIMBLK1
  1

  9
$DIMBLK2
  1

  9
$DIMSTYLE
  2
Standard
  9
$DIMCLRD
 70
     0
  9
$DIMCLRE
 70
     0
  9
$DIMCLRT
 70
     0
  9
$DIMTFAC
 40
1.0
  9
$DIMGAP
 40
0.09
  9
$DIMJUST
 70
     0
  9
$DIMSD1
 70
     0
  9
$DIMSD2
 70
     0
  9
$DIMTOLJ
 70
     1
  9
$DIMTZIN
 70
     0
  9
$DIMALTZ
 70
     0
  9
$DIMALTTZ
 70
     0
  9
$DIMUPT
 70
     0
  9
$DIMDEC
 70
     4
  9
$DIMTDEC
 70
     4
  9
$DIMALTU
 70
     2
  9
$DIMALTTD
 70
     2
  9
$DIMTXSTY
  7
Standard
  9
$DIMAUNIT
 70
     0
  9
$DIMADEC
 70
     0
  9
$DIMALTRND
 40
0.0
  9
$DIMAZIN
 70
     0
  9
$DIMDSEP
 70
    46
  9
$DIMATFIT
 70
     3
  9
$DIMFRAC
 70
     0
  9
$DIMLDRBLK
  1

  9
$DIMLUNIT
 70
     2
  9
$DIMLWD
 70
    -2
  9
$DIMLWE
 70
    -2
  9
$DIMTMOVE
 70
     0
  9
$LUNITS
 70
     2
  9
$LUPREC
 70
     4
  9
$SKETCHINC
 40
0.1
  9
$FILLETRAD
 40
0.5
  9
$AUNITS
 70
     0
  9
$AUPREC
 70
     0
  9
$MENU
  1
.
  9
$ELEVATION
 40
0.0
  9
$PELEVATION
 40
0.0
  9
$THICKNESS
 40
0.0
  9
$LIMCHECK
 70
     0
  9
$CHAMFERA
 40
0.5
  9
$CHAMFERB
 40
0.5
  9
$CHAMFERC
 40
1.0
  9
$CHAMFERD
 40
0.0
  9
$SKPOLY
 70
     0
  9
$TDCREATE
 40
2459201.399234815
  9
$TDUCREATE
 40
2459201.357568148
  9
$TDUPDATE
 40
2459201.399234826
  9
$TDUUPDATE
 40
2459201.35756816
  9
$TDINDWG
 40
0.0000000116
  9
$TDUSRTIMER
 40
0.0000000116
  9
$USRTIMER
 70
     1
  9
$ANGBASE
 50
0.0
  9
$ANGDIR
 70
     0
  9
$PDMODE
 70
     0
  9
$PDSIZE
 40
0.0
  9
$PLINEWID
 40
0.0
  9
$SPLFRAME
 70
     0
  9
$SPLINETYPE
 70
     6
  9
$SPLINESEGS
 70
     8
  9
$HANDSEED
  5
186
  9
$SURFTAB1
 70
     6
  9
$SURFTAB2
 70
     6
  9
$SURFTYPE
 70
     6
  9
$SURFU
 70
     6
  9
$SURFV
 70
     6
  9
$UCSBASE
  2

  9
$UCSNAME
  2

  9
$UCSORG
 10
0.0
 20
0.0
 30
0.0
  9
$UCSXDIR
 10
1.0
 20
0.0
 30
0.0
  9
$UCSYDIR
 10
0.0
 20
1.0
 30
0.0
  9
$UCSORTHOREF
  2

  9
$UCSORTHOVIEW
 70
     0
  9
$UCSORGTOP
 10
0.0
 20
0.0
 30
0.0
  9
$UCSORGBOTTOM
 10
0.0
 20
0.0
 30
0.0
  9
$UCSORGLEFT
 10
0.0
 20
0.0
 30
0.0
  9
$UCSORGRIGHT
 10
0.0
 20
0.0
 30
0.0
  9
$UCSORGFRONT
 10
0.0
 20
0.0
 30
0.0
  9
$UCSORGBACK
 10
0.0
 20
0.0
 30
0.0
  9
$PUCSBASE
  2

  9
$PUCSNAME
  2

  9
$PUCSORG
 10
0.0
 20
0.0
 30
0.0
  9
$PUCSXDIR
 10
1.0
 20
0.0
 30
0.0
  9
$PUCSYDIR
 10
0.0
 20
1.0
 30
0.0
  9
$PUCSORTHOREF
  2

  9
$PUCSORTHOVIEW
 70
     0
  9
$PUCSORGTOP
 10
0.0
 20
0.0
 30
0.0
  9
$PUCSORGBOTTOM
 10
0.0
 20
0.0
 30
0.0
  9
$PUCSORGLEFT
 10
0.0
 20
0.0
 30
0.0
  9
$PUCSORGRIGHT
 10
0.0
 20
0.0
 30
0.0
  9
$PUCSORGFRONT
 10
0.0
 20
0.0
 30
0.0
  9
$PUCSORGBACK
 10
0.0
 20
0.0
 30
0.0
  9
$USERI1
 70
     0
  9
$USERI2
 70
     0
  9
$USERI3
 70
     0
  9
$USERI4
 70
     0
  9
$USERI5
 70
     0
  9
$USERR1
 40
0.0
  9
$USERR2
 40
0.0
  9
$USERR3
 40
0.0
  9
$USERR4
 40
0.0
  9
$USERR5
 40
0.0
  9
$WORLDVIEW
 70
     1
  9
$SHADEDGE
 70
     3
  9
$SHADEDIF
 70
    70
  9
$TILEMODE
 70
     1
  9
$MAXACTVP
 70
    64
  9
$PINSBASE
 10
0.0
 20
0.0
 30
0.0
  9
$PLIMCHECK
 70
     0
  9
$PEXTMIN
 10
1.000000000000000E+20
 20
1.000000000000000E+20
 30
1.000000000000000E+20
  9
$PEXTMAX
 10
-1.000000000000000E+20
 20
-1.000000000000000E+20
 30
-1.000000000000000E+20
  9
$PLIMMIN
 10
0.0
 20
0.0
  9
$PLIMMAX
 10
12.0
 20
9.0
  9
$UNITMODE
 70
     0
  9
$VISRETAIN
 70
     1
  9
$PLINEGEN
 70
     0
  9
$PSLTSCALE
 70
     1
  9
$TREEDEPTH
 70
  3020
  9
$CMLSTYLE
  2
Standard
  9
$CMLJUST
 70
     0
  9
$CMLSCALE
 40
1.0
  9
$PROXYGRAPHICS
 70
     1
  9
$MEASUREMENT
 70
     0
  9
$CELWEIGHT
370
    -1
  9
$ENDCAPS
280
     0
  9
$JOINSTYLE
280
     0
  9
$LWDISPLAY
290
     1
  9
$INSUNITS
 70
     1
  9
$HYPERLINKBASE
  1

  9
$STYLESHEET
  1

  9
$XEDIT
290
     1
  9
$CEPSNTYPE
380
     0
  9
$PSTYLEMODE
290
     1
  9
$FINGERPRINTGUID
  2
{BF4F5219-E81C-4E07-B02E-B1AB9F0B507E}
  9
$VERSIONGUID
  2
{FAEB1C32-E019-11D5-929B-00C0DF256EC4}
  9
$EXTNAMES
290
     1
  9
$PSVPSCALE
 40
0.0
  9
$OLESTARTUP
290
     0
  9
$SORTENTS
280
   127
  9
$INDEXCTL
280
     0
  9
$HIDETEXT
280
     1
  9
$XCLIPFRAME
290
     0
  9
$HALOGAP
280
     0
  9
$OBSCOLOR
 70
   257
  9
$OBSLTYPE
280
     0
  9
$INTERSECTIONDISPLAY
280
     0
  9
$INTERSECTIONCOLOR
 70
   257
  9
$DIMASSOC
280
     2
  9
$PROJECTNAME
  1

  0
ENDSEC
  0
SECTION
  2
CLASSES
  0
CLASS
  1
ACDBDICTIONARYWDFLT
  2
AcDbDictionaryWithDefault
  3
ObjectDBX Classes
 90
        0
 91
        3
280
     0
281
     0
  0
CLASS
  1
VISUALSTYLE
  2
AcDbVisualStyle
  3
ObjectDBX Classes
 90
     4095
 91
        3
280
     0
281
     0
  0
CLASS
  1
IMAGEDEF
  2
AcDbRasterImageDef
  3
ISM
 90
        0
 91
        3
280
     0
281
     0
  0
CLASS
  1
RASTERVARIABLES
  2
AcDbRasterVariables
  3
ISM
 90
        0
 91
        3
280
     0
281
     0
  0
CLASS
  1
IMAGE
  2
AcDbRasterImage
  3
ISM
 90
      127
 91
        4
280
     0
281
     1
  0
CLASS
  1
IMAGEDEF_REACTOR
  2
AcDbRasterImageDefReactor
  3
ISM
 90
        1
 91
        3
280
     0
281
     0
  0
ENDSEC
  0
SECTION
  2
TABLES
  0
TABLE
  2
VPORT
  5
8
330
0
100
AcDbSymbolTable
 70
     1
  0
VPORT
  5
29
330
8
100
AcDbSymbolTableRecord
100
AcDbViewportTableRecord
  2
*Active
 70
     0
 10
0.0
 20
0.0
 11
1.0
 21
1.0
 12
0.0
 22
0.0
 13
0.0
 23
0.0
 14
0.5
 24
0.5
 15
0.5
 25
0.5
 16
0.0
 26
0.0
 36
1.0
 17
105.4805555291854
 27
220.6483750533449
 37
0.0
 40
152.7245279566106
 41
1.067171956418759
 42
50.0
 43
0.0
 44
0.0
 50
0.0
 51
0.0
 71
     0
 72
   100
 73
     1
 74
     3
 75
     0
 76
     0
 77
     0
 78
     0
281
     0
 65
     1
110
0.0
120
0.0
130
0.0
111
1.0
121
0.0
131
0.0
112
0.0
122
1.0
132
0.0
 79
     0
146
0.0
  0
ENDTAB
  0
TABLE
  2
LTYPE
  5
5
330
0
100
AcDbSymbolTable
 70
     1
  0
LTYPE
  5
14
330
5
100
AcDbSymbolTableRecord
100
AcDbLinetypeTableRecord
  2
ByBlock
 70
     0
  3

 72
    65
 73
     0
 40
0.0
  0
LTYPE
  5
15
330
5
100
AcDbSymbolTableRecord
100
AcDbLinetypeTableRecord
  2
ByLayer
 70
     0
  3

 72
    65
 73
     0
 40
0.0
  0
LTYPE
  5
16
330
5
100
AcDbSymbolTableRecord
100
AcDbLinetypeTableRecord
  2
Continuous
 70
     0
  3
Solid line
 72
    65
 73
     0
 40
0.0
  0
ENDTAB
  0
TABLE
  2
LAYER
  5
2
330
0
100
AcDbSymbolTable
 70
     3
  0
LAYER
  5
10
330
2
100
AcDbSymbolTableRecord
100
AcDbLayerTableRecord
  2
0
 70
     0
 62
     7
  6
Continuous
370
    -3
390
F
  0
LAYER
  5
3B
330
2
100
AcDbSymbolTableRecord
100
AcDbLayerTableRecord
  2
Originals
 70
     5
 62
     7
  6
Continuous
370
    -3
390
F
  0
LAYER
  5
6B
330
2
100
AcDbSymbolTableRecord
100
AcDbLayerTableRecord
  2
Tra\U+00E7at
 70
     0
 62
     7
  6
Continuous
370
    -3
390
F
  0
ENDTAB
  0
TABLE
  2
STYLE
  5
3
330
0
100
AcDbSymbolTable
 70
     1
  0
STYLE
  5
11
330
3
100
AcDbSymbolTableRecord
100
AcDbTextStyleTableRecord
  2
Standard
 70
     0
 40
0.0
 41
1.0
 50
0.0
 71
     0
 42
0.2
  3
txt
  4

  0
ENDTAB
  0
TABLE
  2
VIEW
  5
6
330
0
100
AcDbSymbolTable
 70
     0
  0
ENDTAB
  0
TABLE
  2
UCS
  5
7
330
0
100
AcDbSymbolTable
 70
     0
  0
ENDTAB
  0
TABLE
  2
APPID
  5
9
330
0
100
AcDbSymbolTable
 70
     1
  0
APPID
  5
12
330
9
100
AcDbSymbolTableRecord
100
AcDbRegAppTableRecord
  2
ACAD
 70
     0
  0
ENDTAB
  0
TABLE
  2
DIMSTYLE
  5
A
330
0
100
AcDbSymbolTable
 70
     1
100
AcDbDimStyleTable
  0
DIMSTYLE
105
27
330
A
100
AcDbSymbolTableRecord
100
AcDbDimStyleTableRecord
  2
Standard
 70
     0
340
11
  0
ENDTAB
  0
TABLE
  2
BLOCK_RECORD
  5
1
330
0
100
AcDbSymbolTable
 70
     5
  0
BLOCK_RECORD
  5
1F
330
1
100
AcDbSymbolTableRecord
100
AcDbBlockTableRecord
  2
*Model_Space
340
22
  0
BLOCK_RECORD
  5
1B
330
1
100
AcDbSymbolTableRecord
100
AcDbBlockTableRecord
  2
*Paper_Space
340
1E
  0
BLOCK_RECORD
  5
23
330
1
100
AcDbSymbolTableRecord
100
AcDbBlockTableRecord
  2
*Paper_Space0
340
26
  0
BLOCK_RECORD
  5
3C
330
1
100
AcDbSymbolTableRecord
100
AcDbBlockTableRecord
  2
block 2
340
0
102
{BLKREFS
331
3D
102
}
  0
BLOCK_RECORD
  5
44
330
1
100
AcDbSymbolTableRecord
100
AcDbBlockTableRecord
  2
block 3
340
0
102
{BLKREFS
331
45
102
}
  0
BLOCK_RECORD
  5
48
330
1
100
AcDbSymbolTableRecord
100
AcDbBlockTableRecord
  2
block 4
340
0
102
{BLKREFS
331
49
102
}
  0
BLOCK_RECORD
  5
5F
330
1
100
AcDbSymbolTableRecord
100
AcDbBlockTableRecord
  2
block 5
340
0
102
{BLKREFS
331
60
102
}
  0
ENDTAB
  0
ENDSEC
  0
SECTION
  2
BLOCKS
  0
BLOCK
  5
20
330
1F
100
AcDbEntity
  8
0
100
AcDbBlockBegin
  2
*Model_Space
 70
     0
 71
     0
 10
0.0
 20
0.0
 30
0.0
  3
*Model_Space
  1

  0
ENDBLK
  5
21
330
1F
100
AcDbEntity
  8
0
100
AcDbBlockEnd
  0
BLOCK
  5
1C
330
1B
100
AcDbEntity
 67
     1
  8
0
100
AcDbBlockBegin
  2
*Paper_Space
 70
     0
 71
     0
 10
0.0
 20
0.0
 30
0.0
  3
*Paper_Space
  1

  0
ENDBLK
  5
1D
330
1B
100
AcDbEntity
 67
     1
  8
0
100
AcDbBlockEnd
  0
BLOCK
  5
24
330
23
100
AcDbEntity
  8
0
100
AcDbBlockBegin
  2
*Paper_Space0
 70
     0
 71
     0
 10
0.0
 20
0.0
 30
0.0
  3
*Paper_Space0
  1

  0
ENDBLK
  5
25
330
23
100
AcDbEntity
  8
0
100
AcDbBlockEnd
  0
BLOCK
  5
3E
330
3C
100
AcDbEntity
  8
0
100
AcDbBlockBegin
  2
block 2
 70
     0
 71
     0
 10
0.0
 20
0.0
 30
0.0
  3
block 2
  1

  0
MTEXT
  5
40
330
3C
100
AcDbEntity
  8
Originals
 62
     7
100
AcDbMText
 10
30.02280137053249
 20
258.0569443799302
 30
0.0
 40
2.648373323520206
 41
0.0
 71
     7
 72
     1
  1
\fArial|b0|i0|c0|p34;\W1; 
 73
     1
 44
1.0
  0
MTEXT
  5
41
330
3C
100
AcDbEntity
  8
Originals
 62
     7
100
AcDbMText
 10
174.4134710935494
 20
144.3391655455124
 30
0.0
 40
2.648373323520206
 41
0.0
 71
     7
 72
     1
  1
\fArial|b0|i0|c0|p34;\W1; 
 73
     1
 44
1.0
  0
MTEXT
  5
42
330
3C
100
AcDbEntity
  8
Originals
 62
     7
100
AcDbMText
 10
30.02280137053249
 20
136.3734157645178
 30
0.0
 40
2.648373323520206
 41
0.0
 71
     7
 72
     1
  1
\fArial|b0|i0|c0|p34;\W1; 
 73
     1
 44
1.0
  0
MTEXT
  5
43
330
3C
100
AcDbEntity
  8
Originals
 62
     7
100
AcDbMText
 10
30.02280137053249
 20
127.5680962137677
 30
0.0
 40
2.648373323520206
 41
0.0
 71
     7
 72
     1
  1
\fArial|b0|i0|c0|p34;\W1; 
 73
     1
 44
1.0
  0
INSERT
  5
45
330
3C
100
AcDbEntity
  8
Originals
100
AcDbBlockReference
  2
block 3
 10
0.0
 20
0.0
 30
0.0
  0
INSERT
  5
60
330
3C
100
AcDbEntity
  8
Originals
100
AcDbBlockReference
  2
block 5
 10
0.0
 20
0.0
 30
0.0
  0
ENDBLK
  5
3F
330
3C
100
AcDbEntity
  8
0
100
AcDbBlockEnd
  0
BLOCK
  5
46
330
44
100
AcDbEntity
  8
0
100
AcDbBlockBegin
  2
block 3
 70
     0
 71
     0
 10
0.0
 20
0.0
 30
0.0
  3
block 3
  1

  0
INSERT
  5
49
330
44
100
AcDbEntity
  8
Originals
100
AcDbBlockReference
  2
block 4
 10
0.0
 20
0.0
 30
0.0
  0
POLYLINE
  5
58
330
44
100
AcDbEntity
  8
Originals
370
     0
100
AcDb2dPolyline
 66
     1
 10
0.0
 20
0.0
 30
0.0
  0
VERTEX
  5
59
330
58
100
AcDbEntity
  8
Originals
370
     0
100
AcDbVertex
100
AcDb2dVertex
 10
-34.64164088760695
 20
148.7549166837314
 30
0.0
  0
VERTEX
  5
5A
330
58
100
AcDbEntity
  8
Originals
370
     0
100
AcDbVertex
100
AcDb2dVertex
 10
228.206914547983
 20
148.7549166837314
 30
0.0
  0
VERTEX
  5
5B
330
58
100
AcDbEntity
  8
Originals
370
     0
100
AcDbVertex
100
AcDb2dVertex
 10
228.206914547983
 20
289.9547389683099
 30
0.0
  0
VERTEX
  5
5C
330
58
100
AcDbEntity
  8
Originals
370
     0
100
AcDbVertex
100
AcDb2dVertex
 10
-34.64164088760695
 20
289.9547389683099
 30
0.0
  0
VERTEX
  5
5D
330
58
100
AcDbEntity
  8
Originals
370
     0
100
AcDbVertex
100
AcDb2dVertex
 10
-34.64164088760695
 20
148.7549166837314
 30
0.0
  0
SEQEND
  5
5E
330
58
100
AcDbEntity
  8
Originals
370
     0
  0
ENDBLK
  5
47
330
44
100
AcDbEntity
  8
0
100
AcDbBlockEnd
  0
BLOCK
  5
4A
330
48
100
AcDbEntity
  8
0
100
AcDbBlockBegin
  2
block 4
 70
     0
 71
     0
 10
0.0
 20
0.0
 30
0.0
  3
block 4
  1

  0
IMAGE
  5
4F
330
48
100
AcDbEntity
  8
Originals
 92
        8
310
0800000000000000
100
AcDbRasterImage
 90
        0
 10
19.34800148010254
 20
154.2122955322266
 30
0.0
 11
0.2660314723776844
 21
0.0
 31
0.0
 12
0.0
 22
0.2661616605870864
 32
0.0
 13
617.0
 23
510.0
340
4D
 70
     3
280
     0
281
    50
282
    50
283
     0
360
50
 71
     1
 91
        2
 14
-0.5
 24
-0.5
 14
616.5
 24
509.5
  0
POLYLINE
  5
51
330
48
100
AcDbEntity
  8
Originals
370
     0
100
AcDb2dPolyline
 66
     1
 10
0.0
 20
0.0
 30
0.0
  0
VERTEX
  5
52
330
51
100
AcDbEntity
  8
Originals
370
     0
100
AcDbVertex
100
AcDb2dVertex
 10
19.34800075471161
 20
154.2122924419157
 30
0.0
  0
VERTEX
  5
53
330
51
100
AcDbEntity
  8
Originals
370
     0
100
AcDbVertex
100
AcDb2dVertex
 10
183.4888861303431
 20
154.2122924419157
 30
0.0
  0
VERTEX
  5
54
330
51
100
AcDbEntity
  8
Originals
370
     0
100
AcDbVertex
100
AcDb2dVertex
 10
183.4888861303431
 20
289.9547389683099
 30
0.0
  0
VERTEX
  5
55
330
51
100
AcDbEntity
  8
Originals
370
     0
100
AcDbVertex
100
AcDb2dVertex
 10
19.34800075471161
 20
289.9547389683099
 30
0.0
  0
VERTEX
  5
56
330
51
100
AcDbEntity
  8
Originals
370
     0
100
AcDbVertex
100
AcDb2dVertex
 10
19.34800075471161
 20
154.2122924419157
 30
0.0
  0
SEQEND
  5
57
330
51
100
AcDbEntity
  8
Originals
370
     0
  0
ENDBLK
  5
4B
330
48
100
AcDbEntity
  8
0
100
AcDbBlockEnd
  0
BLOCK
  5
61
330
5F
100
AcDbEntity
  8
0
100
AcDbBlockBegin
  2
block 5
 70
     0
 71
     0
 10
0.0
 20
0.0
 30
0.0
  3
block 5
  1

  0
MTEXT
  5
63
330
5F
100
AcDbEntity
  8
Originals
 62
     7
100
AcDbMText
 10
180.7634710919619
 20
134.8069308473747
 30
0.0
 40
2.389293341887045
 41
0.0
 71
     7
 72
     1
  1
\fArial|b0|i1|c0|p34;\W1; 
 73
     1
 44
1.0
  0
POLYLINE
  5
64
330
5F
100
AcDbEntity
  8
Originals
370
     0
100
AcDb2dPolyline
 66
     1
 10
0.0
 20
0.0
 30
0.0
  0
VERTEX
  5
65
330
64
100
AcDbEntity
  8
Originals
370
     0
100
AcDbVertex
100
AcDb2dVertex
 10
129.1872910918351
 20
133.7451524188207
 30
0.0
  0
VERTEX
  5
66
330
64
100
AcDbEntity
  8
Originals
370
     0
100
AcDbVertex
100
AcDb2dVertex
 10
183.4761392770477
 20
133.7451524188207
 30
0.0
  0
VERTEX
  5
67
330
64
100
AcDbEntity
  8
Originals
370
     0
100
AcDbVertex
100
AcDb2dVertex
 10
183.4761392770477
 20
138.0208604255642
 30
0.0
  0
VERTEX
  5
68
330
64
100
AcDbEntity
  8
Originals
370
     0
100
AcDbVertex
100
AcDb2dVertex
 10
129.1872910918351
 20
138.0208604255642
 30
0.0
  0
VERTEX
  5
69
330
64
100
AcDbEntity
  8
Originals
370
     0
100
AcDbVertex
100
AcDb2dVertex
 10
129.1872910918351
 20
133.7451524188207
 30
0.0
  0
SEQEND
  5
6A
330
64
100
AcDbEntity
  8
Originals
370
     0
  0
ENDBLK
  5
62
330
5F
100
AcDbEntity
  8
0
100
AcDbBlockEnd
  0
ENDSEC
  0
SECTION
  2
ENTITIES
  0
INSERT
  5
3D
330
1F
100
AcDbEntity
  8
Originals
100
AcDbBlockReference
  2
block 2
 10
0.0
 20
0.0
 30
0.0
  0
SPLINE
  5
6C
330
1F
100
AcDbEntity
  8
Tra\U+00E7at
 62
   250
370
    35
100
AcDbSpline
210
0.0
220
0.0
230
1.0
 70
    11
 71
     3
 72
    59
 73
    55
 74
     0
 42
0.0000000001
 43
0.0000000001
 40
0.0
 40
0.0
 40
0.0
 40
0.0
 40
1.0
 40
1.0
 40
1.0
 40
2.0
 40
2.0
 40
2.0
 40
3.0
 40
3.0
 40
3.0
 40
4.0
 40
4.0
 40
4.0
 40
5.0
 40
5.0
 40
5.0
 40
6.0
 40
6.0
 40
6.0
 40
7.0
 40
7.0
 40
7.0
 40
8.0
 40
8.0
 40
8.0
 40
9.0
 40
9.0
 40
9.0
 40
10.0
 40
10.0
 40
10.0
 40
11.0
 40
11.0
 40
11.0
 40
12.0
 40
12.0
 40
12.0
 40
13.0
 40
13.0
 40
13.0
 40
14.0
 40
14.0
 40
14.0
 40
15.0
 40
15.0
 40
15.0
 40
16.0
 40
16.0
 40
16.0
 40
17.0
 40
17.0
 40
17.0
 40
18.0
 40
18.0
 40
18.0
 40
18.0
 10
66.23437227076779
 20
197.9524305060675
 30
0.0
 10
66.23437227076779
 20
197.9524305060675
 30
0.0
 10
52.91701116298603
 20
197.9524305060675
 30
0.0
 10
52.91701116298603
 20
197.9524305060675
 30
0.0
 10
47.00798338668551
 20
197.9524305060675
 30
0.0
 10
46.17013616467275
 20
202.979513838144
 30
0.0
 10
46.17013616467275
 20
202.979513838144
 30
0.0
 10
46.17013616467275
 20
202.979513838144
 30
0.0
 10
42.9510389432553
 20
221.4121527224247
 30
0.0
 10
42.9510389432553
 20
221.4121527224247
 30
0.0
 10
41.71631672134176
 20
228.5559027206388
 30
0.0
 10
41.98090005460895
 20
233.053819386181
 30
0.0
 10
41.98090005460895
 20
233.053819386181
 30
0.0
 10
41.98090005460895
 20
233.053819386181
 30
0.0
 10
41.98090005460895
 20
269.2135415993633
 30
0.0
 10
41.98090005460895
 20
269.2135415993633
 30
0.0
 10
41.98090005460895
 20
272.6090277096255
 30
0.0
 10
44.00937227632405
 20
275.4312499311422
 30
0.0
 10
44.00937227632405
 20
275.4312499311422
 30
0.0
 10
44.00937227632405
 20
275.4312499311422
 30
0.0
 10
46.69930283120712
 20
279.620486041206
 30
0.0
 10
46.69930283120712
 20
279.620486041206
 30
0.0
 10
49.345136163879
 20
283.5892360402138
 30
0.0
 10
53.4902750517316
 20
283.3246527069466
 30
0.0
 10
53.4902750517316
 20
283.3246527069466
 30
0.0
 10
53.4902750517316
 20
283.3246527069466
 30
0.0
 10
66.23437227076779
 20
283.3246527069466
 30
0.0
 10
66.23402776121928
 20
283.3246527069466
 30
0.0
 10
66.23402776121928
 20
283.3246527069466
 30
0.0
 10
78.97812498025547
 20
283.3246527069466
 30
0.0
 10
78.97812498025547
 20
283.3246527069466
 30
0.0
 10
78.97812498025547
 20
283.3246527069466
 30
0.0
 10
83.12326386810808
 20
283.5892360402138
 30
0.0
 10
85.76909720077995
 20
279.620486041206
 30
0.0
 10
85.76909720077995
 20
279.620486041206
 30
0.0
 10
88.45902775566303
 20
275.4312499311422
 30
0.0
 10
88.45902775566303
 20
275.4312499311422
 30
0.0
 10
88.45902775566303
 20
275.4312499311422
 30
0.0
 10
90.48749997737814
 20
272.6090277096255
 30
0.0
 10
90.48749997737814
 20
269.2135415993633
 30
0.0
 10
90.48749997737814
 20
269.2135415993633
 30
0.0
 10
90.48749997737814
 20
233.053819386181
 30
0.0
 10
90.48749997737814
 20
233.053819386181
 30
0.0
 10
90.48749997737814
 20
233.053819386181
 30
0.0
 10
90.75208331064532
 20
228.5559027206388
 30
0.0
 10
89.51736108873177
 20
221.4121527224247
 30
0.0
 10
89.51736108873177
 20
221.4121527224247
 30
0.0
 10
86.29826386731433
 20
202.979513838144
 30
0.0
 10
86.29826386731433
 20
202.979513838144
 30
0.0
 10
86.29826386731433
 20
202.979513838144
 30
0.0
 10
85.46041664530156
 20
197.9524305060675
 30
0.0
 10
79.55138886900104
 20
197.9524305060675
 30
0.0
 10
79.55138886900104
 20
197.9524305060675
 30
0.0
 10
66.23402776121928
 20
197.9524305060675
 30
0.0
 10
66.23437227076779
 20
197.9524305060675
 30
0.0
  0
SPLINE
  5
6D
330
1F
100
AcDbEntity
  8
Tra\U+00E7at
 62
   250
370
    35
100
AcDbSpline
210
0.0
220
0.0
230
1.0
 70
    11
 71
     3
 72
   149
 73
   145
 74
     0
 42
0.0000000001
 43
0.0000000001
 40
0.0
 40
0.0
 40
0.0
 40
0.0
 40
1.0
 40
1.0
 40
1.0
 40
2.0
 40
2.0
 40
2.0
 40
3.0
 40
3.0
 40
3.0
 40
4.0
 40
4.0
 40
4.0
 40
5.0
 40
5.0
 40
5.0
 40
6.0
 40
6.0
 40
6.0
 40
7.0
 40
7.0
 40
7.0
 40
8.0
 40
8.0
 40
8.0
 40
9.0
 40
9.0
 40
9.0
 40
10.0
 40
10.0
 40
10.0
 40
11.0
 40
11.0
 40
11.0
 40
12.0
 40
12.0
 40
12.0
 40
13.0
 40
13.0
 40
13.0
 40
14.0
 40
14.0
 40
14.0
 40
15.0
 40
15.0
 40
15.0
 40
16.0
 40
16.0
 40
16.0
 40
17.0
 40
17.0
 40
17.0
 40
18.0
 40
18.0
 40
18.0
 40
19.0
 40
19.0
 40
19.0
 40
20.0
 40
20.0
 40
20.0
 40
21.0
 40
21.0
 40
21.0
 40
22.0
 40
22.0
 40
22.0
 40
23.0
 40
23.0
 40
23.0
 40
24.0
 40
24.0
 40
24.0
 40
25.0
 40
25.0
 40
25.0
 40
26.0
 40
26.0
 40
26.0
 40
27.0
 40
27.0
 40
27.0
 40
28.0
 40
28.0
 40
28.0
 40
29.0
 40
29.0
 40
29.0
 40
30.0
 40
30.0
 40
30.0
 40
31.0
 40
31.0
 40
31.0
 40
32.0
 40
32.0
 40
32.0
 40
33.0
 40
33.0
 40
33.0
 40
34.0
 40
34.0
 40
34.0
 40
35.0
 40
35.0
 40
35.0
 40
36.0
 40
36.0
 40
36.0
 40
37.0
 40
37.0
 40
37.0
 40
38.0
 40
38.0
 40
38.0
 40
39.0
 40
39.0
 40
39.0
 40
40.0
 40
40.0
 40
40.0
 40
41.0
 40
41.0
 40
41.0
 40
42.0
 40
42.0
 40
42.0
 40
43.0
 40
43.0
 40
43.0
 40
44.0
 40
44.0
 40
44.0
 40
45.0
 40
45.0
 40
45.0
 40
46.0
 40
46.0
 40
46.0
 40
47.0
 40
47.0
 40
47.0
 40
48.0
 40
48.0
 40
48.0
 40
48.0
 10
52.27036674040463
 20
197.5455647292594
 30
0.0
 10
52.27036674040463
 20
197.5455647292594
 30
0.0
 10
52.27036674040463
 20
194.6575411839745
 30
0.0
 10
52.27036674040463
 20
194.6575411839745
 30
0.0
 10
52.27036674040463
 20
194.6575411839745
 30
0.0
 10
53.53402776439427
 20
193.8050523061494
 30
0.0
 10
55.29791665284219
 20
193.5404689728823
 30
0.0
 10
55.29791665284219
 20
193.5404689728823
 30
0.0
 10
55.82708331937656
 20
193.3639078292632
 30
0.0
 10
54.94513887515261
 20
193.2169745068173
 30
0.0
 10
54.94513887515261
 20
193.2169745068173
 30
0.0
 10
52.15323349390614
 20
192.6878078402829
 30
0.0
 10
52.27036674040463
 20
192.099902295725
 30
0.0
 10
52.38749998690313
 20
191.5119967511671
 30
0.0
 10
54.40753172467937
 20
191.1004800954541
 30
0.0
 10
55.45535751651811
 20
190.806441195788
 30
0.0
 10
55.45535751651811
 20
190.806441195788
 30
0.0
 10
56.1419650467284
 20
190.688963439741
 30
0.0
 10
55.45535751651811
 20
190.5418578625208
 30
0.0
 10
55.45535751651811
 20
190.5418578625208
 30
0.0
 10
52.20473767141063
 20
189.8655856187663
 30
0.0
 10
52.26674939014512
 20
189.2482245078095
 30
0.0
 10
52.32876110887962
 20
188.6308633968527
 30
0.0
 10
54.88622774235483
 20
188.190063429515
 30
0.0
 10
55.88582219740007
 20
188.0724134186937
 30
0.0
 10
55.88582219740007
 20
188.0724134186937
 30
0.0
 10
56.35642224068521
 20
187.8663967086758
 30
0.0
 10
55.50376110808587
 20
187.7489189526287
 30
0.0
 10
54.65109997548653
 20
187.6314411965817
 30
0.0
 10
52.53443330934903
 20
187.3666856085403
 30
0.0
 10
52.56388887574792
 20
186.5141967307152
 30
0.0
 10
52.59334444214681
 20
185.6617078528901
 30
0.0
 10
56.01535778764547
 20
185.3089300752005
 30
0.0
 10
56.01535778764547
 20
185.3089300752005
 30
0.0
 10
56.01535778764547
 20
185.3089300752005
 30
0.0
 10
56.53246661998147
 20
185.13271344113
 30
0.0
 10
55.70943330855528
 20
185.0150634303087
 30
0.0
 10
55.70943330855528
 20
185.0150634303087
 30
0.0
 10
52.47569443132552
 20
184.5444633870236
 30
0.0
 10
52.56388887574792
 20
183.7214300755974
 30
0.0
 10
52.65208332017031
 20
182.8983967641713
 30
0.0
 10
55.97401664182247
 20
182.8102023197488
 30
0.0
 10
55.97401664182247
 20
182.8102023197488
 30
0.0
 10
55.97401664182247
 20
182.8102023197488
 30
0.0
 10
56.8266777744218
 20
182.6923800541533
 30
0.0
 10
55.91527776379896
 20
182.4867078536839
 30
0.0
 10
55.00387775317612
 20
182.2810356532145
 30
0.0
 10
52.71082219819382
 20
182.0457356315719
 30
0.0
 10
52.79901664261622
 20
181.163791187348
 30
0.0
 10
52.88721108703862
 20
180.281846743124
 30
0.0
 10
55.52219236893195
 20
179.8997856538098
 30
0.0
 10
56.33609617732223
 20
179.8703300874109
 30
0.0
 10
56.33609617732223
 20
179.8703300874109
 30
0.0
 10
57.19788681295748
 20
179.7819633882143
 30
0.0
 10
56.33609617732223
 20
179.5762911877448
 30
0.0
 10
56.33609617732223
 20
179.5762911877448
 30
0.0
 10
52.82864446378937
 20
179.1353189656328
 30
0.0
 10
52.85792777541399
 20
178.4592189766526
 30
0.0
 10
52.85792777541399
 20
178.4592189766526
 30
0.0
 10
52.50514999772441
 20
177.6947522884756
 30
0.0
 10
56.20931666346503
 20
177.1950411883401
 30
0.0
 10
56.20931666346503
 20
177.1950411883401
 30
0.0
 10
56.94415553046883
 20
177.0775634322931
 30
0.0
 10
56.17986109706615
 20
176.9599134214718
 30
0.0
 10
56.17986109706615
 20
176.9599134214718
 30
0.0
 10
53.12233885390692
 20
176.4014634433128
 30
0.0
 10
53.15179442030581
 20
175.4018689882676
 30
0.0
 10
53.15179442030581
 20
175.4018689882676
 30
0.0
 10
53.15179442030581
 20
173.4908745225995
 30
0.0
 10
53.15179442030581
 20
173.4908745225995
 30
0.0
 10
53.15179442030581
 20
173.4908745225995
 30
0.0
 10
60.29554441851987
 20
173.4908745225995
 30
0.0
 10
60.29554441851987
 20
173.4908745225995
 30
0.0
 10
60.29554441851987
 20
173.4908745225995
 30
0.0
 10
60.29554441851987
 20
176.372007876914
 30
0.0
 10
60.29554441851987
 20
176.372007876914
 30
0.0
 10
60.29554441851987
 20
176.372007876914
 30
0.0
 10
60.64832219620945
 20
177.9005967437193
 30
0.0
 10
58.17887775238237
 20
178.2828300878078
 30
0.0
 10
58.17887775238237
 20
178.2828300878078
 30
0.0
 10
57.4733221970032
 20
178.4004800986291
 30
0.0
 10
58.35526664122716
 20
178.5768689874739
 30
0.0
 10
59.23721108545111
 20
178.7532578763186
 30
0.0
 10
62.03014999534316
 20
179.4000745536743
 30
0.0
 10
60.00167777362805
 20
180.3407578759218
 30
0.0
 10
60.00167777362805
 20
180.3407578759218
 30
0.0
 10
59.32557778464778
 20
180.5760578975643
 30
0.0
 10
58.59056666286972
 20
180.7817300980337
 30
0.0
 10
57.85555554109167
 20
180.9874022985032
 30
0.0
 10
57.88501110749056
 20
181.1343356209491
 30
0.0
 10
58.64930554089323
 20
181.3401800761928
 30
0.0
 10
59.41359997429591
 20
181.5460245314364
 30
0.0
 10
62.05960556174205
 20
182.1046467643697
 30
0.0
 10
60.35445555131764
 20
183.0453300866172
 30
0.0
 10
60.35445555131764
 20
183.0453300866172
 30
0.0
 10
59.76637775198549
 20
183.339196731509
 30
0.0
 10
58.73749998531563
 20
183.5450411867526
 30
0.0
 10
57.70862221864576
 20
183.7508856419963
 30
0.0
 10
58.32581107482827
 20
183.95673009724
 30
0.0
 10
58.88443330776153
 20
184.1036634196859
 30
0.0
 10
59.44305554069479
 20
184.2505967421318
 30
0.0
 10
60.76614446180499
 20
184.3978745741262
 30
0.0
 10
60.79542777342962
 20
185.13271344113
 30
0.0
 10
60.79542777342962
 20
185.13271344113
 30
0.0
 10
61.1482055511192
 20
186.0439411969786
 30
0.0
 10
58.59056666286972
 20
186.2203300858234
 30
0.0
 10
58.59056666286972
 20
186.2203300858234
 30
0.0
 10
57.38512775258081
 20
186.4850856738649
 30
0.0
 10
58.73749998531563
 20
186.8084078851555
 30
0.0
 10
60.08987221805045
 20
187.1317300964462
 30
0.0
 10
60.92014022999566
 20
187.1610134080709
 30
0.0
 10
60.91652287973615
 20
187.8078300854265
 30
0.0
 10
60.91652287973615
 20
187.8078300854265
 30
0.0
 10
61.26585556194048
 20
188.6604912180259
 30
0.0
 10
58.76695555171452
 20
189.072007873739
 30
0.0
 10
58.76695555171452
 20
189.072007873739
 30
0.0
 10
57.64971108584799
 20
189.4542412178274
 30
0.0
 10
59.3548610962724
 20
189.6893689846957
 30
0.0
 10
61.06001110669681
 20
189.924496751564
 30
0.0
 10
60.93323159283961
 20
190.6595078733421
 30
0.0
 10
60.93323159283961
 20
190.6595078733421
 30
0.0
 10
60.93323159283961
 20
190.6595078733421
 30
0.0
 10
61.26585556194048
 20
191.7469522632612
 30
0.0
 10
58.94334444055931
 20
191.7764078296601
 30
0.0
 10
56.62083331917813
 20
191.805863396059
 30
0.0
 10
59.29594996347463
 20
192.2761189297956
 30
0.0
 10
59.76637775198549
 20
192.364313374218
 30
0.0
 10
59.76637775198549
 20
192.364313374218
 30
0.0
 10
61.08929441832143
 20
192.5994411410863
 30
0.0
 10
61.11874998472032
 20
193.3344522628643
 30
0.0
 10
61.11874998472032
 20
193.3344522628643
 30
0.0
 10
61.50081107403452
 20
194.1282022626659
 30
0.0
 10
58.97262775218393
 20
194.4809800403555
 30
0.0
 10
56.44444443033333
 20
194.833757818045
 30
0.0
 10
59.47251110709368
 20
195.0396022732887
 30
0.0
 10
59.47251110709368
 20
195.0396022732887
 30
0.0
 10
59.47251110709368
 20
195.0396022732887
 30
0.0
 10
61.16009113054331
 20
195.2454467285324
 30
0.0
 10
61.13942055763182
 20
195.6864189506444
 30
0.0
 10
61.13942055763182
 20
195.6864189506444
 30
0.0
 10
61.13959281240608
 20
197.5238606277024
 30
0.0
 10
61.13959281240608
 20
197.5238606277024
 30
0.0
 10
61.13959281240608
 20
197.5238606277024
 30
0.0
 10
52.27036674040463
 20
197.5455647292594
 30
0.0
 10
52.27036674040463
 20
197.5455647292594
 30
0.0
  0
SPLINE
  5
6E
330
1F
100
AcDbEntity
  8
Tra\U+00E7at
 62
   250
370
     9
100
AcDbSpline
210
0.0
220
0.0
230
1.0
 70
    11
 71
     3
 72
    29
 73
    25
 74
     0
 42
0.0000000001
 43
0.0000000001
 40
0.0
 40
0.0
 40
0.0
 40
0.0
 40
1.0
 40
1.0
 40
1.0
 40
2.0
 40
2.0
 40
2.0
 40
3.0
 40
3.0
 40
3.0
 40
4.0
 40
4.0
 40
4.0
 40
5.0
 40
5.0
 40
5.0
 40
6.0
 40
6.0
 40
6.0
 40
7.0
 40
7.0
 40
7.0
 40
8.0
 40
8.0
 40
8.0
 40
8.0
 10
80.78611109091459
 20
254.9701388251464
 30
0.0
 10
80.78611109091459
 20
254.7753186754555
 30
0.0
 10
80.62815346291588
 20
254.6173610474568
 30
0.0
 10
80.433333313225
 20
254.6173610474568
 30
0.0
 10
80.433333313225
 20
254.6173610474568
 30
0.0
 10
52.12291665363594
 20
254.6173610474568
 30
0.0
 10
52.12291665363594
 20
254.6173610474568
 30
0.0
 10
51.92809650394506
 20
254.6173610474568
 30
0.0
 10
51.77013887594636
 20
254.7753186754555
 30
0.0
 10
51.77013887594636
 20
254.9701388251464
 30
0.0
 10
51.77013887594636
 20
254.9701388251464
 30
0.0
 10
51.77013887594636
 20
256.2930554914823
 30
0.0
 10
51.77013887594636
 20
256.2930554914823
 30
0.0
 10
51.77013887594636
 20
256.4878756411732
 30
0.0
 10
51.92809650394506
 20
256.6458332691719
 30
0.0
 10
52.12291665363594
 20
256.6458332691719
 30
0.0
 10
52.12291665363594
 20
256.6458332691719
 30
0.0
 10
80.433333313225
 20
256.6458332691719
 30
0.0
 10
80.433333313225
 20
256.6458332691719
 30
0.0
 10
80.62815346291588
 20
256.6458332691719
 30
0.0
 10
80.78611109091459
 20
256.4878756411732
 30
0.0
 10
80.78611109091459
 20
256.2930554914823
 30
0.0
 10
80.78611109091459
 20
256.2930554914823
 30
0.0
 10
80.78611109091459
 20
254.9701388251464
 30
0.0
 10
80.78611109091459
 20
254.9701388251464
 30
0.0
  0
SPLINE
  5
6F
330
1F
100
AcDbEntity
  8
Tra\U+00E7at
 62
   250
370
     9
100
AcDbSpline
210
0.0
220
0.0
230
1.0
 70
    11
 71
     3
 72
    29
 73
    25
 74
     0
 42
0.0000000001
 43
0.0000000001
 40
0.0
 40
0.0
 40
0.0
 40
0.0
 40
1.0
 40
1.0
 40
1.0
 40
2.0
 40
2.0
 40
2.0
 40
3.0
 40
3.0
 40
3.0
 40
4.0
 40
4.0
 40
4.0
 40
5.0
 40
5.0
 40
5.0
 40
6.0
 40
6.0
 40
6.0
 40
7.0
 40
7.0
 40
7.0
 40
8.0
 40
8.0
 40
8.0
 40
8.0
 10
81.44756942408256
 20
254.3527777141896
 30
0.0
 10
81.44756942408256
 20
254.1579575644987
 30
0.0
 10
81.28961179608385
 20
253.9999999365
 30
0.0
 10
81.09479164639298
 20
253.9999999365
 30
0.0
 10
81.09479164639298
 20
253.9999999365
 30
0.0
 10
51.37326387604558
 20
253.9999999365
 30
0.0
 10
51.37326387604558
 20
253.9999999365
 30
0.0
 10
51.17844372635469
 20
253.9999999365
 30
0.0
 10
51.020486098356
 20
254.1579575644987
 30
0.0
 10
51.020486098356
 20
254.3527777141896
 30
0.0
 10
51.020486098356
 20
254.3527777141896
 30
0.0
 10
51.020486098356
 20
256.9104166024391
 30
0.0
 10
51.020486098356
 20
256.9104166024391
 30
0.0
 10
51.020486098356
 20
257.1052367521299
 30
0.0
 10
51.17844372635469
 20
257.2631943801287
 30
0.0
 10
51.37326387604558
 20
257.2631943801287
 30
0.0
 10
51.37326387604558
 20
257.2631943801287
 30
0.0
 10
81.09479164639298
 20
257.2631943801287
 30
0.0
 10
81.09479164639298
 20
257.2631943801287
 30
0.0
 10
81.28961179608385
 20
257.2631943801287
 30
0.0
 10
81.44756942408256
 20
257.1052367521299
 30
0.0
 10
81.44756942408256
 20
256.9104166024391
 30
0.0
 10
81.44756942408256
 20
256.9104166024391
 30
0.0
 10
81.44756942408256
 20
254.3527777141896
 30
0.0
 10
81.44756942408256
 20
254.3527777141896
 30
0.0
  0
POLYLINE
  5
70
330
1F
100
AcDbEntity
  8
Tra\U+00E7at
 62
   250
370
    18
100
AcDb2dPolyline
 66
     1
 10
0.0
 20
0.0
 30
0.0
  0
VERTEX
  5
71
330
70
100
AcDbEntity
  8
Tra\U+00E7at
 62
   250
370
    18
100
AcDbVertex
100
AcDb2dVertex
 10
79.77187498005704
 20
211.2697916138492
 30
0.0
  0
VERTEX
  5
72
330
70
100
AcDbEntity
  8
Tra\U+00E7at
 62
   250
370
    18
100
AcDbVertex
100
AcDb2dVertex
 10
83.03506942368568
 20
230.0993054980307
 30
0.0
  0
VERTEX
  5
73
330
70
100
AcDbEntity
  8
Tra\U+00E7at
 62
   250
370
    18
100
AcDbVertex
100
AcDb2dVertex
 10
83.03506942368568
 20
244.871874938782
 30
0.0
  0
VERTEX
  5
74
330
70
100
AcDbEntity
  8
Tra\U+00E7at
 62
   250
370
    18
100
AcDbVertex
100
AcDb2dVertex
 10
49.25676946468234
 20
244.871874938782
 30
0.0
  0
VERTEX
  5
75
330
70
100
AcDbEntity
  8
Tra\U+00E7at
 62
   250
370
    18
100
AcDbVertex
100
AcDb2dVertex
 10
49.25676946468234
 20
230.0993054980307
 30
0.0
  0
VERTEX
  5
76
330
70
100
AcDbEntity
  8
Tra\U+00E7at
 62
   250
370
    18
100
AcDbVertex
100
AcDb2dVertex
 10
52.51996390831098
 20
211.2697916138492
 30
0.0
  0
VERTEX
  5
77
330
70
100
AcDbEntity
  8
Tra\U+00E7at
 62
   250
370
    18
100
AcDbVertex
100
AcDb2dVertex
 10
79.77187498005704
 20
211.2697916138492
 30
0.0
  0
SEQEND
  5
78
330
70
100
AcDbEntity
  8
Tra\U+00E7at
370
    18
  0
POLYLINE
  5
79
330
1F
100
AcDbEntity
  8
Tra\U+00E7at
 62
   250
370
     9
100
AcDb2dPolyline
 66
     1
 10
0.0
 20
0.0
 30
0.0
  0
VERTEX
  5
7A
330
79
100
AcDbEntity
  8
Tra\U+00E7at
 62
   250
370
     9
100
AcDbVertex
100
AcDb2dVertex
 10
72.97504609720762
 20
216.6053832466299
 30
0.0
  0
VERTEX
  5
7B
330
79
100
AcDbEntity
  8
Tra\U+00E7at
 62
   250
370
     9
100
AcDbVertex
100
AcDb2dVertex
 10
74.61060517882999
 20
226.2919582225069
 30
0.0
  0
VERTEX
  5
7C
330
79
100
AcDbEntity
  8
Tra\U+00E7at
 62
   250
370
     9
100
AcDbVertex
100
AcDb2dVertex
 10
75.31616073420916
 20
230.0107665440598
 30
0.0
  0
VERTEX
  5
7D
330
79
100
AcDbEntity
  8
Tra\U+00E7at
 62
   250
370
     9
100
AcDbVertex
100
AcDb2dVertex
 10
56.97567815415886
 20
230.0107665440598
 30
0.0
  0
VERTEX
  5
7E
330
79
100
AcDbEntity
  8
Tra\U+00E7at
 62
   250
370
     9
100
AcDbVertex
100
AcDb2dVertex
 10
57.68123370953803
 20
226.2919582225069
 30
0.0
  0
VERTEX
  5
7F
330
79
100
AcDbEntity
  8
Tra\U+00E7at
 62
   250
370
     9
100
AcDbVertex
100
AcDb2dVertex
 10
59.31679279116039
 20
216.6053832466299
 30
0.0
  0
VERTEX
  5
80
330
79
100
AcDbEntity
  8
Tra\U+00E7at
 62
   250
370
     9
100
AcDbVertex
100
AcDb2dVertex
 10
72.97504609720762
 20
216.6053832466299
 30
0.0
  0
SEQEND
  5
81
330
79
100
AcDbEntity
  8
Tra\U+00E7at
370
     9
  0
POLYLINE
  5
82
330
1F
100
AcDbEntity
  8
Tra\U+00E7at
 62
   250
370
     9
100
AcDb2dPolyline
 66
     1
 10
0.0
 20
0.0
 30
0.0
  0
VERTEX
  5
83
330
82
100
AcDbEntity
  8
Tra\U+00E7at
 62
   250
370
     9
100
AcDbVertex
100
AcDb2dVertex
 10
55.82708331937656
 20
272.6531249318367
 30
0.0
  0
VERTEX
  5
84
330
82
100
AcDbEntity
  8
Tra\U+00E7at
 62
   250
370
     9
100
AcDbVertex
100
AcDb2dVertex
 10
60.19270831828516
 20
265.4652777114115
 30
0.0
  0
VERTEX
  5
85
330
82
100
AcDbEntity
  8
Tra\U+00E7at
 62
   250
370
     9
100
AcDbVertex
100
AcDb2dVertex
 10
72.40763887078698
 20
265.4652777114115
 30
0.0
  0
VERTEX
  5
86
330
82
100
AcDbEntity
  8
Tra\U+00E7at
 62
   250
370
     9
100
AcDbVertex
100
AcDb2dVertex
 10
76.59687498085079
 20
272.6531249318367
 30
0.0
  0
SEQEND
  5
87
330
82
100
AcDbEntity
  8
Tra\U+00E7at
370
     9
  0
POLYLINE
  5
88
330
1F
100
AcDbEntity
  8
Tra\U+00E7at
 62
   250
370
     9
100
AcDb2dPolyline
 66
     1
 10
0.0
 20
0.0
 30
0.0
  0
VERTEX
  5
89
330
88
100
AcDbEntity
  8
Tra\U+00E7at
 62
   250
370
     9
100
AcDbVertex
100
AcDb2dVertex
 10
53.57812498660547
 20
271.7284613035957
 30
0.0
  0
VERTEX
  5
8A
330
88
100
AcDbEntity
  8
Tra\U+00E7at
 62
   250
370
     9
100
AcDbVertex
100
AcDb2dVertex
 10
59.09372285849046
 20
263.1295029724121
 30
0.0
  0
VERTEX
  5
8B
330
88
100
AcDbEntity
  8
Tra\U+00E7at
 62
   250
370
     9
100
AcDbVertex
100
AcDb2dVertex
 10
73.53883597336876
 20
263.1295029724121
 30
0.0
  0
VERTEX
  5
8C
330
88
100
AcDbEntity
  8
Tra\U+00E7at
 62
   250
370
     9
100
AcDbVertex
100
AcDb2dVertex
 10
78.84583331362188
 20
271.7284613035957
 30
0.0
  0
SEQEND
  5
8D
330
88
100
AcDbEntity
  8
Tra\U+00E7at
370
     9
  0
POLYLINE
  5
8E
330
1F
100
AcDbEntity
  8
Tra\U+00E7at
 62
   250
370
     9
100
AcDb2dPolyline
 66
     1
 10
0.0
 20
0.0
 30
0.0
  0
VERTEX
  5
8F
330
8E
100
AcDbEntity
  8
Tra\U+00E7at
 62
   250
370
     9
100
AcDbVertex
100
AcDb2dVertex
 10
51.50555554267917
 20
270.492361043488
 30
0.0
  0
VERTEX
  5
90
330
8E
100
AcDbEntity
  8
Tra\U+00E7at
 62
   250
370
     9
100
AcDbVertex
100
AcDb2dVertex
 10
57.79836695603652
 20
260.4822916015461
 30
0.0
  0
VERTEX
  5
91
330
8E
100
AcDbEntity
  8
Tra\U+00E7at
 62
   250
370
     9
100
AcDbVertex
100
AcDb2dVertex
 10
74.86192489447896
 20
260.4822916015461
 30
0.0
  0
VERTEX
  5
92
330
8E
100
AcDbEntity
  8
Tra\U+00E7at
 62
   250
370
     9
100
AcDbVertex
100
AcDb2dVertex
 10
80.91840275754818
 20
270.492361043488
 30
0.0
  0
SEQEND
  5
93
330
8E
100
AcDbEntity
  8
Tra\U+00E7at
370
     9
  0
POLYLINE
  5
94
330
1F
100
AcDbEntity
  8
Tra\U+00E7at
 62
   250
370
     9
100
AcDb2dPolyline
 66
     1
 10
0.0
 20
0.0
 30
0.0
  0
VERTEX
  5
95
330
94
100
AcDbEntity
  8
Tra\U+00E7at
 62
   250
370
     9
100
AcDbVertex
100
AcDb2dVertex
 10
50.53541665403282
 20
230.0107665440598
 30
0.0
  0
VERTEX
  5
96
330
94
100
AcDbEntity
  8
Tra\U+00E7at
 62
   250
370
     9
100
AcDbVertex
100
AcDb2dVertex
 10
53.53402776439427
 20
212.5927082801852
 30
0.0
  0
VERTEX
  5
97
330
94
100
AcDbEntity
  8
Tra\U+00E7at
 62
   250
370
     9
100
AcDbVertex
100
AcDb2dVertex
 10
78.80173609141067
 20
212.5927082801852
 30
0.0
  0
VERTEX
  5
98
330
94
100
AcDbEntity
  8
Tra\U+00E7at
 62
   250
370
     9
100
AcDbVertex
100
AcDb2dVertex
 10
81.80034720177214
 20
230.0107665440598
 30
0.0
  0
SEQEND
  5
99
330
94
100
AcDbEntity
  8
Tra\U+00E7at
370
     9
  0
POLYLINE
  5
9A
330
1F
100
AcDbEntity
  8
Tra\U+00E7at
 62
   250
370
    18
100
AcDb2dPolyline
 66
     1
 10
0.0
 20
0.0
 30
0.0
  0
VERTEX
  5
9B
330
9A
100
AcDbEntity
  8
Tra\U+00E7at
 62
   250
370
    18
100
AcDbVertex
100
AcDb2dVertex
 10
59.06822915189962
 20
282.5749999293562
 30
0.0
  0
VERTEX
  5
9C
330
9A
100
AcDbEntity
  8
Tra\U+00E7at
 62
   250
370
    18
100
AcDbVertex
100
AcDb2dVertex
 10
73.24548609279974
 20
282.5749999293562
 30
0.0
  0
VERTEX
  5
9D
330
9A
100
AcDbEntity
  8
Tra\U+00E7at
 62
   250
370
    18
100
AcDbVertex
100
AcDb2dVertex
 10
70.66579859344466
 20
279.4661457634668
 30
0.0
  0
VERTEX
  5
9E
330
9A
100
AcDbEntity
  8
Tra\U+00E7at
 62
   250
370
    18
100
AcDbVertex
100
AcDb2dVertex
 10
61.80225692899388
 20
279.4661457634668
 30
0.0
  0
VERTEX
  5
9F
330
9A
100
AcDbEntity
  8
Tra\U+00E7at
 62
   250
370
    18
100
AcDbVertex
100
AcDb2dVertex
 10
59.06822915189962
 20
282.5749999293562
 30
0.0
  0
SEQEND
  5
A0
330
9A
100
AcDbEntity
  8
Tra\U+00E7at
370
    18
  0
SPLINE
  5
A1
330
1F
100
AcDbEntity
  8
Tra\U+00E7at
 62
   250
370
     9
100
AcDbSpline
210
0.0
220
0.0
230
1.0
 70
     8
 71
     3
 72
    59
 73
    55
 74
     0
 42
0.0000000001
 43
0.0000000001
 40
0.0
 40
0.0
 40
0.0
 40
0.0
 40
1.0
 40
1.0
 40
1.0
 40
2.0
 40
2.0
 40
2.0
 40
3.0
 40
3.0
 40
3.0
 40
4.0
 40
4.0
 40
4.0
 40
5.0
 40
5.0
 40
5.0
 40
6.0
 40
6.0
 40
6.0
 40
7.0
 40
7.0
 40
7.0
 40
8.0
 40
8.0
 40
8.0
 40
9.0
 40
9.0
 40
9.0
 40
10.0
 40
10.0
 40
10.0
 40
11.0
 40
11.0
 40
11.0
 40
12.0
 40
12.0
 40
12.0
 40
13.0
 40
13.0
 40
13.0
 40
14.0
 40
14.0
 40
14.0
 40
15.0
 40
15.0
 40
15.0
 40
16.0
 40
16.0
 40
16.0
 40
17.0
 40
17.0
 40
17.0
 40
18.0
 40
18.0
 40
18.0
 40
18.0
 10
76.3984374809004
 20
282.5749999293562
 30
0.0
 10
76.3984374809004
 20
282.5749999293562
 30
0.0
 10
79.96290552471415
 20
282.5749999293562
 30
0.0
 10
79.96290552471415
 20
282.5749999293562
 30
0.0
 10
79.96290552471415
 20
282.5749999293562
 30
0.0
 10
83.37320554556295
 20
282.1633110188689
 30
0.0
 10
85.81319442299115
 20
277.783044364148
 30
0.0
 10
85.81319442299115
 20
277.783044364148
 30
0.0
 10
88.37083331124063
 20
273.549711031873
 30
0.0
 10
88.37083331124063
 20
273.549711031873
 30
0.0
 10
88.37083331124063
 20
273.549711031873
 30
0.0
 10
89.42916664430938
 20
272.2443643525119
 30
0.0
 10
89.42916664430938
 20
267.4289821380039
 30
0.0
 10
89.42916664430938
 20
267.4289821380039
 30
0.0
 10
89.42916664430938
 20
229.4521443111265
 30
0.0
 10
89.42916664430938
 20
229.4521443111265
 30
0.0
 10
89.42916664430938
 20
229.4521443111265
 30
0.0
 10
89.16475556581645
 20
224.9543999003586
 30
0.0
 10
88.60613333288319
 20
222.7495387897987
 30
0.0
 10
88.60613333288319
 20
222.7495387897987
 30
0.0
 10
85.31348332285566
 20
203.6407999165377
 30
0.0
 10
85.31348332285566
 20
203.6407999165377
 30
0.0
 10
85.31348332285566
 20
203.6407999165377
 30
0.0
 10
84.28443330141154
 20
199.2310776954179
 30
0.0
 10
80.25694442438021
 20
199.2310776954179
 30
0.0
 10
80.25694442438021
 20
199.2310776954179
 30
0.0
 10
66.14583331679688
 20
199.2310776954179
 30
0.0
 10
66.14583331679688
 20
199.2310776954179
 30
0.0
 10
66.14583331679688
 20
199.2310776954179
 30
0.0
 10
52.03472220921354
 20
199.2310776954179
 30
0.0
 10
52.03472220921354
 20
199.2310776954179
 30
0.0
 10
48.00706107740796
 20
199.2310776954179
 30
0.0
 10
46.97801105596383
 20
203.6407999165377
 30
0.0
 10
46.97801105596383
 20
203.6407999165377
 30
0.0
 10
46.97801105596383
 20
203.6407999165377
 30
0.0
 10
43.68553330071056
 20
222.7495387897987
 30
0.0
 10
43.68553330071056
 20
222.7495387897987
 30
0.0
 10
43.12673881300304
 20
224.9543999003586
 30
0.0
 10
42.86249998928438
 20
229.4521443111265
 30
0.0
 10
42.86249998928438
 20
229.4521443111265
 30
0.0
 10
42.86249998928438
 20
229.4521443111265
 30
0.0
 10
42.86249998928438
 20
267.4289821380039
 30
0.0
 10
42.86249998928438
 20
267.4289821380039
 30
0.0
 10
42.86249998928438
 20
272.2443643525119
 30
0.0
 10
43.92083332235313
 20
273.549711031873
 30
0.0
 10
43.92083332235313
 20
273.549711031873
 30
0.0
 10
43.92083332235313
 20
273.549711031873
 30
0.0
 10
46.4784722106026
 20
277.783044364148
 30
0.0
 10
46.4784722106026
 20
277.783044364148
 30
0.0
 10
48.91828883325654
 20
282.1633110188689
 30
0.0
 10
52.32858885410536
 20
282.5749999293562
 30
0.0
 10
52.32858885410536
 20
282.5749999293562
 30
0.0
 10
52.32858885410536
 20
282.5749999293562
 30
0.0
 10
55.31996526394779
 20
282.5749999293562
 30
0.0
 10
55.31996526394779
 20
282.5749999293562
 30
0.0
  0
POLYLINE
  5
A2
330
1F
100
AcDbEntity
  8
Tra\U+00E7at
 62
   250
370
     9
100
AcDb2dPolyline
 66
     1
 10
0.0
 20
0.0
 30
0.0
  0
VERTEX
  5
A3
330
A2
100
AcDbEntity
  8
Tra\U+00E7at
 62
   250
370
     9
100
AcDbVertex
100
AcDb2dVertex
 10
54.94513887515261
 20
282.5749999293562
 30
0.0
  0
VERTEX
  5
A4
330
A2
100
AcDbEntity
  8
Tra\U+00E7at
 62
   250
370
     9
100
AcDbVertex
100
AcDb2dVertex
 10
57.76736109666928
 20
282.5749999293562
 30
0.0
  0
VERTEX
  5
A5
330
A2
100
AcDbEntity
  8
Tra\U+00E7at
 62
   250
370
     9
100
AcDbVertex
100
AcDb2dVertex
 10
61.14803329634494
 20
278.8413776972167
 30
0.0
  0
VERTEX
  5
A6
330
A2
100
AcDbEntity
  8
Tra\U+00E7at
 62
   250
370
     9
100
AcDbVertex
100
AcDb2dVertex
 10
71.14346108247456
 20
278.8413776972167
 30
0.0
  0
VERTEX
  5
A7
330
A2
100
AcDbEntity
  8
Tra\U+00E7at
 62
   250
370
     9
100
AcDbVertex
100
AcDb2dVertex
 10
74.52430553692449
 20
282.5749999293562
 30
0.0
  0
VERTEX
  5
A8
330
A2
100
AcDbEntity
  8
Tra\U+00E7at
 62
   250
370
     9
100
AcDbVertex
100
AcDb2dVertex
 10
76.59670272607653
 20
282.5749999293562
 30
0.0
  0
SEQEND
  5
A9
330
A2
100
AcDbEntity
  8
Tra\U+00E7at
370
     9
  0
POLYLINE
  5
AA
330
1F
100
AcDbEntity
  8
Tra\U+00E7at
 62
   250
370
    18
100
AcDb2dPolyline
 66
     1
 10
0.0
 20
0.0
 30
0.0
  0
VERTEX
  5
AB
330
AA
100
AcDbEntity
  8
Tra\U+00E7at
 62
   250
370
    18
100
AcDbVertex
100
AcDb2dVertex
 10
80.78611109091459
 20
276.5776054538591
 30
0.0
  0
VERTEX
  5
AC
330
AA
100
AcDbEntity
  8
Tra\U+00E7at
 62
   250
370
    18
100
AcDbVertex
100
AcDb2dVertex
 10
85.78373885659227
 20
270.8156832547787
 30
0.0
  0
VERTEX
  5
AD
330
AA
100
AcDbEntity
  8
Tra\U+00E7at
 62
   250
370
    18
100
AcDbVertex
100
AcDb2dVertex
 10
85.72499997856876
 20
230.540449974917
 30
0.0
  0
VERTEX
  5
AE
330
AA
100
AcDbEntity
  8
Tra\U+00E7at
 62
   250
370
    18
100
AcDbVertex
100
AcDb2dVertex
 10
85.78373885659227
 20
226.0130777429759
 30
0.0
  0
VERTEX
  5
AF
330
AA
100
AcDbEntity
  8
Tra\U+00E7at
 62
   250
370
    18
100
AcDbVertex
100
AcDb2dVertex
 10
82.7263888682073
 20
202.3182277597503
 30
0.0
  0
VERTEX
  5
B0
330
AA
100
AcDbEntity
  8
Tra\U+00E7at
 62
   250
370
    18
100
AcDbVertex
100
AcDb2dVertex
 10
69.76215004766364
 20
202.3182277597503
 30
0.0
  0
VERTEX
  5
B1
330
AA
100
AcDbEntity
  8
Tra\U+00E7at
 62
   250
370
    18
100
AcDbVertex
100
AcDb2dVertex
 10
64.15267332380559
 20
202.3182277597503
 30
0.0
  0
VERTEX
  5
B2
330
AA
100
AcDbEntity
  8
Tra\U+00E7at
 62
   250
370
    18
100
AcDbVertex
100
AcDb2dVertex
 10
49.77732339250359
 20
202.3182277597503
 30
0.0
  0
VERTEX
  5
B3
330
AA
100
AcDbEntity
  8
Tra\U+00E7at
 62
   250
370
    18
100
AcDbVertex
100
AcDb2dVertex
 10
46.71997340411862
 20
226.0130777429759
 30
0.0
  0
VERTEX
  5
B4
330
AA
100
AcDbEntity
  8
Tra\U+00E7at
 62
   250
370
    18
100
AcDbVertex
100
AcDb2dVertex
 10
46.77871228214213
 20
230.540449974917
 30
0.0
  0
VERTEX
  5
B5
330
AA
100
AcDbEntity
  8
Tra\U+00E7at
 62
   250
370
    18
100
AcDbVertex
100
AcDb2dVertex
 10
46.71997340411862
 20
270.8156832547787
 30
0.0
  0
VERTEX
  5
B6
330
AA
100
AcDbEntity
  8
Tra\U+00E7at
 62
   250
370
    18
100
AcDbVertex
100
AcDb2dVertex
 10
51.7176011697963
 20
276.5776054538591
 30
0.0
  0
VERTEX
  5
B7
330
AA
100
AcDbEntity
  8
Tra\U+00E7at
 62
   250
370
    18
100
AcDbVertex
100
AcDb2dVertex
 10
80.78611109091459
 20
276.5776054538591
 30
0.0
  0
SEQEND
  5
B8
330
AA
100
AcDbEntity
  8
Tra\U+00E7at
370
    18
  0
POLYLINE
  5
B9
330
1F
100
AcDbEntity
  8
Tra\U+00E7at
 62
   250
370
     9
100
AcDb2dPolyline
 66
     1
 10
0.0
 20
0.0
 30
0.0
  0
VERTEX
  5
BA
330
B9
100
AcDbEntity
  8
Tra\U+00E7at
 62
   250
370
     9
100
AcDbVertex
100
AcDb2dVertex
 10
80.04093693745504
 20
275.124636432955
 30
0.0
  0
VERTEX
  5
BB
330
B9
100
AcDbEntity
  8
Tra\U+00E7at
 62
   250
370
     9
100
AcDbVertex
100
AcDb2dVertex
 10
84.49027775665522
 20
269.5881957333842
 30
0.0
  0
VERTEX
  5
BC
330
B9
100
AcDbEntity
  8
Tra\U+00E7at
 62
   250
370
     9
100
AcDbVertex
100
AcDb2dVertex
 10
84.7865559683867
 20
230.88892138325
 30
0.0
  0
VERTEX
  5
BD
330
B9
100
AcDbEntity
  8
Tra\U+00E7at
 62
   250
370
     9
100
AcDbVertex
100
AcDb2dVertex
 10
84.8430555343448
 20
226.538799314025
 30
0.0
  0
VERTEX
  5
BE
330
B9
100
AcDbEntity
  8
Tra\U+00E7at
 62
   250
370
     9
100
AcDbVertex
100
AcDb2dVertex
 10
81.90542261407226
 20
203.0656412252753
 30
0.0
  0
VERTEX
  5
BF
330
B9
100
AcDbEntity
  8
Tra\U+00E7at
 62
   250
370
     9
100
AcDbVertex
100
AcDb2dVertex
 10
69.44847410373164
 20
203.0656412252753
 30
0.0
  0
VERTEX
  5
C0
330
B9
100
AcDbEntity
  8
Tra\U+00E7at
 62
   250
370
     9
100
AcDbVertex
100
AcDb2dVertex
 10
64.058449962284
 20
203.0656412252753
 30
0.0
  0
VERTEX
  5
C1
330
B9
100
AcDbEntity
  8
Tra\U+00E7at
 62
   250
370
     9
100
AcDbVertex
100
AcDb2dVertex
 10
50.24551186894904
 20
203.0656412252753
 30
0.0
  0
VERTEX
  5
C2
330
B9
100
AcDbEntity
  8
Tra\U+00E7at
 62
   250
370
     9
100
AcDbVertex
100
AcDb2dVertex
 10
47.66065672636608
 20
226.538799314025
 30
0.0
  0
VERTEX
  5
C3
330
B9
100
AcDbEntity
  8
Tra\U+00E7at
 62
   250
370
     9
100
AcDbVertex
100
AcDb2dVertex
 10
47.71715629232418
 20
230.88892138325
 30
0.0
  0
VERTEX
  5
C4
330
B9
100
AcDbEntity
  8
Tra\U+00E7at
 62
   250
370
     9
100
AcDbVertex
100
AcDb2dVertex
 10
48.01343450405567
 20
269.5881957333842
 30
0.0
  0
VERTEX
  5
C5
330
B9
100
AcDbEntity
  8
Tra\U+00E7at
 62
   250
370
     9
100
AcDbVertex
100
AcDb2dVertex
 10
52.10999754556625
 20
275.124636432955
 30
0.0
  0
VERTEX
  5
C6
330
B9
100
AcDbEntity
  8
Tra\U+00E7at
 62
   250
370
     9
100
AcDbVertex
100
AcDb2dVertex
 10
80.04093693745504
 20
275.124636432955
 30
0.0
  0
SEQEND
  5
C7
330
B9
100
AcDbEntity
  8
Tra\U+00E7at
370
     9
  0
POLYLINE
  5
C8
330
1F
100
AcDbEntity
  8
Tra\U+00E7at
 62
   250
370
     9
100
AcDb2dPolyline
 66
     1
 10
0.0
 20
0.0
 30
0.0
  0
VERTEX
  5
C9
330
C8
100
AcDbEntity
  8
Tra\U+00E7at
 62
   250
370
     9
100
AcDbVertex
100
AcDb2dVertex
 10
53.93090276429506
 20
232.8920721531485
 30
0.0
  0
VERTEX
  5
CA
330
C8
100
AcDbEntity
  8
Tra\U+00E7at
 62
   250
370
     9
100
AcDbVertex
100
AcDb2dVertex
 10
57.60578611841105
 20
214.3417832580465
 30
0.0
  0
VERTEX
  5
CB
330
C8
100
AcDbEntity
  8
Tra\U+00E7at
 62
   250
370
     9
100
AcDbVertex
100
AcDb2dVertex
 10
74.74479164798048
 20
214.3417832580465
 30
0.0
  0
VERTEX
  5
CC
330
C8
100
AcDbEntity
  8
Tra\U+00E7at
 62
   250
370
     9
100
AcDbVertex
100
AcDb2dVertex
 10
78.36076386929871
 20
232.8920721531485
 30
0.0
  0
SEQEND
  5
CD
330
C8
100
AcDbEntity
  8
Tra\U+00E7at
370
     9
  0
POLYLINE
  5
CE
330
1F
100
AcDbEntity
  8
Tra\U+00E7at
 62
   250
370
     9
100
AcDb2dPolyline
 66
     1
 10
0.0
 20
0.0
 30
0.0
  0
VERTEX
  5
CF
330
CE
100
AcDbEntity
  8
Tra\U+00E7at
 62
   250
370
     9
100
AcDbVertex
100
AcDb2dVertex
 10
54.57771944165071
 20
232.8920721531485
 30
0.0
  0
VERTEX
  5
D0
330
CE
100
AcDbEntity
  8
Tra\U+00E7at
 62
   250
370
     9
100
AcDbVertex
100
AcDb2dVertex
 10
58.0579549008501
 20
215.1181355256475
 30
0.0
  0
VERTEX
  5
D1
330
CE
100
AcDbEntity
  8
Tra\U+00E7at
 62
   250
370
     9
100
AcDbVertex
100
AcDb2dVertex
 10
74.28935002483044
 20
215.1181355256475
 30
0.0
  0
VERTEX
  5
D2
330
CE
100
AcDbEntity
  8
Tra\U+00E7at
 62
   250
370
     9
100
AcDbVertex
100
AcDb2dVertex
 10
77.71394719194305
 20
232.8920721531485
 30
0.0
  0
SEQEND
  5
D3
330
CE
100
AcDbEntity
  8
Tra\U+00E7at
370
     9
  0
POLYLINE
  5
D4
330
1F
100
AcDbEntity
  8
Tra\U+00E7at
 62
   250
370
     9
100
AcDb2dPolyline
 66
     1
 10
0.0
 20
0.0
 30
0.0
  0
VERTEX
  5
D5
330
D4
100
AcDbEntity
  8
Tra\U+00E7at
 62
   250
370
     9
100
AcDbVertex
100
AcDb2dVertex
 10
55.25381943063099
 20
232.8920721531485
 30
0.0
  0
VERTEX
  5
D6
330
D4
100
AcDbEntity
  8
Tra\U+00E7at
 62
   250
370
     9
100
AcDbVertex
100
AcDb2dVertex
 10
58.53079425620064
 20
215.8540079212969
 30
0.0
  0
VERTEX
  5
D7
330
D4
100
AcDbEntity
  8
Tra\U+00E7at
 62
   250
370
     9
100
AcDbVertex
100
AcDb2dVertex
 10
73.81341008354318
 20
215.8540079212969
 30
0.0
  0
VERTEX
  5
D8
330
D4
100
AcDbEntity
  8
Tra\U+00E7at
 62
   250
370
     9
100
AcDbVertex
100
AcDb2dVertex
 10
77.03784720296277
 20
232.8920721531485
 30
0.0
  0
SEQEND
  5
D9
330
D4
100
AcDbEntity
  8
Tra\U+00E7at
370
     9
  0
POLYLINE
  5
DA
330
1F
100
AcDbEntity
  8
Tra\U+00E7at
 62
   250
370
     9
100
AcDb2dPolyline
 66
     1
 10
0.0
 20
0.0
 30
0.0
  0
VERTEX
  5
DB
330
DA
100
AcDbEntity
  8
Tra\U+00E7at
 62
   250
370
     9
100
AcDbVertex
100
AcDb2dVertex
 10
44.87236869537913
 20
275.124636432955
 30
0.0
  0
VERTEX
  5
DC
330
DA
100
AcDbEntity
  8
Tra\U+00E7at
 62
   250
370
     9
100
AcDbVertex
100
AcDb2dVertex
 10
48.20153671755031
 20
272.5237615963656
 30
0.0
  0
SEQEND
  5
DD
330
DA
100
AcDbEntity
  8
Tra\U+00E7at
370
     9
  0
POLYLINE
  5
DE
330
1F
100
AcDbEntity
  8
Tra\U+00E7at
 62
   250
370
     9
100
AcDb2dPolyline
 66
     1
 10
0.0
 20
0.0
 30
0.0
  0
VERTEX
  5
DF
330
DE
100
AcDbEntity
  8
Tra\U+00E7at
 62
   250
370
     9
100
AcDbVertex
100
AcDb2dVertex
 10
87.41929793821463
 20
275.124636432955
 30
0.0
  0
VERTEX
  5
E0
330
DE
100
AcDbEntity
  8
Tra\U+00E7at
 62
   250
370
     9
100
AcDbVertex
100
AcDb2dVertex
 10
84.30320907180615
 20
272.5237615963656
 30
0.0
  0
SEQEND
  5
E1
330
DE
100
AcDbEntity
  8
Tra\U+00E7at
370
     9
  0
POLYLINE
  5
E2
330
1F
100
AcDbEntity
  8
Tra\U+00E7at
 62
   250
370
     9
100
AcDb2dPolyline
 66
     1
 10
0.0
 20
0.0
 30
0.0
  0
VERTEX
  5
E3
330
E2
100
AcDbEntity
  8
Tra\U+00E7at
 62
   250
370
     9
100
AcDbVertex
100
AcDb2dVertex
 10
85.78029376110702
 20
268.3973984789076
 30
0.0
  0
VERTEX
  5
E4
330
E2
100
AcDbEntity
  8
Tra\U+00E7at
 62
   250
370
     9
100
AcDbVertex
100
AcDb2dVertex
 10
89.42623831314691
 20
268.3973984789076
 30
0.0
  0
SEQEND
  5
E5
330
E2
100
AcDbEntity
  8
Tra\U+00E7at
370
     9
  0
POLYLINE
  5
E6
330
1F
100
AcDbEntity
  8
Tra\U+00E7at
 62
   250
370
     9
100
AcDb2dPolyline
 66
     1
 10
0.0
 20
0.0
 30
0.0
  0
VERTEX
  5
E7
330
E6
100
AcDbEntity
  8
Tra\U+00E7at
 62
   250
370
     9
100
AcDbVertex
100
AcDb2dVertex
 10
46.72341849960387
 20
268.3973984789076
 30
0.0
  0
VERTEX
  5
E8
330
E6
100
AcDbEntity
  8
Tra\U+00E7at
 62
   250
370
     9
100
AcDbVertex
100
AcDb2dVertex
 10
42.86456704657553
 20
268.3973984789076
 30
0.0
  0
SEQEND
  5
E9
330
E6
100
AcDbEntity
  8
Tra\U+00E7at
370
     9
  0
POLYLINE
  5
EA
330
1F
100
AcDbEntity
  8
Tra\U+00E7at
 62
   250
370
     9
100
AcDb2dPolyline
 66
     1
 10
0.0
 20
0.0
 30
0.0
  0
VERTEX
  5
EB
330
EA
100
AcDbEntity
  8
Tra\U+00E7at
 62
   250
370
     9
100
AcDbVertex
100
AcDb2dVertex
 10
47.82998316946612
 20
245.6218722259209
 30
0.0
  0
VERTEX
  5
EC
330
EA
100
AcDbEntity
  8
Tra\U+00E7at
 62
   250
370
     9
100
AcDbVertex
100
AcDb2dVertex
 10
46.75683592581079
 20
245.6218722259209
 30
0.0
  0
SEQEND
  5
ED
330
EA
100
AcDbEntity
  8
Tra\U+00E7at
370
     9
  0
POLYLINE
  5
EE
330
1F
100
AcDbEntity
  8
Tra\U+00E7at
 62
   250
370
     9
100
AcDb2dPolyline
 66
     1
 10
0.0
 20
0.0
 30
0.0
  0
VERTEX
  5
EF
330
EE
100
AcDbEntity
  8
Tra\U+00E7at
 62
   250
370
     9
100
AcDbVertex
100
AcDb2dVertex
 10
84.67372909124477
 20
245.6218722259209
 30
0.0
  0
VERTEX
  5
F0
330
EE
100
AcDbEntity
  8
Tra\U+00E7at
 62
   250
370
     9
100
AcDbVertex
100
AcDb2dVertex
 10
85.78373885659227
 20
245.6218722259209
 30
0.0
  0
SEQEND
  5
F1
330
EE
100
AcDbEntity
  8
Tra\U+00E7at
370
     9
  0
POLYLINE
  5
F2
330
1F
100
AcDbEntity
  8
Tra\U+00E7at
 62
   250
370
     9
100
AcDb2dPolyline
 66
     1
 10
0.0
 20
0.0
 30
0.0
  0
VERTEX
  5
F3
330
F2
100
AcDbEntity
  8
Tra\U+00E7at
 62
   250
370
     9
100
AcDbVertex
100
AcDb2dVertex
 10
46.77871228214213
 20
230.540449974917
 30
0.0
  0
VERTEX
  5
F4
330
F2
100
AcDbEntity
  8
Tra\U+00E7at
 62
   250
370
     9
100
AcDbVertex
100
AcDb2dVertex
 10
42.86249998928438
 20
231.8466579281495
 30
0.0
  0
SEQEND
  5
F5
330
F2
100
AcDbEntity
  8
Tra\U+00E7at
370
     9
  0
POLYLINE
  5
F6
330
1F
100
AcDbEntity
  8
Tra\U+00E7at
 62
   250
370
     9
100
AcDb2dPolyline
 66
     1
 10
0.0
 20
0.0
 30
0.0
  0
VERTEX
  5
F7
330
F6
100
AcDbEntity
  8
Tra\U+00E7at
 62
   250
370
     9
100
AcDbVertex
100
AcDb2dVertex
 10
85.78373885659227
 20
230.540449974917
 30
0.0
  0
VERTEX
  5
F8
330
F6
100
AcDbEntity
  8
Tra\U+00E7at
 62
   250
370
     9
100
AcDbVertex
100
AcDb2dVertex
 10
89.49135061781814
 20
231.8466579281495
 30
0.0
  0
SEQEND
  5
F9
330
F6
100
AcDbEntity
  8
Tra\U+00E7at
370
     9
  0
POLYLINE
  5
FA
330
1F
100
AcDbEntity
  8
Tra\U+00E7at
 62
   250
370
     9
100
AcDb2dPolyline
 66
     1
 10
0.0
 20
0.0
 30
0.0
  0
VERTEX
  5
FB
330
FA
100
AcDbEntity
  8
Tra\U+00E7at
 62
   250
370
     9
100
AcDbVertex
100
AcDb2dVertex
 10
46.77871228214213
 20
225.5578083746001
 30
0.0
  0
VERTEX
  5
FC
330
FA
100
AcDbEntity
  8
Tra\U+00E7at
 62
   250
370
     9
100
AcDbVertex
100
AcDb2dVertex
 10
43.68553330071056
 20
222.7495387897987
 30
0.0
  0
SEQEND
  5
FD
330
FA
100
AcDbEntity
  8
Tra\U+00E7at
370
     9
  0
POLYLINE
  5
FE
330
1F
100
AcDbEntity
  8
Tra\U+00E7at
 62
   250
370
     9
100
AcDb2dPolyline
 66
     1
 10
0.0
 20
0.0
 30
0.0
  0
VERTEX
  5
FF
330
FE
100
AcDbEntity
  8
Tra\U+00E7at
 62
   250
370
     9
100
AcDbVertex
100
AcDb2dVertex
 10
85.69227157145887
 20
225.6329114561786
 30
0.0
  0
VERTEX
  5
100
330
FE
100
AcDbEntity
  8
Tra\U+00E7at
 62
   250
370
     9
100
AcDbVertex
100
AcDb2dVertex
 10
88.65488143399948
 20
222.9510768756859
 30
0.0
  0
SEQEND
  5
101
330
FE
100
AcDbEntity
  8
Tra\U+00E7at
370
     9
  0
POLYLINE
  5
102
330
1F
100
AcDbEntity
  8
Tra\U+00E7at
 62
   250
370
     9
100
AcDb2dPolyline
 66
     1
 10
0.0
 20
0.0
 30
0.0
  0
VERTEX
  5
103
330
102
100
AcDbEntity
  8
Tra\U+00E7at
 62
   250
370
     9
100
AcDbVertex
100
AcDb2dVertex
 10
83.16012638980025
 20
205.6801241890314
 30
0.0
  0
VERTEX
  5
104
330
102
100
AcDbEntity
  8
Tra\U+00E7at
 62
   250
370
     9
100
AcDbVertex
100
AcDb2dVertex
 10
85.31348332285566
 20
203.6407999165377
 30
0.0
  0
SEQEND
  5
105
330
102
100
AcDbEntity
  8
Tra\U+00E7at
370
     9
  0
POLYLINE
  5
106
330
1F
100
AcDbEntity
  8
Tra\U+00E7at
 62
   250
370
     9
100
AcDb2dPolyline
 66
     1
 10
0.0
 20
0.0
 30
0.0
  0
VERTEX
  5
107
330
106
100
AcDbEntity
  8
Tra\U+00E7at
 62
   250
370
     9
100
AcDbVertex
100
AcDb2dVertex
 10
49.32325980754766
 20
205.8375650527073
 30
0.0
  0
VERTEX
  5
108
330
106
100
AcDbEntity
  8
Tra\U+00E7at
 62
   250
370
     9
100
AcDbVertex
100
AcDb2dVertex
 10
47.01349553946191
 20
203.6407999165377
 30
0.0
  0
SEQEND
  5
109
330
106
100
AcDbEntity
  8
Tra\U+00E7at
370
     9
  0
POLYLINE
  5
10A
330
1F
100
AcDbEntity
  8
Tra\U+00E7at
 62
   250
370
     9
100
AcDb2dPolyline
 66
     1
 10
0.0
 20
0.0
 30
0.0
  0
VERTEX
  5
10B
330
10A
100
AcDbEntity
  8
Tra\U+00E7at
 62
   250
370
     9
100
AcDbVertex
100
AcDb2dVertex
 10
87.6375447372052
 20
283.3282700572061
 30
0.0
  0
VERTEX
  5
10C
330
10A
100
AcDbEntity
  8
Tra\U+00E7at
 62
   250
370
     9
100
AcDbVertex
100
AcDb2dVertex
 10
105.9459879292427
 20
283.3282700572061
 30
0.0
  0
SEQEND
  5
10D
330
10A
100
AcDbEntity
  8
Tra\U+00E7at
370
     9
  0
POLYLINE
  5
10E
330
1F
100
AcDbEntity
  8
Tra\U+00E7at
 62
   250
370
     9
100
AcDb2dPolyline
 66
     1
 10
0.0
 20
0.0
 30
0.0
  0
VERTEX
  5
10F
330
10E
100
AcDbEntity
  8
Tra\U+00E7at
 62
   250
370
     9
100
AcDbVertex
100
AcDb2dVertex
 10
87.6375447372052
 20
197.9524305060675
 30
0.0
  0
VERTEX
  5
110
330
10E
100
AcDbEntity
  8
Tra\U+00E7at
 62
   250
370
     9
100
AcDbVertex
100
AcDb2dVertex
 10
105.9459879292427
 20
197.9524305060675
 30
0.0
  0
SEQEND
  5
111
330
10E
100
AcDbEntity
  8
Tra\U+00E7at
370
     9
  0
POLYLINE
  5
112
330
1F
100
AcDbEntity
  8
Tra\U+00E7at
 62
   250
370
     9
100
AcDb2dPolyline
 66
     1
 10
0.0
 20
0.0
 30
0.0
  0
VERTEX
  5
113
330
112
100
AcDbEntity
  8
Tra\U+00E7at
 62
   250
370
     9
100
AcDbVertex
100
AcDb2dVertex
 10
103.3523477931723
 20
283.3282700572061
 30
0.0
  0
VERTEX
  5
114
330
112
100
AcDbEntity
  8
Tra\U+00E7at
 62
   250
370
     9
100
AcDbVertex
100
AcDb2dVertex
 10
103.3523477931723
 20
197.9524305060675
 30
0.0
  0
SEQEND
  5
115
330
112
100
AcDbEntity
  8
Tra\U+00E7at
370
     9
  0
MTEXT
  5
116
330
1F
100
AcDbEntity
  8
Tra\U+00E7at
 62
     7
100
AcDbMText
 10
100.9731648510588
 20
235.9328856832043
 30
0.0
 40
3.838222221262667
 41
0.0
 71
     7
 72
     1
  1
\fHelvetica Neue LT Std 55 Roman|b0|i0|c0|p34;\W1;315
 11
-4.371139000186241E-8
 21
0.999999999999999
 31
0.0
 73
     1
 44
1.0
  0
MTEXT
  5
117
330
1F
100
AcDbEntity
  8
Tra\U+00E7at
 62
     7
100
AcDbMText
 10
147.042531972788
 20
164.2766221377503
 30
0.0
 40
3.838222221262667
 41
0.0
 71
     7
 72
     1
  1
\fHelvetica Neue LT Std 55 Roman|b0|i0|c0|p34;\W1;115
 73
     1
 44
1.0
  0
MTEXT
  5
118
330
1F
100
AcDbEntity
  8
Tra\U+00E7at
 62
     7
100
AcDbMText
 10
61.7204359112192
 20
164.2766221377503
 30
0.0
 40
3.838222221262667
 41
0.0
 71
     7
 72
     1
  1
\fHelvetica Neue LT Std 55 Roman|b0|i0|c0|p34;\W1;180
 73
     1
 44
1.0
  0
POLYLINE
  5
119
330
1F
100
AcDbEntity
  8
Tra\U+00E7at
 62
   250
370
     9
100
AcDb2dPolyline
 66
     1
 10
0.0
 20
0.0
 30
0.0
  0
VERTEX
  5
11A
330
119
100
AcDbEntity
  8
Tra\U+00E7at
 62
   250
370
     9
100
AcDbVertex
100
AcDb2dVertex
 10
41.95712889576072
 20
211.6668388685243
 30
0.0
  0
VERTEX
  5
11B
330
119
100
AcDbEntity
  8
Tra\U+00E7at
 62
   250
370
     9
100
AcDbVertex
100
AcDb2dVertex
 10
41.95712889576072
 20
158.5146999386699
 30
0.0
  0
SEQEND
  5
11C
330
119
100
AcDbEntity
  8
Tra\U+00E7at
370
     9
  0
POLYLINE
  5
11D
330
1F
100
AcDbEntity
  8
Tra\U+00E7at
 62
   250
370
     9
100
AcDb2dPolyline
 66
     1
 10
0.0
 20
0.0
 30
0.0
  0
VERTEX
  5
11E
330
11D
100
AcDbEntity
  8
Tra\U+00E7at
 62
   250
370
     9
100
AcDbVertex
100
AcDb2dVertex
 10
90.89884437831697
 20
225.5578083746001
 30
0.0
  0
VERTEX
  5
11F
330
11D
100
AcDbEntity
  8
Tra\U+00E7at
 62
   250
370
     9
100
AcDbVertex
100
AcDb2dVertex
 10
90.89884437831697
 20
158.5146999386699
 30
0.0
  0
SEQEND
  5
120
330
11D
100
AcDbEntity
  8
Tra\U+00E7at
370
     9
  0
POLYLINE
  5
121
330
1F
100
AcDbEntity
  8
Tra\U+00E7at
 62
   250
370
     9
100
AcDb2dPolyline
 66
     1
 10
0.0
 20
0.0
 30
0.0
  0
VERTEX
  5
122
330
121
100
AcDbEntity
  8
Tra\U+00E7at
 62
   250
370
     9
100
AcDbVertex
100
AcDb2dVertex
 10
41.95712889576072
 20
162.5132500136252
 30
0.0
  0
VERTEX
  5
123
330
121
100
AcDbEntity
  8
Tra\U+00E7at
 62
   250
370
     9
100
AcDbVertex
100
AcDb2dVertex
 10
90.89884437831697
 20
162.5132500136252
 30
0.0
  0
SEQEND
  5
124
330
121
100
AcDbEntity
  8
Tra\U+00E7at
370
     9
  0
SPLINE
  5
125
330
1F
100
AcDbEntity
  8
Tra\U+00E7at
 62
   250
370
    35
100
AcDbSpline
210
0.0
220
0.0
230
1.0
 70
    11
 71
     3
 72
   191
 73
   187
 74
     0
 42
0.0000000001
 43
0.0000000001
 40
0.0
 40
0.0
 40
0.0
 40
0.0
 40
1.0
 40
1.0
 40
1.0
 40
2.0
 40
2.0
 40
2.0
 40
3.0
 40
3.0
 40
3.0
 40
4.0
 40
4.0
 40
4.0
 40
5.0
 40
5.0
 40
5.0
 40
6.0
 40
6.0
 40
6.0
 40
7.0
 40
7.0
 40
7.0
 40
8.0
 40
8.0
 40
8.0
 40
9.0
 40
9.0
 40
9.0
 40
10.0
 40
10.0
 40
10.0
 40
11.0
 40
11.0
 40
11.0
 40
12.0
 40
12.0
 40
12.0
 40
13.0
 40
13.0
 40
13.0
 40
14.0
 40
14.0
 40
14.0
 40
15.0
 40
15.0
 40
15.0
 40
16.0
 40
16.0
 40
16.0
 40
17.0
 40
17.0
 40
17.0
 40
18.0
 40
18.0
 40
18.0
 40
19.0
 40
19.0
 40
19.0
 40
20.0
 40
20.0
 40
20.0
 40
21.0
 40
21.0
 40
21.0
 40
22.0
 40
22.0
 40
22.0
 40
23.0
 40
23.0
 40
23.0
 40
24.0
 40
24.0
 40
24.0
 40
25.0
 40
25.0
 40
25.0
 40
26.0
 40
26.0
 40
26.0
 40
27.0
 40
27.0
 40
27.0
 40
28.0
 40
28.0
 40
28.0
 40
29.0
 40
29.0
 40
29.0
 40
30.0
 40
30.0
 40
30.0
 40
31.0
 40
31.0
 40
31.0
 40
32.0
 40
32.0
 40
32.0
 40
33.0
 40
33.0
 40
33.0
 40
34.0
 40
34.0
 40
34.0
 40
35.0
 40
35.0
 40
35.0
 40
36.0
 40
36.0
 40
36.0
 40
37.0
 40
37.0
 40
37.0
 40
38.0
 40
38.0
 40
38.0
 40
39.0
 40
39.0
 40
39.0
 40
40.0
 40
40.0
 40
40.0
 40
41.0
 40
41.0
 40
41.0
 40
42.0
 40
42.0
 40
42.0
 40
43.0
 40
43.0
 40
43.0
 40
44.0
 40
44.0
 40
44.0
 40
45.0
 40
45.0
 40
45.0
 40
46.0
 40
46.0
 40
46.0
 40
47.0
 40
47.0
 40
47.0
 40
48.0
 40
48.0
 40
48.0
 40
49.0
 40
49.0
 40
49.0
 40
50.0
 40
50.0
 40
50.0
 40
51.0
 40
51.0
 40
51.0
 40
52.0
 40
52.0
 40
52.0
 40
53.0
 40
53.0
 40
53.0
 40
54.0
 40
54.0
 40
54.0
 40
55.0
 40
55.0
 40
55.0
 40
56.0
 40
56.0
 40
56.0
 40
57.0
 40
57.0
 40
57.0
 40
58.0
 40
58.0
 40
58.0
 40
59.0
 40
59.0
 40
59.0
 40
60.0
 40
60.0
 40
60.0
 40
61.0
 40
61.0
 40
61.0
 40
62.0
 40
62.0
 40
62.0
 40
62.0
 10
165.6732638474706
 20
284.8680554843385
 30
0.0
 10
165.6732638474706
 20
284.8680554843385
 30
0.0
 10
166.9520832915953
 20
285.0885415953945
 30
0.0
 10
166.9520832915953
 20
283.0600693736794
 30
0.0
 10
166.9520832915953
 20
283.0600693736794
 30
0.0
 10
163.0274305147987
 20
218.6340277231193
 30
0.0
 10
163.0274305147987
 20
218.6340277231193
 30
0.0
 10
163.0274305147987
 20
218.6340277231193
 30
0.0
 10
164.6149305144018
 20
203.1118055047776
 30
0.0
 10
164.6149305144018
 20
203.1118055047776
 30
0.0
 10
164.6149305144018
 20
203.1118055047776
 30
0.0
 10
164.7048475065669
 20
202.3227063838811
 30
0.0
 10
164.2180555145011
 20
201.8770832828641
 30
0.0
 10
164.2180555145011
 20
201.8770832828641
 30
0.0
 10
161.8368055150964
 20
199.6722221723042
 30
0.0
 10
161.8368055150964
 20
199.6722221723042
 30
0.0
 10
161.8368055150964
 20
199.6722221723042
 30
0.0
 10
161.8368055150964
 20
199.0989582835586
 30
0.0
 10
161.8368055150964
 20
199.0989582835586
 30
0.0
 10
161.8368055150964
 20
199.0989582835586
 30
0.0
 10
161.7927082928852
 20
198.2170138393346
 30
0.0
 10
161.1312499597172
 20
198.2170138393346
 30
0.0
 10
161.1312499597172
 20
198.2170138393346
 30
0.0
 10
156.6774305163862
 20
198.4374999503906
 30
0.0
 10
156.6774305163862
 20
198.4374999503906
 30
0.0
 10
156.6774305163862
 20
198.4374999503906
 30
0.0
 10
154.2961805169815
 20
198.6138888392354
 30
0.0
 10
154.2961805169815
 20
198.6138888392354
 30
0.0
 10
154.2961805169815
 20
198.6138888392354
 30
0.0
 10
150.7243055178745
 20
199.0107638391362
 30
0.0
 10
150.7243055178745
 20
199.0107638391362
 30
0.0
 10
150.7243055178745
 20
199.0107638391362
 30
0.0
 10
149.7982638514393
 20
200.2454860610497
 30
0.0
 10
149.7982638514393
 20
200.2454860610497
 30
0.0
 10
149.7982638514393
 20
200.2454860610497
 30
0.0
 10
147.2406249631898
 20
200.2454860610497
 30
0.0
 10
147.2406249631898
 20
200.2454860610497
 30
0.0
 10
147.2406249631898
 20
200.2454860610497
 30
0.0
 10
146.6673610744443
 20
196.4090277286755
 30
0.0
 10
146.6673610744443
 20
196.4090277286755
 30
0.0
 10
146.6673610744443
 20
196.4090277286755
 30
0.0
 10
146.5791666300219
 20
195.7034721732964
 30
0.0
 10
144.5506944083068
 20
195.3065971733956
 30
0.0
 10
142.5222221865917
 20
194.9097221734948
 30
0.0
 10
143.7569444085052
 20
194.8215277290724
 30
0.0
 10
144.5506944083068
 20
194.6010416180164
 30
0.0
 10
144.5506944083068
 20
194.6010416180164
 30
0.0
 10
146.4027777411771
 20
194.0277777292708
 30
0.0
 10
146.4468749633883
 20
193.4986110627365
 30
0.0
 10
146.4468749633883
 20
193.4986110627365
 30
0.0
 10
146.4909721855995
 20
192.9253471739909
 30
0.0
 10
144.0656249639836
 20
192.4402777296677
 30
0.0
 10
141.6402777423677
 20
191.9552082853446
 30
0.0
 10
144.5065971860956
 20
191.8229166187109
 30
0.0
 10
144.5065971860956
 20
191.8229166187109
 30
0.0
 10
144.5065971860956
 20
191.8229166187109
 30
0.0
 10
148.0343749629914
 20
190.9850693966982
 30
0.0
 10
145.3003471858972
 20
189.9708332858406
 30
0.0
 10
145.3003471858972
 20
189.9708332858406
 30
0.0
 10
141.4197916313117
 20
189.2211805082503
 30
0.0
 10
144.6388888527292
 20
188.8684027305607
 30
0.0
 10
144.6388888527292
 20
188.8684027305607
 30
0.0
 10
147.725694407513
 20
187.8982638419143
 30
0.0
 10
144.7711805193628
 20
187.2368055087464
 30
0.0
 10
144.7711805193628
 20
187.2368055087464
 30
0.0
 10
141.5520832979453
 20
186.6194443977896
 30
0.0
 10
144.6388888527292
 20
186.0020832868328
 30
0.0
 10
144.6388888527292
 20
186.0020832868328
 30
0.0
 10
147.2847221854011
 20
185.2524305092425
 30
0.0
 10
144.8593749637852
 20
184.4145832872297
 30
0.0
 10
144.8593749637852
 20
184.4145832872297
 30
0.0
 10
140.6701388537214
 20
183.8413193984841
 30
0.0
 10
144.9034721859963
 20
183.1798610653161
 30
0.0
 10
144.9034721859963
 20
183.1798610653161
 30
0.0
 10
146.6673610744443
 20
182.3861110655146
 30
0.0
 10
144.4184027416732
 20
181.7687499545578
 30
0.0
 10
144.4184027416732
 20
181.7687499545578
 30
0.0
 10
140.9788194091998
 20
181.1072916213899
 30
0.0
 10
144.1097221861948
 20
180.6222221770667
 30
0.0
 10
144.1097221861948
 20
180.6222221770667
 30
0.0
 10
145.0798610748411
 20
180.4899305104331
 30
0.0
 10
145.0798610748411
 20
179.8725693994763
 30
0.0
 10
145.0798610748411
 20
179.8725693994763
 30
0.0
 10
145.4767360747419
 20
178.9465277330412
 30
0.0
 10
143.4041666308156
 20
178.7701388441964
 30
0.0
 10
143.4041666308156
 20
178.7701388441964
 30
0.0
 10
141.6402777423677
 20
178.461458288718
 30
0.0
 10
143.5364582974492
 20
178.020486066606
 30
0.0
 10
143.5364582974492
 20
178.020486066606
 30
0.0
 10
144.7270832971516
 20
177.7559027333388
 30
0.0
 10
144.7270832971516
 20
176.6975694002701
 30
0.0
 10
144.7270832971516
 20
176.6975694002701
 30
0.0
 10
144.7270832971516
 20
174.3604166230766
 30
0.0
 10
144.7270832971516
 20
174.3604166230766
 30
0.0
 10
144.7270832971516
 20
174.3604166230766
 30
0.0
 10
137.1864582990367
 20
174.3604166230766
 30
0.0
 10
137.1864582990367
 20
174.3604166230766
 30
0.0
 10
137.1864582990367
 20
174.3604166230766
 30
0.0
 10
137.1864582990367
 20
176.0802082893133
 30
0.0
 10
137.1864582990367
 20
176.0802082893133
 30
0.0
 10
137.1864582990367
 20
176.0802082893133
 30
0.0
 10
137.0100694101919
 20
176.7857638446925
 30
0.0
 10
138.4211805209503
 20
176.8739582891149
 30
0.0
 10
138.4211805209503
 20
176.8739582891149
 30
0.0
 10
139.699999965075
 20
177.4031249556492
 30
0.0
 10
137.9361110766271
 20
177.8881943999724
 30
0.0
 10
137.9361110766271
 20
177.8881943999724
 30
0.0
 10
136.128124965968
 20
178.6378471775628
 30
0.0
 10
138.0243055210495
 20
179.2552082885195
 30
0.0
 10
138.0243055210495
 20
179.2552082885195
 30
0.0
 10
141.9489582978461
 20
180.1371527327435
 30
0.0
 10
139.3472221873854
 20
180.4458332882219
 30
0.0
 10
139.3472221873854
 20
180.4458332882219
 30
0.0
 10
137.4510416323039
 20
180.6663193992779
 30
0.0
 10
137.4510416323039
 20
181.592361065713
 30
0.0
 10
137.4510416323039
 20
181.592361065713
 30
0.0
 10
136.9659721879807
 20
182.4302082877258
 30
0.0
 10
139.5236110762302
 20
182.5624999543594
 30
0.0
 10
139.5236110762302
 20
182.5624999543594
 30
0.0
 10
140.7583332981438
 20
182.9593749542602
 30
0.0
 10
138.9503471874847
 20
183.1798610653161
 30
0.0
 10
138.9503471874847
 20
183.1798610653161
 30
0.0
 10
135.025694410688
 20
184.3263888428073
 30
0.0
 10
139.259027742963
 20
185.0760416203977
 30
0.0
 10
139.259027742963
 20
185.0760416203977
 30
0.0
 10
141.2874999646781
 20
185.5611110647208
 30
0.0
 10
138.2888888543167
 20
186.1343749534664
 30
0.0
 10
138.2888888543167
 20
186.1343749534664
 30
0.0
 10
136.0840277437568
 20
187.1045138421128
 30
0.0
 10
138.2888888543167
 20
187.7659721752808
 30
0.0
 10
138.2888888543167
 20
187.7659721752808
 30
0.0
 10
142.4781249643805
 20
188.2510416196039
 30
0.0
 10
138.6857638542174
 20
188.8243055083495
 30
0.0
 10
138.6857638542174
 20
188.8243055083495
 30
0.0
 10
135.9958332993344
 20
189.7944443969958
 30
0.0
 10
138.5093749653727
 20
190.5440971745862
 30
0.0
 10
138.5093749653727
 20
190.5440971745862
 30
0.0
 10
141.8166666312125
 20
190.8968749522758
 30
0.0
 10
138.4652777431615
 20
191.6465277298662
 30
0.0
 10
138.4652777431615
 20
191.6465277298662
 30
0.0
 10
136.0399305215456
 20
192.3520832852453
 30
0.0
 10
138.2006944098943
 20
193.1017360628357
 30
0.0
 10
138.2006944098943
 20
193.1017360628357
 30
0.0
 10
141.9930555200573
 20
193.7190971737924
 30
0.0
 10
138.4211805209503
 20
194.4246527291716
 30
0.0
 10
138.4211805209503
 20
194.4246527291716
 30
0.0
 10
137.4069444100927
 20
194.6010416180164
 30
0.0
 10
137.4069444100927
 20
196.0562499509859
 30
0.0
 10
137.4069444100927
 20
196.0562499509859
 30
0.0
 10
137.4069444100927
 20
200.5100693943169
 30
0.0
 10
137.4069444100927
 20
200.5100693943169
 30
0.0
 10
137.4069444100927
 20
200.5100693943169
 30
0.0
 10
137.1582085160577
 20
201.0392360608513
 30
0.0
 10
137.1582085160577
 20
201.0392360608513
 30
0.0
 10
137.1582085160577
 20
201.0392360608513
 30
0.0
 10
136.8777777435583
 20
203.7732638379456
 30
0.0
 10
136.8777777435583
 20
203.7732638379456
 30
0.0
 10
136.8777777435583
 20
203.7732638379456
 30
0.0
 10
135.8194444104896
 20
203.7732638379456
 30
0.0
 10
135.8194444104896
 20
203.7732638379456
 30
0.0
 10
135.8194444104896
 20
203.7732638379456
 30
0.0
 10
135.8194444104896
 20
273.0059027095263
 30
0.0
 10
135.8194444104896
 20
273.0059027095263
 30
0.0
 10
135.8194444104896
 20
273.0059027095263
 30
0.0
 10
135.687152743856
 20
277.3274304862237
 30
0.0
 10
139.5236110762302
 20
277.3274304862237
 30
0.0
 10
139.5236110762302
 20
277.3274304862237
 30
0.0
 10
150.1951388513401
 20
278.4298610415037
 30
0.0
 10
150.1951388513401
 20
278.4298610415037
 30
0.0
 10
150.1951388513401
 20
278.4298610415037
 30
0.0
 10
153.4583332949688
 20
278.518055485926
 30
0.0
 10
155.5309027388951
 20
280.6788193742748
 30
0.0
 10
155.5309027388951
 20
280.6788193742748
 30
0.0
 10
158.1326388493557
 20
284.0302082623258
 30
0.0
 10
158.1326388493557
 20
284.0302082623258
 30
0.0
 10
158.1326388493557
 20
284.0302082623258
 30
0.0
 10
158.3531249604117
 20
284.515277706649
 30
0.0
 10
159.2791666268469
 20
284.515277706649
 30
0.0
 10
159.2791666268469
 20
284.515277706649
 30
0.0
 10
160.86666662645
 20
284.515277706649
 30
0.0
 10
160.86666662645
 20
284.515277706649
 30
0.0
 10
160.86666662645
 20
284.515277706649
 30
0.0
 10
160.8225694042388
 20
285.1767360398169
 30
0.0
 10
161.6163194040404
 20
285.1767360398169
 30
0.0
 10
161.6163194040404
 20
285.1767360398169
 30
0.0
 10
165.6732638474706
 20
284.8680554843385
 30
0.0
 10
165.6732638474706
 20
284.8680554843385
 30
0.0
  0
SPLINE
  5
126
330
1F
100
AcDbEntity
  8
Tra\U+00E7at
 62
   250
370
     9
100
AcDbSpline
210
0.0
220
0.0
230
1.0
 70
     8
 71
     3
 72
    20
 73
    16
 74
     0
 42
0.0000000001
 43
0.0000000001
 40
0.0
 40
0.0
 40
0.0
 40
0.0
 40
1.0
 40
1.0
 40
1.0
 40
2.0
 40
2.0
 40
2.0
 40
3.0
 40
3.0
 40
3.0
 40
4.0
 40
4.0
 40
4.0
 40
5.0
 40
5.0
 40
5.0
 40
5.0
 10
135.8194444104896
 20
267.9934610332621
 30
0.0
 10
135.8194444104896
 20
267.9934610332621
 30
0.0
 10
144.4624999638844
 20
267.6995943883703
 30
0.0
 10
144.4624999638844
 20
267.6995943883703
 30
0.0
 10
144.4624999638844
 20
267.6995943883703
 30
0.0
 10
149.3424777187408
 20
266.9938665782168
 30
0.0
 10
148.5194444073146
 20
260.408738812936
 30
0.0
 10
148.5194444073146
 20
260.408738812936
 30
0.0
 10
146.1089110962853
 20
232.5982055082567
 30
0.0
 10
146.1089110962853
 20
232.5982055082567
 30
0.0
 10
146.1089110962853
 20
232.5982055082567
 30
0.0
 10
146.2263888523323
 20
225.4248276888695
 30
0.0
 10
140.0527777427646
 20
225.1309610439777
 30
0.0
 10
140.0527777427646
 20
225.1309610439777
 30
0.0
 10
135.8194444104896
 20
225.1309610439777
 30
0.0
 10
135.8194444104896
 20
225.1309610439777
 30
0.0
  0
POLYLINE
  5
127
330
1F
100
AcDbEntity
  8
Tra\U+00E7at
 62
   250
370
     9
100
AcDb2dPolyline
 66
     1
 10
0.0
 20
0.0
 30
0.0
  0
VERTEX
  5
128
330
127
100
AcDbEntity
  8
Tra\U+00E7at
 62
   250
370
     9
100
AcDbVertex
100
AcDb2dVertex
 10
143.4682454068413
 20
267.7333563241257
 30
0.0
  0
VERTEX
  5
129
330
127
100
AcDbEntity
  8
Tra\U+00E7at
 62
   250
370
     9
100
AcDbVertex
100
AcDb2dVertex
 10
139.7589110978728
 20
225.1309610439777
 30
0.0
  0
SEQEND
  5
12A
330
127
100
AcDbEntity
  8
Tra\U+00E7at
370
     9
  0
SPLINE
  5
12B
330
1F
100
AcDbEntity
  8
Tra\U+00E7at
 62
   250
370
     9
100
AcDbSpline
210
0.0
220
0.0
230
1.0
 70
     8
 71
     3
 72
    14
 73
    10
 74
     0
 42
0.0000000001
 43
0.0000000001
 40
0.0
 40
0.0
 40
0.0
 40
0.0
 40
1.0
 40
1.0
 40
1.0
 40
2.0
 40
2.0
 40
2.0
 40
3.0
 40
3.0
 40
3.0
 40
3.0
 10
135.7457193671052
 20
271.2861110432896
 30
0.0
 10
135.7457193671052
 20
271.2861110432896
 30
0.0
 10
136.56909718808
 20
275.1225693756638
 30
0.0
 10
138.5975694097951
 20
275.166666597875
 30
0.0
 10
138.5975694097951
 20
275.166666597875
 30
0.0
 10
149.489583295961
 20
276.1368054865214
 30
0.0
 10
149.489583295961
 20
276.1368054865214
 30
0.0
 10
149.489583295961
 20
276.1368054865214
 30
0.0
 10
153.6181857254844
 20
276.6323824720745
 30
0.0
 10
156.0077039540536
 20
281.3981553115949
 30
0.0
  0
POLYLINE
  5
12C
330
1F
100
AcDbEntity
  8
Tra\U+00E7at
 62
   250
370
     9
100
AcDb2dPolyline
 66
     1
 10
0.0
 20
0.0
 30
0.0
  0
VERTEX
  5
12D
330
12C
100
AcDbEntity
  8
Tra\U+00E7at
 62
   250
370
     9
100
AcDbVertex
100
AcDb2dVertex
 10
139.1284586240721
 20
277.3103772635718
 30
0.0
  0
VERTEX
  5
12E
330
12C
100
AcDbEntity
  8
Tra\U+00E7at
 62
   250
370
     9
100
AcDbVertex
100
AcDb2dVertex
 10
139.0826388541182
 20
275.2099025462149
 30
0.0
  0
SEQEND
  5
12F
330
12C
100
AcDbEntity
  8
Tra\U+00E7at
370
     9
  0
POLYLINE
  5
130
330
1F
100
AcDbEntity
  8
Tra\U+00E7at
 62
   250
370
     9
100
AcDb2dPolyline
 66
     1
 10
0.0
 20
0.0
 30
0.0
  0
VERTEX
  5
131
330
130
100
AcDbEntity
  8
Tra\U+00E7at
 62
   250
370
     9
100
AcDbVertex
100
AcDb2dVertex
 10
163.1204480929005
 20
285.0623588697067
 30
0.0
  0
VERTEX
  5
132
330
130
100
AcDbEntity
  8
Tra\U+00E7at
 62
   250
370
     9
100
AcDbVertex
100
AcDb2dVertex
 10
156.3704725086504
 20
198.3493055059682
 30
0.0
  0
SEQEND
  5
133
330
130
100
AcDbEntity
  8
Tra\U+00E7at
370
     9
  0
POLYLINE
  5
134
330
1F
100
AcDbEntity
  8
Tra\U+00E7at
 62
   250
370
    18
100
AcDb2dPolyline
 66
     1
 10
0.0
 20
0.0
 30
0.0
  0
VERTEX
  5
135
330
134
100
AcDbEntity
  8
Tra\U+00E7at
 62
   250
370
    18
100
AcDbVertex
100
AcDb2dVertex
 10
160.7343749598164
 20
284.6026108772
 30
0.0
  0
VERTEX
  5
136
330
134
100
AcDbEntity
  8
Tra\U+00E7at
 62
   250
370
    18
100
AcDbVertex
100
AcDb2dVertex
 10
153.8993055170807
 20
198.5477430059186
 30
0.0
  0
SEQEND
  5
137
330
134
100
AcDbEntity
  8
Tra\U+00E7at
370
    18
  0
POLYLINE
  5
138
330
1F
100
AcDbEntity
  8
Tra\U+00E7at
 62
   250
370
     9
100
AcDb2dPolyline
 66
     1
 10
0.0
 20
0.0
 30
0.0
  0
VERTEX
  5
139
330
138
100
AcDbEntity
  8
Tra\U+00E7at
 62
   250
370
     9
100
AcDbVertex
100
AcDb2dVertex
 10
151.3854193414939
 20
278.6789414450872
 30
0.0
  0
VERTEX
  5
13A
330
138
100
AcDbEntity
  8
Tra\U+00E7at
 62
   250
370
     9
100
AcDbVertex
100
AcDb2dVertex
 10
149.731773508574
 20
276.1738402629878
 30
0.0
  0
SEQEND
  5
13B
330
138
100
AcDbEntity
  8
Tra\U+00E7at
370
     9
  0
POLYLINE
  5
13C
330
1F
100
AcDbEntity
  8
Tra\U+00E7at
 62
   250
370
     9
100
AcDb2dPolyline
 66
     1
 10
0.0
 20
0.0
 30
0.0
  0
VERTEX
  5
13D
330
13C
100
AcDbEntity
  8
Tra\U+00E7at
 62
   250
370
     9
100
AcDbVertex
100
AcDb2dVertex
 10
135.8187553913925
 20
269.3458332659969
 30
0.0
  0
VERTEX
  5
13E
330
13C
100
AcDbEntity
  8
Tra\U+00E7at
 62
   250
370
     9
100
AcDbVertex
100
AcDb2dVertex
 10
159.7456325555497
 20
269.3458332659969
 30
0.0
  0
VERTEX
  5
13F
330
13C
100
AcDbEntity
  8
Tra\U+00E7at
 62
   250
370
     9
100
AcDbVertex
100
AcDb2dVertex
 10
161.8953721383456
 20
269.3458332659969
 30
0.0
  0
VERTEX
  5
140
330
13C
100
AcDbEntity
  8
Tra\U+00E7at
 62
   250
370
     9
100
AcDbVertex
100
AcDb2dVertex
 10
166.0983886303504
 20
269.0483492708456
 30
0.0
  0
SEQEND
  5
141
330
13C
100
AcDbEntity
  8
Tra\U+00E7at
370
     9
  0
POLYLINE
  5
142
330
1F
100
AcDbEntity
  8
Tra\U+00E7at
 62
   250
370
     9
100
AcDb2dPolyline
 66
     1
 10
0.0
 20
0.0
 30
0.0
  0
VERTEX
  5
143
330
142
100
AcDbEntity
  8
Tra\U+00E7at
 62
   250
370
     9
100
AcDbVertex
100
AcDb2dVertex
 10
150.8734781523858
 20
276.5261012763546
 30
0.0
  0
VERTEX
  5
144
330
142
100
AcDbEntity
  8
Tra\U+00E7at
 62
   250
370
     9
100
AcDbVertex
100
AcDb2dVertex
 10
160.218299656126
 20
276.5261012763546
 30
0.0
  0
VERTEX
  5
145
330
142
100
AcDbEntity
  8
Tra\U+00E7at
 62
   250
370
     9
100
AcDbVertex
100
AcDb2dVertex
 10
162.4552001546987
 20
276.5261012763546
 30
0.0
  0
VERTEX
  5
146
330
142
100
AcDbEntity
  8
Tra\U+00E7at
 62
   250
370
     9
100
AcDbVertex
100
AcDb2dVertex
 10
166.5397053620109
 20
276.2894232165179
 30
0.0
  0
SEQEND
  5
147
330
142
100
AcDbEntity
  8
Tra\U+00E7at
370
     9
  0
POLYLINE
  5
148
330
1F
100
AcDbEntity
  8
Tra\U+00E7at
 62
   250
370
     9
100
AcDb2dPolyline
 66
     1
 10
0.0
 20
0.0
 30
0.0
  0
VERTEX
  5
149
330
148
100
AcDbEntity
  8
Tra\U+00E7at
 62
   250
370
     9
100
AcDbVertex
100
AcDb2dVertex
 10
155.633222074807
 20
280.8107665313598
 30
0.0
  0
VERTEX
  5
14A
330
148
100
AcDbEntity
  8
Tra\U+00E7at
 62
   250
370
     9
100
AcDbVertex
100
AcDb2dVertex
 10
160.57004390517
 20
280.8598591420246
 30
0.0
  0
VERTEX
  5
14B
330
148
100
AcDbEntity
  8
Tra\U+00E7at
 62
   250
370
     9
100
AcDbVertex
100
AcDb2dVertex
 10
162.7928195122532
 20
280.8598591420246
 30
0.0
  0
VERTEX
  5
14C
330
148
100
AcDbEntity
  8
Tra\U+00E7at
 62
   250
370
     9
100
AcDbVertex
100
AcDb2dVertex
 10
166.7939534088223
 20
280.4626396325753
 30
0.0
  0
SEQEND
  5
14D
330
148
100
AcDbEntity
  8
Tra\U+00E7at
370
     9
  0
POLYLINE
  5
14E
330
1F
100
AcDbEntity
  8
Tra\U+00E7at
 62
   250
370
     9
100
AcDb2dPolyline
 66
     1
 10
0.0
 20
0.0
 30
0.0
  0
VERTEX
  5
14F
330
14E
100
AcDbEntity
  8
Tra\U+00E7at
 62
   250
370
     9
100
AcDbVertex
100
AcDb2dVertex
 10
135.8194444104896
 20
223.4258110335533
 30
0.0
  0
VERTEX
  5
150
330
14E
100
AcDbEntity
  8
Tra\U+00E7at
 62
   250
370
     9
100
AcDbVertex
100
AcDb2dVertex
 10
155.9091742231755
 20
223.4258110335533
 30
0.0
  0
VERTEX
  5
151
330
14E
100
AcDbEntity
  8
Tra\U+00E7at
 62
   250
370
     9
100
AcDbVertex
100
AcDb2dVertex
 10
158.2980034326477
 20
223.1893052284909
 30
0.0
  0
VERTEX
  5
152
330
14E
100
AcDbEntity
  8
Tra\U+00E7at
 62
   250
370
     9
100
AcDbVertex
100
AcDb2dVertex
 10
163.273065822897
 20
222.6654784599586
 30
0.0
  0
SEQEND
  5
153
330
14E
100
AcDbEntity
  8
Tra\U+00E7at
370
     9
  0
SPLINE
  5
154
330
1F
100
AcDbEntity
  8
Tra\U+00E7at
 62
   250
370
     9
100
AcDbSpline
210
0.0
220
0.0
230
1.0
 70
     8
 71
     3
 72
    14
 73
    10
 74
     0
 42
0.0000000001
 43
0.0000000001
 40
0.0
 40
0.0
 40
0.0
 40
0.0
 40
1.0
 40
1.0
 40
1.0
 40
2.0
 40
2.0
 40
2.0
 40
3.0
 40
3.0
 40
3.0
 40
3.0
 10
135.8194444104896
 20
209.0795721591016
 30
0.0
 10
135.8194444104896
 20
209.0795721591016
 30
0.0
 10
144.9331000071695
 20
208.6091443705908
 30
0.0
 10
144.9331000071695
 20
208.6091443705908
 30
0.0
 10
144.9331000071695
 20
208.6091443705908
 30
0.0
 10
147.049766673307
 20
208.7855332594356
 30
0.0
 10
147.7553222286862
 20
205.9633110379189
 30
0.0
 10
147.7553222286862
 20
205.9633110379189
 30
0.0
 10
149.7982638514393
 20
200.1131943944162
 30
0.0
 10
149.7982638514393
 20
200.1131943944162
 30
0.0
  0
SPLINE
  5
155
330
1F
100
AcDbEntity
  8
Tra\U+00E7at
 62
   250
370
     9
100
AcDbSpline
210
0.0
220
0.0
230
1.0
 70
     8
 71
     3
 72
    11
 73
     7
 74
     0
 42
0.0000000001
 43
0.0000000001
 40
0.0
 40
0.0
 40
0.0
 40
0.0
 40
1.0
 40
1.0
 40
1.0
 40
2.0
 40
2.0
 40
2.0
 40
2.0
 10
150.7243055178745
 20
198.9225693947138
 30
0.0
 10
150.7243055178745
 20
198.9225693947138
 30
0.0
 10
149.546082861919
 20
203.7291666157344
 30
0.0
 10
149.546082861919
 20
203.7291666157344
 30
0.0
 10
149.546082861919
 20
203.7291666157344
 30
0.0
 10
148.6131510045134
 20
208.3740166037225
 30
0.0
 10
144.9331000071695
 20
208.6091443705908
 30
0.0
  0
POLYLINE
  5
156
330
1F
100
AcDbEntity
  8
Tra\U+00E7at
 62
   250
370
     9
100
AcDb2dPolyline
 66
     1
 10
0.0
 20
0.0
 30
0.0
  0
VERTEX
  5
157
330
156
100
AcDbEntity
  8
Tra\U+00E7at
 62
   250
370
     9
100
AcDbVertex
100
AcDb2dVertex
 10
149.2728867899387
 20
204.6624429826886
 30
0.0
  0
VERTEX
  5
158
330
156
100
AcDbEntity
  8
Tra\U+00E7at
 62
   250
370
     9
100
AcDbVertex
100
AcDb2dVertex
 10
154.3499240065514
 20
204.2130302766377
 30
0.0
  0
VERTEX
  5
159
330
156
100
AcDbEntity
  8
Tra\U+00E7at
 62
   250
370
     9
100
AcDbVertex
100
AcDb2dVertex
 10
156.81902394083
 20
204.2130302766377
 30
0.0
  0
VERTEX
  5
15A
330
156
100
AcDbEntity
  8
Tra\U+00E7at
 62
   250
370
     9
100
AcDbVertex
100
AcDb2dVertex
 10
162.1775254585876
 20
203.3250569153146
 30
0.0
  0
SEQEND
  5
15B
330
156
100
AcDbEntity
  8
Tra\U+00E7at
370
     9
  0
POLYLINE
  5
15C
330
1F
100
AcDbEntity
  8
Tra\U+00E7at
 62
   250
370
    18
100
AcDb2dPolyline
 66
     1
 10
0.0
 20
0.0
 30
0.0
  0
VERTEX
  5
15D
330
15C
100
AcDbEntity
  8
Tra\U+00E7at
 62
   250
370
    18
100
AcDbVertex
100
AcDb2dVertex
 10
163.1204480929005
 20
218.57546109987
 30
0.0
  0
VERTEX
  5
15E
330
15C
100
AcDbEntity
  8
Tra\U+00E7at
 62
   250
370
    18
100
AcDbVertex
100
AcDb2dVertex
 10
161.9305121122952
 20
199.6391492556458
 30
0.0
  0
SEQEND
  5
15F
330
15C
100
AcDbEntity
  8
Tra\U+00E7at
370
    18
  0
POLYLINE
  5
160
330
1F
100
AcDbEntity
  8
Tra\U+00E7at
 62
   250
370
     9
100
AcDb2dPolyline
 66
     1
 10
0.0
 20
0.0
 30
0.0
  0
VERTEX
  5
161
330
160
100
AcDbEntity
  8
Tra\U+00E7at
 62
   250
370
     9
100
AcDbVertex
100
AcDb2dVertex
 10
162.2722655844319
 20
204.7385795929126
 30
0.0
  0
VERTEX
  5
162
330
160
100
AcDbEntity
  8
Tra\U+00E7at
 62
   250
370
     9
100
AcDbVertex
100
AcDb2dVertex
 10
164.3944444033458
 20
206.2132527153738
 30
0.0
  0
SEQEND
  5
163
330
160
100
AcDbEntity
  8
Tra\U+00E7at
370
     9
  0
POLYLINE
  5
164
330
1F
100
AcDbEntity
  8
Tra\U+00E7at
 62
   250
370
     9
100
AcDb2dPolyline
 66
     1
 10
0.0
 20
0.0
 30
0.0
  0
VERTEX
  5
165
330
164
100
AcDbEntity
  8
Tra\U+00E7at
 62
   250
370
     9
100
AcDbVertex
100
AcDb2dVertex
 10
146.1089110962853
 20
232.5982055082567
 30
0.0
  0
VERTEX
  5
166
330
164
100
AcDbEntity
  8
Tra\U+00E7at
 62
   250
370
     9
100
AcDbVertex
100
AcDb2dVertex
 10
156.653659357538
 20
232.5982055082567
 30
0.0
  0
VERTEX
  5
167
330
164
100
AcDbEntity
  8
Tra\U+00E7at
 62
   250
370
     9
100
AcDbVertex
100
AcDb2dVertex
 10
159.0311197519089
 20
232.5982055082567
 30
0.0
  0
VERTEX
  5
168
330
164
100
AcDbEntity
  8
Tra\U+00E7at
 62
   250
370
     9
100
AcDbVertex
100
AcDb2dVertex
 10
163.838750501575
 20
231.9529391238694
 30
0.0
  0
SEQEND
  5
169
330
164
100
AcDbEntity
  8
Tra\U+00E7at
370
     9
  0
POLYLINE
  5
16A
330
1F
100
AcDbEntity
  8
Tra\U+00E7at
 62
   250
370
     9
100
AcDb2dPolyline
 66
     1
 10
0.0
 20
0.0
 30
0.0
  0
VERTEX
  5
16B
330
16A
100
AcDbEntity
  8
Tra\U+00E7at
 62
   250
370
     9
100
AcDbVertex
100
AcDb2dVertex
 10
135.8194444104896
 20
205.3995211617578
 30
0.0
  0
VERTEX
  5
16C
330
16A
100
AcDbEntity
  8
Tra\U+00E7at
 62
   250
370
     9
100
AcDbVertex
100
AcDb2dVertex
 10
148.2200656096464
 20
204.6624429826886
 30
0.0
  0
SEQEND
  5
16D
330
16A
100
AcDbEntity
  8
Tra\U+00E7at
370
     9
  0
SPLINE
  5
16E
330
1F
100
AcDbEntity
  8
Tra\U+00E7at
 62
   250
370
     9
100
AcDbSpline
210
0.0
220
0.0
230
1.0
 70
     8
 71
     3
 72
    20
 73
    16
 74
     0
 42
0.0000000001
 43
0.0000000001
 40
0.0
 40
0.0
 40
0.0
 40
0.0
 40
1.0
 40
1.0
 40
1.0
 40
2.0
 40
2.0
 40
2.0
 40
3.0
 40
3.0
 40
3.0
 40
4.0
 40
4.0
 40
4.0
 40
5.0
 40
5.0
 40
5.0
 40
5.0
 10
138.2902668925108
 20
205.2525878393119
 30
0.0
 10
138.2902668925108
 20
205.2525878393119
 30
0.0
 10
138.2902668925108
 20
204.1701388378464
 30
0.0
 10
138.2902668925108
 20
204.1701388378464
 30
0.0
 10
138.2902668925108
 20
204.1701388378464
 30
0.0
 10
138.2006944098943
 20
203.3250569153146
 30
0.0
 10
139.2149305207518
 20
203.3250569153146
 30
0.0
 10
139.2149305207518
 20
203.3250569153146
 30
0.0
 10
146.1381944079099
 20
203.3250569153146
 30
0.0
 10
146.1381944079099
 20
203.3250569153146
 30
0.0
 10
146.1381944079099
 20
203.3250569153146
 30
0.0
 10
146.8878471855003
 20
203.2435804070884
 30
0.0
 10
146.8878471855003
 20
203.9937499490016
 30
0.0
 10
146.8878471855003
 20
203.9937499490016
 30
0.0
 10
146.8878471855003
 20
204.7416801788493
 30
0.0
 10
146.8878471855003
 20
204.7416801788493
 30
0.0
  0
SPLINE
  5
16F
330
1F
100
AcDbEntity
  8
Tra\U+00E7at
 62
   250
370
     9
100
AcDbSpline
210
0.0
220
0.0
230
1.0
 70
    11
 71
     3
 72
    17
 73
    13
 74
     0
 42
0.0000000001
 43
0.0000000001
 40
0.0
 40
0.0
 40
0.0
 40
0.0
 40
1.0
 40
1.0
 40
1.0
 40
2.0
 40
2.0
 40
2.0
 40
3.0
 40
3.0
 40
3.0
 40
4.0
 40
4.0
 40
4.0
 40
4.0
 10
139.259027742963
 20
197.0263888396323
 30
0.0
 10
139.259027742963
 20
197.0263888396323
 30
0.0
 10
145.2562499636859
 20
197.0263888396323
 30
0.0
 10
145.2562499636859
 20
197.0263888396323
 30
0.0
 10
146.4468749633883
 20
197.0704860618435
 30
0.0
 10
146.1381944079099
 20
200.9069443942177
 30
0.0
 10
146.1381944079099
 20
200.9069443942177
 30
0.0
 10
146.1381944079099
 20
200.9069443942177
 30
0.0
 10
138.4652777431615
 20
201.3920138385409
 30
0.0
 10
138.4652777431615
 20
201.3920138385409
 30
0.0
 10
138.4652777431615
 20
201.3920138385409
 30
0.0
 10
137.7597221877823
 20
197.0263888396323
 30
0.0
 10
139.259027742963
 20
197.0263888396323
 30
0.0
  0
POLYLINE
  5
170
330
1F
100
AcDbEntity
  8
Tra\U+00E7at
 62
   250
370
     9
100
AcDb2dPolyline
 66
     1
 10
0.0
 20
0.0
 30
0.0
  0
VERTEX
  5
171
330
170
100
AcDbEntity
  8
Tra\U+00E7at
 62
   250
370
     9
100
AcDbVertex
100
AcDb2dVertex
 10
139.2149305207518
 20
203.3250569153146
 30
0.0
  0
VERTEX
  5
172
330
170
100
AcDbEntity
  8
Tra\U+00E7at
 62
   250
370
     9
100
AcDbVertex
100
AcDb2dVertex
 10
139.2149305207518
 20
201.3446437756187
 30
0.0
  0
SEQEND
  5
173
330
170
100
AcDbEntity
  8
Tra\U+00E7at
370
     9
  0
POLYLINE
  5
174
330
1F
100
AcDbEntity
  8
Tra\U+00E7at
 62
   250
370
     9
100
AcDb2dPolyline
 66
     1
 10
0.0
 20
0.0
 30
0.0
  0
VERTEX
  5
175
330
174
100
AcDbEntity
  8
Tra\U+00E7at
 62
   250
370
     9
100
AcDbVertex
100
AcDb2dVertex
 10
145.7413194080091
 20
203.3224730937006
 30
0.0
  0
VERTEX
  5
176
330
174
100
AcDbEntity
  8
Tra\U+00E7at
 62
   250
370
     9
100
AcDbVertex
100
AcDb2dVertex
 10
145.7413194080091
 20
200.93209359126
 30
0.0
  0
SEQEND
  5
177
330
174
100
AcDbEntity
  8
Tra\U+00E7at
370
     9
  0
SPLINE
  5
178
330
1F
100
AcDbEntity
  8
Tra\U+00E7at
 62
   250
370
     9
100
AcDbSpline
210
0.0
220
0.0
230
1.0
 70
     8
 71
     3
 72
    11
 73
     7
 74
     0
 42
0.0000000001
 43
0.0000000001
 40
0.0
 40
0.0
 40
0.0
 40
0.0
 40
1.0
 40
1.0
 40
1.0
 40
2.0
 40
2.0
 40
2.0
 40
2.0
 10
138.2881998352196
 20
204.2874443391191
 30
0.0
 10
138.2881998352196
 20
204.2874443391191
 30
0.0
 10
137.5878119230683
 20
204.4524644128626
 30
0.0
 10
137.5878119230683
 20
203.4709567091149
 30
0.0
 10
137.5878119230683
 20
203.4709567091149
 30
0.0
 10
137.3463107295523
 20
199.9073499391725
 30
0.0
 10
137.3463107295523
 20
199.9073499391725
 30
0.0
  0
POLYLINE
  5
179
330
1F
100
AcDbEntity
  8
Tra\U+00E7at
 62
   250
370
     9
100
AcDb2dPolyline
 66
     1
 10
0.0
 20
0.0
 30
0.0
  0
VERTEX
  5
17A
330
179
100
AcDbEntity
  8
Tra\U+00E7at
 62
   250
370
     9
100
AcDbVertex
100
AcDb2dVertex
 10
135.8194444104896
 20
200.93209359126
 30
0.0
  0
VERTEX
  5
17B
330
179
100
AcDbEntity
  8
Tra\U+00E7at
 62
   250
370
     9
100
AcDbVertex
100
AcDb2dVertex
 10
135.8194444104896
 20
158.5146999386699
 30
0.0
  0
SEQEND
  5
17C
330
179
100
AcDbEntity
  8
Tra\U+00E7at
370
     9
  0
POLYLINE
  5
17D
330
1F
100
AcDbEntity
  8
Tra\U+00E7at
 62
   250
370
    15
100
AcDb2dPolyline
 66
     1
 10
0.0
 20
0.0
 30
0.0
  0
VERTEX
  5
17E
330
17D
100
AcDbEntity
  8
Tra\U+00E7at
 62
   250
370
    15
100
AcDbVertex
100
AcDb2dVertex
 10
167.6872666681476
 20
285.1767360398169
 30
0.0
  0
VERTEX
  5
17F
330
17D
100
AcDbEntity
  8
Tra\U+00E7at
 62
   250
370
    15
100
AcDbVertex
100
AcDb2dVertex
 10
167.6872666681476
 20
158.5146999386699
 30
0.0
  0
SEQEND
  5
180
330
17D
100
AcDbEntity
  8
Tra\U+00E7at
370
    15
  0
POLYLINE
  5
181
330
1F
100
AcDbEntity
  8
Tra\U+00E7at
 62
   250
370
     9
100
AcDb2dPolyline
 66
     1
 10
0.0
 20
0.0
 30
0.0
  0
VERTEX
  5
182
330
181
100
AcDbEntity
  8
Tra\U+00E7at
 62
   250
370
     9
100
AcDbVertex
100
AcDb2dVertex
 10
135.8501057603083
 20
162.5132500136252
 30
0.0
  0
VERTEX
  5
183
330
181
100
AcDbEntity
  8
Tra\U+00E7at
 62
   250
370
     9
100
AcDbVertex
100
AcDb2dVertex
 10
167.6500596369069
 20
162.5132500136252
 30
0.0
  0
SEQEND
  5
184
330
181
100
AcDbEntity
  8
Tra\U+00E7at
370
     9
  0
ENDSEC
  0
SECTION
  2
OBJECTS
  0
DICTIONARY
  5
C
330
0
100
AcDbDictionary
281
     1
  3
ACAD_GROUP
350
D
  3
ACAD_IMAGE_DICT
350
4C
  3
ACAD_IMAGE_VARS
350
4E
  3
ACAD_LAYOUT
350
1A
  3
ACAD_MLINESTYLE
350
17
  3
ACAD_PLOTSETTINGS
350
19
  3
ACAD_PLOTSTYLENAME
350
E
  3
ACAD_TABLESTYLE
350
185
  3
ACAD_VISUALSTYLE
350
2A
  0
IMAGEDEF_REACTOR
  5
50
330
4F
100
AcDbRasterImageDefReactor
 90
        2
330
4F
  0
DICTIONARY
  5
D
102
{ACAD_REACTORS
330
C
102
}
330
C
100
AcDbDictionary
281
     1
  0
DICTIONARY
  5
4C
102
{ACAD_REACTORS
330
C
102
}
330
C
100
AcDbDictionary
281
     1
  3
X:\PRODUC-TECA\PRODUCTES\V - RVE\eHOME\DI_eHOME_MD12_1.png
350
4D
  0
RASTERVARIABLES
  5
4E
102
{ACAD_REACTORS
330
C
102
}
330
C
100
AcDbRasterVariables
 90
        0
 70
     0
 71
     1
 72
     0
  0
DICTIONARY
  5
1A
102
{ACAD_REACTORS
330
C
102
}
330
C
100
AcDbDictionary
281
     1
  3
Layout1
350
1E
  3
Layout2
350
26
  3
Model
350
22
  0
DICTIONARY
  5
17
102
{ACAD_REACTORS
330
C
102
}
330
C
100
AcDbDictionary
281
     1
  3
Standard
350
18
  0
DICTIONARY
  5
19
102
{ACAD_REACTORS
330
C
102
}
330
C
100
AcDbDictionary
281
     1
  0
ACDBDICTIONARYWDFLT
  5
E
102
{ACAD_REACTORS
330
C
102
}
330
C
100
AcDbDictionary
281
     1
  3
Normal
350
F
100
AcDbDictionaryWithDefault
340
F
  0
DICTIONARY
  5
185
102
{ACAD_REACTORS
330
C
102
}
330
C
100
AcDbDictionary
281
     1
  0
DICTIONARY
  5
2A
102
{ACAD_REACTORS
330
C
102
}
330
C
100
AcDbDictionary
281
     1
  3
2dWireframe
350
2F
  3
3D Hidden
350
31
  3
3dWireframe
350
30
  3
Basic
350
32
  3
Brighten
350
36
  3
ColorChange
350
3A
  3
Conceptual
350
34
  3
Dim
350
35
  3
Facepattern
350
39
  3
Flat
350
2B
  3
FlatWithEdges
350
2C
  3
Gouraud
350
2D
  3
GouraudWithEdges
350
2E
  3
Linepattern
350
38
  3
Realistic
350
33
  3
Thicken
350
37
  0
IMAGEDEF
  5
4D
102
{ACAD_REACTORS
330
4C
330
50
102
}
330
4C
100
AcDbRasterImageDef
 90
        0
  1
X:\PRODUC-TECA\PRODUCTES\V - RVE\eHOME\DI_eHOME_MD12_1.png
 10
617.0
 20
510.0
 11
0.3527777777777777
 21
0.3527777777777777
280
     1
281
     5
  0
LAYOUT
  5
1E
102
{ACAD_REACTORS
330
1A
102
}
330
1A
100
AcDbPlotSettings
  1

  2
none_device
  4

  6

 40
0.0
 41
0.0
 42
0.0
 43
0.0
 44
0.0
 45
0.0
 46
0.0
 47
0.0
 48
0.0
 49
0.0
140
0.0
141
0.0
142
1.0
143
1.0
 70
   688
 72
     0
 73
     0
 74
     5
  7

 75
    16
 76
     0
 77
     2
 78
   300
147
1.0
148
0.0
149
0.0
100
AcDbLayout
  1
Layout1
 70
     1
 71
     1
 10
0.0
 20
0.0
 11
12.0
 21
9.0
 12
0.0
 22
0.0
 32
0.0
 14
1.000000000000000E+20
 24
1.000000000000000E+20
 34
1.000000000000000E+20
 15
-1.000000000000000E+20
 25
-1.000000000000000E+20
 35
-1.000000000000000E+20
146
0.0
 13
0.0
 23
0.0
 33
0.0
 16
1.0
 26
0.0
 36
0.0
 17
0.0
 27
1.0
 37
0.0
 76
     0
330
1B
  0
LAYOUT
  5
26
102
{ACAD_REACTORS
330
1A
102
}
330
1A
100
AcDbPlotSettings
  1

  2
none_device
  4

  6

 40
0.0
 41
0.0
 42
0.0
 43
0.0
 44
0.0
 45
0.0
 46
0.0
 47
0.0
 48
0.0
 49
0.0
140
0.0
141
0.0
142
1.0
143
1.0
 70
   688
 72
     0
 73
     0
 74
     5
  7

 75
    16
 76
     0
 77
     2
 78
   300
147
1.0
148
0.0
149
0.0
100
AcDbLayout
  1
Layout2
 70
     1
 71
     2
 10
0.0
 20
0.0
 11
0.0
 21
0.0
 12
0.0
 22
0.0
 32
0.0
 14
0.0
 24
0.0
 34
0.0
 15
0.0
 25
0.0
 35
0.0
146
0.0
 13
0.0
 23
0.0
 33
0.0
 16
1.0
 26
0.0
 36
0.0
 17
0.0
 27
1.0
 37
0.0
 76
     0
330
23
  0
LAYOUT
  5
22
102
{ACAD_REACTORS
330
1A
102
}
330
1A
100
AcDbPlotSettings
  1

  2
none_device
  4

  6

 40
0.0
 41
0.0
 42
0.0
 43
0.0
 44
0.0
 45
0.0
 46
0.0
 47
0.0
 48
0.0
 49
0.0
140
0.0
141
0.0
142
1.0
143
1.0
 70
  1712
 72
     0
 73
     0
 74
     0
  7

 75
     0
 76
     0
 77
     2
 78
   300
147
1.0
148
0.0
149
0.0
100
AcDbLayout
  1
Model
 70
     1
 71
     0
 10
0.0
 20
0.0
 11
12.0
 21
9.0
 12
0.0
 22
0.0
 32
0.0
 14
1.000000000000000E+20
 24
1.000000000000000E+20
 34
1.000000000000000E+20
 15
-1.000000000000000E+20
 25
-1.000000000000000E+20
 35
-1.000000000000000E+20
146
0.0
 13
0.0
 23
0.0
 33
0.0
 16
1.0
 26
0.0
 36
0.0
 17
0.0
 27
1.0
 37
0.0
 76
     0
330
1F
331
29
  0
MLINESTYLE
  5
18
102
{ACAD_REACTORS
330
17
102
}
330
17
100
AcDbMlineStyle
  2
Standard
 70
     0
  3

 62
   256
 51
90.0
 52
90.0
 71
     2
 49
0.5
 62
   256
  6
BYLAYER
 49
-0.5
 62
   256
  6
BYLAYER
  0
ACDBPLACEHOLDER
  5
F
102
{ACAD_REACTORS
330
E
102
}
330
E
  0
VISUALSTYLE
  5
2F
102
{ACAD_REACTORS
330
2A
102
}
330
2A
100
AcDbVisualStyle
  2
2dWireframe
 70
     4
 71
     0
 72
     2
 73
     0
 90
        0
 40
-0.6
 41
-30.0
 62
     5
 63
     7
421
 16777215
 74
     1
 91
        4
 64
     7
 65
   257
 75
     1
175
     1
 42
1.0
 92
        0
 66
   257
 43
1.0
 76
     1
 77
     6
 78
     2
 67
     7
 79
     5
170
     0
171
     0
290
     0
174
     0
 93
        1
 44
0.0
173
     0
291
     0
 45
0.0
1001
ACAD
1000
AcDbSavedByObjectVersion
1070
     0
  0
VISUALSTYLE
  5
31
102
{ACAD_REACTORS
330
2A
102
}
330
2A
100
AcDbVisualStyle
  2
3D Hidden
 70
     6
 71
     1
 72
     2
 73
     2
 90
        0
 40
-0.6
 41
-30.0
 62
     5
 63
     7
421
 16777215
 74
     2
 91
        2
 64
     7
 65
   257
 75
     2
175
     1
 42
40.0
 92
        0
 66
   257
 43
1.0
 76
     1
 77
     6
 78
     2
 67
     7
 79
     3
170
     0
171
     0
290
     0
174
     0
 93
        1
 44
0.0
173
     0
291
     0
 45
0.0
1001
ACAD
1000
AcDbSavedByObjectVersion
1070
     0
  0
VISUALSTYLE
  5
30
102
{ACAD_REACTORS
330
2A
102
}
330
2A
100
AcDbVisualStyle
  2
3dWireframe
 70
     5
 71
     0
 72
     2
 73
     0
 90
        0
 40
-0.6
 41
-30.0
 62
     5
 63
     7
421
 16777215
 74
     1
 91
        4
 64
     7
 65
   257
 75
     1
175
     1
 42
1.0
 92
        0
 66
   257
 43
1.0
 76
     1
 77
     6
 78
     2
 67
     7
 79
     5
170
     0
171
     0
290
     0
174
     0
 93
        1
 44
0.0
173
     0
291
     0
 45
0.0
1001
ACAD
1000
AcDbSavedByObjectVersion
1070
     0
  0
VISUALSTYLE
  5
32
102
{ACAD_REACTORS
330
2A
102
}
330
2A
100
AcDbVisualStyle
  2
Basic
 70
     7
 71
     1
 72
     0
 73
     1
 90
        0
 40
-0.6
 41
-30.0
 62
     5
 63
     7
421
 16777215
 74
     0
 91
        4
 64
     7
 65
   257
 75
     1
175
     1
 42
1.0
 92
        8
 66
     7
 43
1.0
 76
     1
 77
     6
 78
     2
 67
     7
 79
     5
170
     0
171
     0
290
     0
174
     0
 93
        1
 44
0.0
173
     0
291
     1
 45
0.0
1001
ACAD
1000
AcDbSavedByObjectVersion
1070
     0
  0
VISUALSTYLE
  5
36
102
{ACAD_REACTORS
330
2A
102
}
330
2A
100
AcDbVisualStyle
  2
Brighten
 70
    12
 71
     2
 72
     2
 73
     0
 90
        0
 40
-0.6
 41
-30.0
 62
     5
 63
     7
421
 16777215
 74
     1
 91
        4
 64
     7
 65
   257
 75
     1
175
     1
 42
1.0
 92
        8
 66
     7
 43
1.0
 76
     1
 77
     6
 78
     2
 67
     7
 79
     5
170
     0
171
     0
290
     0
174
     0
 93
        1
 44
50.0
173
     0
291
     1
 45
0.0
1001
ACAD
1000
AcDbSavedByObjectVersion
1070
     0
  0
VISUALSTYLE
  5
3A
102
{ACAD_REACTORS
330
2A
102
}
330
2A
100
AcDbVisualStyle
  2
ColorChange
 70
    16
 71
     2
 72
     2
 73
     3
 90
        0
 40
-0.6
 41
-30.0
 62
     5
 63
     8
421
  8421504
 74
     1
 91
        4
 64
     7
 65
   257
 75
     1
175
     1
 42
1.0
 92
        8
 66
     8
424
  8421504
 43
1.0
 76
     1
 77
     6
 78
     2
 67
     7
 79
     5
170
     0
171
     0
290
     0
174
     0
 93
        1
 44
0.0
173
     0
291
     1
 45
0.0
1001
ACAD
1000
AcDbSavedByObjectVersion
1070
     0
  0
VISUALSTYLE
  5
34
102
{ACAD_REACTORS
330
2A
102
}
330
2A
100
AcDbVisualStyle
  2
Conceptual
 70
     9
 71
     3
 72
     2
 73
     0
 90
        0
 40
-0.6
 41
-30.0
 62
     5
 63
     7
421
 16777215
 74
     2
 91
        2
 64
     7
 65
   257
 75
     1
175
     1
 42
40.0
 92
        8
 66
     7
 43
1.0
 76
     1
 77
     6
 78
     2
 67
     7
 79
     3
170
     0
171
     0
290
     0
174
     0
 93
        1
 44
0.0
173
     0
291
     0
 45
0.0
1001
ACAD
1000
AcDbSavedByObjectVersion
1070
     0
  0
VISUALSTYLE
  5
35
102
{ACAD_REACTORS
330
2A
102
}
330
2A
100
AcDbVisualStyle
  2
Dim
 70
    11
 71
     2
 72
     2
 73
     0
 90
        0
 40
-0.6
 41
-30.0
 62
     5
 63
     7
421
 16777215
 74
     1
 91
        4
 64
     7
 65
   257
 75
     1
175
     1
 42
1.0
 92
        8
 66
     7
 43
1.0
 76
     1
 77
     6
 78
     2
 67
     7
 79
     5
170
     0
171
     0
290
     0
174
     0
 93
        1
 44
-50.0
173
     0
291
     1
 45
0.0
1001
ACAD
1000
AcDbSavedByObjectVersion
1070
     0
  0
VISUALSTYLE
  5
39
102
{ACAD_REACTORS
330
2A
102
}
330
2A
100
AcDbVisualStyle
  2
Facepattern
 70
    15
 71
     2
 72
     2
 73
     0
 90
        0
 40
-0.6
 41
-30.0
 62
     5
 63
     7
421
 16777215
 74
     1
 91
        4
 64
     7
 65
   257
 75
     1
175
     1
 42
1.0
 92
        8
 66
     7
 43
1.0
 76
     1
 77
     6
 78
     2
 67
     7
 79
     5
170
     0
171
     0
290
     0
174
     0
 93
        1
 44
0.0
173
     0
291
     1
 45
0.0
1001
ACAD
1000
AcDbSavedByObjectVersion
1070
     0
  0
VISUALSTYLE
  5
2B
102
{ACAD_REACTORS
330
2A
102
}
330
2A
100
AcDbVisualStyle
  2
Flat
 70
     0
 71
     2
 72
     1
 73
     1
 90
        2
 40
-0.6
 41
30.0
 62
     5
 63
     7
421
 16777215
 74
     0
 91
        4
 64
     7
 65
   257
 75
     1
175
     1
 42
1.0
 92
        8
 66
     7
 43
1.0
 76
     1
 77
     6
 78
     2
 67
     7
 79
     5
170
     0
171
     0
290
     0
174
     0
 93
       13
 44
0.0
173
     0
291
     1
 45
0.0
1001
ACAD
1000
AcDbSavedByObjectVersion
1070
     0
  0
VISUALSTYLE
  5
2C
102
{ACAD_REACTORS
330
2A
102
}
330
2A
100
AcDbVisualStyle
  2
FlatWithEdges
 70
     1
 71
     2
 72
     1
 73
     1
 90
        2
 40
-0.6
 41
30.0
 62
     5
 63
     7
421
 16777215
 74
     1
 91
        4
 64
     7
 65
   257
 75
     1
175
     1
 42
1.0
 92
        0
 66
   257
 43
1.0
 76
     1
 77
     6
 78
     2
 67
     7
 79
     5
170
     0
171
     0
290
     0
174
     0
 93
       13
 44
0.0
173
     0
291
     1
 45
0.0
1001
ACAD
1000
AcDbSavedByObjectVersion
1070
     0
  0
VISUALSTYLE
  5
2D
102
{ACAD_REACTORS
330
2A
102
}
330
2A
100
AcDbVisualStyle
  2
Gouraud
 70
     2
 71
     2
 72
     2
 73
     1
 90
        2
 40
-0.6
 41
30.0
 62
     5
 63
     7
421
 16777215
 74
     0
 91
        4
 64
     7
 65
   257
 75
     1
175
     1
 42
1.0
 92
        0
 66
     7
 43
1.0
 76
     1
 77
     6
 78
     2
 67
     7
 79
     5
170
     0
171
     0
290
     0
174
     0
 93
       13
 44
0.0
173
     0
291
     1
 45
0.0
1001
ACAD
1000
AcDbSavedByObjectVersion
1070
     0
  0
VISUALSTYLE
  5
2E
102
{ACAD_REACTORS
330
2A
102
}
330
2A
100
AcDbVisualStyle
  2
GouraudWithEdges
 70
     3
 71
     2
 72
     2
 73
     1
 90
        2
 40
-0.6
 41
30.0
 62
     5
 63
     7
421
 16777215
 74
     1
 91
        4
 64
     7
 65
   257
 75
     1
175
     1
 42
1.0
 92
        0
 66
   257
 43
1.0
 76
     1
 77
     6
 78
     2
 67
     7
 79
     5
170
     0
171
     0
290
     0
174
     0
 93
       13
 44
0.0
173
     0
291
     1
 45
0.0
1001
ACAD
1000
AcDbSavedByObjectVersion
1070
     0
  0
VISUALSTYLE
  5
38
102
{ACAD_REACTORS
330
2A
102
}
330
2A
100
AcDbVisualStyle
  2
Linepattern
 70
    14
 71
     2
 72
     2
 73
     0
 90
        0
 40
-0.6
 41
-30.0
 62
     5
 63
     7
421
 16777215
 74
     1
 91
        4
 64
     7
 65
   257
 75
     7
175
     7
 42
1.0
 92
        8
 66
     7
 43
1.0
 76
     1
 77
     6
 78
     2
 67
     7
 79
     5
170
     0
171
     0
290
     0
174
     0
 93
        1
 44
0.0
173
     0
291
     1
 45
0.0
1001
ACAD
1000
AcDbSavedByObjectVersion
1070
     0
  0
VISUALSTYLE
  5
33
102
{ACAD_REACTORS
330
2A
102
}
330
2A
100
AcDbVisualStyle
  2
Realistic
 70
     8
 71
     2
 72
     2
 73
     0
 90
        0
 40
-0.6
 41
-30.0
 62
     5
 63
     7
421
 16777215
 74
     1
 91
        0
 64
     7
 65
   257
 75
     1
175
     1
 42
1.0
 92
        8
 66
     8
424
  7895160
 43
1.0
 76
     1
 77
     6
 78
     2
 67
     7
 79
     5
170
     0
171
     0
290
     0
174
     0
 93
       13
 44
0.0
173
     0
291
     0
 45
0.0
1001
ACAD
1000
AcDbSavedByObjectVersion
1070
     0
  0
VISUALSTYLE
  5
37
102
{ACAD_REACTORS
330
2A
102
}
330
2A
100
AcDbVisualStyle
  2
Thicken
 70
    13
 71
     2
 72
     2
 73
     0
 90
        0
 40
-0.6
 41
-30.0
 62
     5
 63
     7
421
 16777215
 74
     1
 91
        4
 64
     7
 65
   257
 75
     1
175
     1
 42
1.0
 92
       12
 66
     7
 43
1.0
 76
     1
 77
     6
 78
     2
 67
     7
 79
     5
170
     0
171
     0
290
     0
174
     0
 93
        1
 44
0.0
173
     0
291
     1
 45
0.0
1001
ACAD
1000
AcDbSavedByObjectVersion
1070
     0
  0
ENDSEC
  0
EOF
